999
dxfrw 0.6.3
  0
SECTION
  2
HEADER
  9
$ACADVER
  1
AC1021
  9
$DWGCODEPAGE
  3
ANSI_1252
  9
$INSBASE
 10
0
 20
0
 30
0
  9
$EXTMIN
 10
-1720.616533985008
 20
-341.5016914145095
 30
0
  9
$EXTMAX
 10
4000
 20
4700
 30
0
  9
$LIMMIN
 10
0
 20
0
  9
$LIMMAX
 10
420
 20
297
  9
$ORTHOMODE
 70
    0
  9
$REGENMODE
 70
    1
  9
$FILLMODE
 70
    1
  9
$QTEXTMODE
 70
    0
  9
$MIRRTEXT
 70
    0
  9
$LTSCALE
 40
1
  9
$ATTMODE
 70
    0
  9
$TEXTSIZE
 40
2.5
  9
$TRACEWID
 40
15.68
  9
$TEXTSTYLE
  7
STANDARD
  9
$CLAYER
  8
0
  9
$CELTYPE
  6
BYLAYER
  9
$CECOLOR
 62
  256
  9
$CELTSCALE
 40
1
  9
$DISPSILH
 70
    0
  9
$DIMSCALE
 40
2.5
  9
$DIMASZ
 40
2.5
  9
$DIMEXO
 40
0.625
  9
$DIMDLI
 40
3.75
  9
$DIMRND
 40
0
  9
$DIMDLE
 40
0
  9
$DIMEXE
 40
1.25
  9
$DIMTP
 40
0
  9
$DIMTM
 40
0
  9
$DIMTXT
 40
2.5
  9
$DIMCEN
 40
2.5
  9
$DIMTSZ
 40
0
  9
$DIMTOL
 70
    0
  9
$DIMLIM
 70
    0
  9
$DIMTIH
 70
    0
  9
$DIMTOH
 70
    0
  9
$DIMSE1
 70
    0
  9
$DIMSE2
 70
    0
  9
$DIMTAD
 70
    1
  9
$DIMZIN
 70
    8
  9
$DIMBLK
  1

  9
$DIMASO
 70
    1
  9
$DIMSHO
 70
    1
  9
$DIMPOST
  1

  9
$DIMAPOST
  1

  9
$DIMALT
 70
    0
  9
$DIMALTD
 70
    3
  9
$DIMALTF
 40
0.03937
  9
$DIMLFAC
 40
1
  9
$DIMTOFL
 70
    1
  9
$DIMTVP
 40
0
  9
$DIMTIX
 70
    0
  9
$DIMSOXD
 70
    0
  9
$DIMSAH
 70
    0
  9
$DIMBLK1
  1

  9
$DIMBLK2
  1

  9
$DIMSTYLE
  2
STANDARD
  9
$DIMCLRD
 70
    0
  9
$DIMCLRE
 70
    0
  9
$DIMCLRT
 70
    0
  9
$DIMTFAC
 40
1
  9
$DIMGAP
 40
0.625
  9
$DIMJUST
 70
    0
  9
$DIMSD1
 70
    0
  9
$DIMSD2
 70
    0
  9
$DIMTOLJ
 70
    0
  9
$DIMTZIN
 70
    8
  9
$DIMALTZ
 70
    0
  9
$DIMALTTZ
 70
    0
  9
$DIMUPT
 70
    0
  9
$DIMDEC
 70
    2
  9
$DIMTDEC
 70
    2
  9
$DIMALTU
 70
    2
  9
$DIMALTTD
 70
    3
  9
$DIMTXSTY
  7
STANDARD
  9
$DIMAUNIT
 70
    0
  9
$DIMADEC
 70
    0
  9
$DIMALTRND
 40
0
  9
$DIMAZIN
 70
    0
  9
$DIMDSEP
 70
   44
  9
$DIMATFIT
 70
    3
  9
$DIMFRAC
 70
    0
  9
$DIMLDRBLK
  1
STANDARD
  9
$DIMLUNIT
 70
    2
  9
$DIMLWD
 70
   -2
  9
$DIMLWE
 70
   -2
  9
$DIMTMOVE
 70
    0
  9
$DIMFXL
 40
1
  9
$DIMFXLON
 70
    0
  9
$DIMJOGANG
 40
0.7854
  9
$DIMTFILL
 70
    0
  9
$DIMTFILLCLR
 70
    0
  9
$DIMARCSYM
 70
    0
  9
$DIMLTYPE
  6

  9
$DIMLTEX1
  6

  9
$DIMLTEX2
  6

  9
$LUNITS
 70
    2
  9
$LUPREC
 70
    4
  9
$SKETCHINC
 40
1
  9
$FILLETRAD
 40
0
  9
$AUNITS
 70
    0
  9
$AUPREC
 70
    2
  9
$MENU
  1
.
  9
$ELEVATION
 40
0
  9
$PELEVATION
 40
0
  9
$THICKNESS
 40
0
  9
$LIMCHECK
 70
    0
  9
$CHAMFERA
 40
0
  9
$CHAMFERB
 40
0
  9
$CHAMFERC
 40
0
  9
$CHAMFERD
 40
0
  9
$SKPOLY
 70
    0
  9
$USRTIMER
 70
    1
  9
$ANGBASE
 50
0
  9
$ANGDIR
 70
    0
  9
$PDMODE
 70
   34
  9
$PDSIZE
 40
0
  9
$PLINEWID
 40
0
  9
$SPLFRAME
 70
    0
  9
$SPLINETYPE
 70
    2
  9
$SPLINESEGS
 70
    8
  9
$HANDSEED
  5
20000
  9
$SURFTAB1
 70
    6
  9
$SURFTAB2
 70
    6
  9
$SURFTYPE
 70
    6
  9
$SURFU
 70
    6
  9
$SURFV
 70
    6
  9
$UCSBASE
  2

  9
$UCSNAME
  2

  9
$UCSORG
 10
0
 20
0
 30
0
  9
$UCSXDIR
 10
1
 20
0
 30
0
  9
$UCSYDIR
 10
0
 20
1
 30
0
  9
$UCSORTHOREF
  2

  9
$UCSORTHOVIEW
 70
    0
  9
$UCSORGTOP
 10
0
 20
0
 30
0
  9
$UCSORGBOTTOM
 10
0
 20
0
 30
0
  9
$UCSORGLEFT
 10
0
 20
0
 30
0
  9
$UCSORGRIGHT
 10
0
 20
0
 30
0
  9
$UCSORGFRONT
 10
0
 20
0
 30
0
  9
$UCSORGBACK
 10
0
 20
0
 30
0
  9
$PUCSBASE
  2

  9
$PUCSNAME
  2

  9
$PUCSORG
 10
0
 20
0
 30
0
  9
$PUCSXDIR
 10
1
 20
0
 30
0
  9
$PUCSYDIR
 10
0
 20
1
 30
0
  9
$PUCSORTHOREF
  2

  9
$PUCSORTHOVIEW
 70
    0
  9
$PUCSORGTOP
 10
0
 20
0
 30
0
  9
$PUCSORGBOTTOM
 10
0
 20
0
 30
0
  9
$PUCSORGLEFT
 10
0
 20
0
 30
0
  9
$PUCSORGRIGHT
 10
0
 20
0
 30
0
  9
$PUCSORGFRONT
 10
0
 20
0
 30
0
  9
$PUCSORGBACK
 10
0
 20
0
 30
0
  9
$USERI1
 70
    0
  9
$USERI2
 70
    0
  9
$USERI3
 70
    0
  9
$USERI4
 70
    0
  9
$USERI5
 70
    0
  9
$USERR1
 40
0
  9
$USERR2
 40
0
  9
$USERR3
 40
0
  9
$USERR4
 40
0
  9
$USERR5
 40
0
  9
$WORLDVIEW
 70
    1
  9
$SHADEDGE
 70
    3
  9
$SHADEDIF
 70
   70
  9
$TILEMODE
 70
    1
  9
$MAXACTVP
 70
   64
  9
$PINSBASE
 10
0
 20
0
 30
0
  9
$PLIMCHECK
 70
    0
  9
$PEXTMIN
 10
0
 20
0
 30
0
  9
$PEXTMAX
 10
0
 20
0
 30
0
  9
$GRIDMODE
 70
    1
  9
$SNAPSTYLE
 70
    0
  9
$PLIMMIN
 10
0
 20
0
  9
$PLIMMAX
 10
297
 20
210
  9
$UNITMODE
 70
    0
  9
$VISRETAIN
 70
    1
  9
$PLINEGEN
 70
    0
  9
$PSLTSCALE
 70
    1
  9
$TREEDEPTH
 70
 3020
  9
$CMLSTYLE
  2
Standard
  9
$CMLJUST
 70
    0
  9
$CMLSCALE
 40
20
  9
$PROXYGRAPHICS
 70
    1
  9
$MEASUREMENT
 70
    1
  9
$CELWEIGHT
370
   -1
  9
$ENDCAPS
280
    0
  9
$JOINSTYLE
280
    0
  9
$LWDISPLAY
290
    0
  9
$INSUNITS
 70
    4
  9
$HYPERLINKBASE
  1

  9
$STYLESHEET
  1

  9
$XEDIT
290
    1
  9
$CEPSNTYPE
380
    0
  9
$PSTYLEMODE
290
    1
  9
$EXTNAMES
290
    1
  9
$PSVPSCALE
 40
1
  9
$OLESTARTUP
290
    0
  9
$SORTENTS
280
  127
  9
$INDEXCTL
280
    0
  9
$HIDETEXT
280
    1
  9
$XCLIPFRAME
290
    0
  9
$HALOGAP
280
    0
  9
$OBSCOLOR
 70
  257
  9
$OBSLTYPE
280
    0
  9
$INTERSECTIONDISPLAY
280
    0
  9
$INTERSECTIONCOLOR
 70
  257
  9
$DIMASSOC
280
    1
  9
$PROJECTNAME
  1

  9
$CAMERADISPLAY
290
    0
  9
$LENSLENGTH
 40
50
  9
$CAMERAHEIGHT
 40
0
  9
$STEPSPERSEC
 40
2
  9
$STEPSIZE
 40
50
  9
$3DDWFPREC
 40
2
  9
$PSOLWIDTH
 40
5
  9
$PSOLHEIGHT
 40
80
  9
$LOFTANG1
 40
1.570796326794897
  9
$LOFTANG2
 40
1.570796326794897
  9
$LOFTMAG1
 40
0
  9
$LOFTMAG2
 40
0
  9
$LOFTPARAM
 70
    7
  9
$LOFTNORMALS
280
    1
  9
$LATITUDE
 40
1
  9
$LONGITUDE
 40
1
  9
$NORTHDIRECTION
 40
0
  9
$TIMEZONE
 70
-8000
  9
$LIGHTGLYPHDISPLAY
280
    1
  9
$TILEMODELIGHTSYNCH
280
    1
  9
$SOLIDHIST
280
    1
  9
$SHOWHIST
280
    1
  9
$DWFFRAME
280
    2
  9
$DGNFRAME
280
    0
  9
$REALWORLDSCALE
290
    1
  9
$INTERFERECOLOR
 62
    1
  9
$CSHADOW
280
    0
  9
$SHADOWPLANELOCATION
 40
0
  0
ENDSEC
  0
SECTION
  2
CLASSES
  0
ENDSEC
  0
SECTION
  2
TABLES
  0
TABLE
  2
VPORT
  5
8
330
0
100
AcDbSymbolTable
 70
    1
  0
VPORT
  5
31
330
2
100
AcDbSymbolTableRecord
100
AcDbViewportTableRecord
  2
*ACTIVE
 70
    0
 10
0
 20
0
 11
1
 21
1
 12
5359.989514044938
 22
3641.60646389465
 13
0
 23
0
 14
10
 24
10
 15
10
 25
10
 16
0
 26
0
 36
1
 17
0
 27
0
 37
0
 40
8751.235533546831
 41
1.794538361508452
 42
50
 43
0
 44
0
 50
0
 51
0
 71
    0
 72
  100
 73
    1
 74
    3
 75
    0
 76
    1
 77
    0
 78
    0
281
    0
 65
    1
110
0
120
0
130
0
111
1
121
0
131
0
112
0
122
1
132
0
 79
    0
146
0
348
10020
 60
    7
 61
    5
292
1
282
    1
141
0
142
0
 63
  250
421
3358443
  0
ENDTAB
  0
TABLE
  2
LTYPE
  5
5
330
0
100
AcDbSymbolTable
 70
    4
  0
LTYPE
  5
14
330
5
100
AcDbSymbolTableRecord
100
AcDbLinetypeTableRecord
  2
ByBlock
 70
    0
  3

 72
   65
 73
    0
 40
0
  0
LTYPE
  5
15
330
5
100
AcDbSymbolTableRecord
100
AcDbLinetypeTableRecord
  2
ByLayer
 70
    0
  3

 72
   65
 73
    0
 40
0
  0
LTYPE
  5
16
330
5
100
AcDbSymbolTableRecord
100
AcDbLinetypeTableRecord
  2
Continuous
 70
    0
  3
Solid line
 72
   65
 73
    0
 40
0
  0
LTYPE
  5
32
330
5
100
AcDbSymbolTableRecord
100
AcDbLinetypeTableRecord
  2
DOT
 70
    0
  3
Dot . . . . . . . . . . . . . . . . . . . . . .
 72
   65
 73
    2
 40
6.35
 49
0
 74
    0
 49
-6.35
 74
    0
  0
LTYPE
  5
33
330
5
100
AcDbSymbolTableRecord
100
AcDbLinetypeTableRecord
  2
DOTTINY
 70
    0
  3
Dot (.15x) .....................................
 72
   65
 73
    2
 40
0.9525
 49
0
 74
    0
 49
-0.9525
 74
    0
  0
LTYPE
  5
34
330
5
100
AcDbSymbolTableRecord
100
AcDbLinetypeTableRecord
  2
DOT2
 70
    0
  3
Dot (.5x) .....................................
 72
   65
 73
    2
 40
3.175
 49
0
 74
    0
 49
-3.175
 74
    0
  0
LTYPE
  5
35
330
5
100
AcDbSymbolTableRecord
100
AcDbLinetypeTableRecord
  2
DOTX2
 70
    0
  3
Dot (2x) .  .  .  .  .  .  .  .  .  .  .  .  .
 72
   65
 73
    2
 40
12.7
 49
0
 74
    0
 49
-12.7
 74
    0
  0
LTYPE
  5
36
330
5
100
AcDbSymbolTableRecord
100
AcDbLinetypeTableRecord
  2
DASHED
 70
    0
  3
Dashed _ _ _ _ _ _ _ _ _ _ _ _ _ _ _ _ _
 72
   65
 73
    2
 40
19.05
 49
12.7
 74
    0
 49
-6.35
 74
    0
  0
LTYPE
  5
37
330
5
100
AcDbSymbolTableRecord
100
AcDbLinetypeTableRecord
  2
DASHEDTINY
 70
    0
  3
Dashed (.15x) _ _ _ _ _ _ _ _ _ _ _ _ _ _ _ _ _
 72
   65
 73
    2
 40
2.8575
 49
1.905
 74
    0
 49
-0.9525
 74
    0
  0
LTYPE
  5
38
330
5
100
AcDbSymbolTableRecord
100
AcDbLinetypeTableRecord
  2
DASHED2
 70
    0
  3
Dashed (.5x) _ _ _ _ _ _ _ _ _ _ _ _ _ _ _ _ _
 72
   65
 73
    2
 40
9.524999999999999
 49
6.35
 74
    0
 49
-3.175
 74
    0
  0
LTYPE
  5
39
330
5
100
AcDbSymbolTableRecord
100
AcDbLinetypeTableRecord
  2
DASHEDX2
 70
    0
  3
Dashed (2x) ____  ____  ____  ____  ____  ___
 72
   65
 73
    2
 40
38.09999999999999
 49
25.4
 74
    0
 49
-12.7
 74
    0
  0
LTYPE
  5
3A
330
5
100
AcDbSymbolTableRecord
100
AcDbLinetypeTableRecord
  2
DASHDOT
 70
    0
  3
Dash dot __ . __ . __ . __ . __ . __ . __ . __
 72
   65
 73
    4
 40
25.4
 49
12.7
 74
    0
 49
-6.35
 74
    0
 49
0
 74
    0
 49
-6.35
 74
    0
  0
LTYPE
  5
3B
330
5
100
AcDbSymbolTableRecord
100
AcDbLinetypeTableRecord
  2
DASHDOTTINY
 70
    0
  3
Dash dot (.15x) _._._._._._._._._._._._._._._.
 72
   65
 73
    4
 40
3.81
 49
1.905
 74
    0
 49
-0.9525
 74
    0
 49
0
 74
    0
 49
-0.9525
 74
    0
  0
LTYPE
  5
3C
330
5
100
AcDbSymbolTableRecord
100
AcDbLinetypeTableRecord
  2
DASHDOT2
 70
    0
  3
Dash dot (.5x) _._._._._._._._._._._._._._._.
 72
   65
 73
    4
 40
12.7
 49
6.35
 74
    0
 49
-3.175
 74
    0
 49
0
 74
    0
 49
-3.175
 74
    0
  0
LTYPE
  5
3D
330
5
100
AcDbSymbolTableRecord
100
AcDbLinetypeTableRecord
  2
DASHDOTX2
 70
    0
  3
Dash dot (2x) ____  .  ____  .  ____  .  ___
 72
   65
 73
    4
 40
50.8
 49
25.4
 74
    0
 49
-12.7
 74
    0
 49
0
 74
    0
 49
-12.7
 74
    0
  0
LTYPE
  5
3E
330
5
100
AcDbSymbolTableRecord
100
AcDbLinetypeTableRecord
  2
DIVIDE
 70
    0
  3
Divide ____ . . ____ . . ____ . . ____ . . ____
 72
   65
 73
    6
 40
31.75
 49
12.7
 74
    0
 49
-6.35
 74
    0
 49
0
 74
    0
 49
-6.35
 74
    0
 49
0
 74
    0
 49
-6.35
 74
    0
  0
LTYPE
  5
3F
330
5
100
AcDbSymbolTableRecord
100
AcDbLinetypeTableRecord
  2
DIVIDETINY
 70
    0
  3
Divide (.15x) __..__..__..__..__..__..__..__.._
 72
   65
 73
    6
 40
4.7625
 49
1.905
 74
    0
 49
-0.9525
 74
    0
 49
0
 74
    0
 49
-0.9525
 74
    0
 49
0
 74
    0
 49
-0.9525
 74
    0
  0
LTYPE
  5
40
330
5
100
AcDbSymbolTableRecord
100
AcDbLinetypeTableRecord
  2
DIVIDE2
 70
    0
  3
Divide (.5x) __..__..__..__..__..__..__..__.._
 72
   65
 73
    6
 40
15.875
 49
6.35
 74
    0
 49
-3.175
 74
    0
 49
0
 74
    0
 49
-3.175
 74
    0
 49
0
 74
    0
 49
-3.175
 74
    0
  0
LTYPE
  5
41
330
5
100
AcDbSymbolTableRecord
100
AcDbLinetypeTableRecord
  2
DIVIDEX2
 70
    0
  3
Divide (2x) ________  .  .  ________  .  .  _
 72
   65
 73
    6
 40
63.5
 49
25.4
 74
    0
 49
-12.7
 74
    0
 49
0
 74
    0
 49
-12.7
 74
    0
 49
0
 74
    0
 49
-12.7
 74
    0
  0
LTYPE
  5
42
330
5
100
AcDbSymbolTableRecord
100
AcDbLinetypeTableRecord
  2
BORDER
 70
    0
  3
Border __ __ . __ __ . __ __ . __ __ . __ __ .
 72
   65
 73
    6
 40
44.45
 49
12.7
 74
    0
 49
-6.35
 74
    0
 49
12.7
 74
    0
 49
-6.35
 74
    0
 49
0
 74
    0
 49
-6.35
 74
    0
  0
LTYPE
  5
43
330
5
100
AcDbSymbolTableRecord
100
AcDbLinetypeTableRecord
  2
BORDERTINY
 70
    0
  3
Border (.15x) __.__.__.__.__.__.__.__.__.__.__.
 72
   65
 73
    6
 40
6.6675
 49
1.905
 74
    0
 49
-0.9525
 74
    0
 49
1.905
 74
    0
 49
-0.9525
 74
    0
 49
0
 74
    0
 49
-0.9525
 74
    0
  0
LTYPE
  5
44
330
5
100
AcDbSymbolTableRecord
100
AcDbLinetypeTableRecord
  2
BORDER2
 70
    0
  3
Border (.5x) __.__.__.__.__.__.__.__.__.__.__.
 72
   65
 73
    6
 40
22.225
 49
6.35
 74
    0
 49
-3.175
 74
    0
 49
6.35
 74
    0
 49
-3.175
 74
    0
 49
0
 74
    0
 49
-3.175
 74
    0
  0
LTYPE
  5
45
330
5
100
AcDbSymbolTableRecord
100
AcDbLinetypeTableRecord
  2
BORDERX2
 70
    0
  3
Border (2x) ____  ____  .  ____  ____  .  ___
 72
   65
 73
    6
 40
88.89999999999999
 49
25.4
 74
    0
 49
-12.7
 74
    0
 49
25.4
 74
    0
 49
-12.7
 74
    0
 49
0
 74
    0
 49
-12.7
 74
    0
  0
LTYPE
  5
46
330
5
100
AcDbSymbolTableRecord
100
AcDbLinetypeTableRecord
  2
CENTER
 70
    0
  3
Center ____ _ ____ _ ____ _ ____ _ ____ _ ____
 72
   65
 73
    4
 40
50.8
 49
31.75
 74
    0
 49
-6.35
 74
    0
 49
6.35
 74
    0
 49
-6.35
 74
    0
  0
LTYPE
  5
47
330
5
100
AcDbSymbolTableRecord
100
AcDbLinetypeTableRecord
  2
CENTERTINY
 70
    0
  3
Center (.15x) ___ _ ___ _ ___ _ ___ _ ___ _ ___
 72
   65
 73
    4
 40
7.619999999999999
 49
4.7625
 74
    0
 49
-0.9525
 74
    0
 49
0.9525
 74
    0
 49
-0.9525
 74
    0
  0
LTYPE
  5
48
330
5
100
AcDbSymbolTableRecord
100
AcDbLinetypeTableRecord
  2
CENTER2
 70
    0
  3
Center (.5x) ___ _ ___ _ ___ _ ___ _ ___ _ ___
 72
   65
 73
    4
 40
28.575
 49
19.05
 74
    0
 49
-3.175
 74
    0
 49
3.175
 74
    0
 49
-3.175
 74
    0
  0
LTYPE
  5
49
330
5
100
AcDbSymbolTableRecord
100
AcDbLinetypeTableRecord
  2
CENTERX2
 70
    0
  3
Center (2x) ________  __  ________  __  _____
 72
   65
 73
    4
 40
101.6
 49
63.5
 74
    0
 49
-12.7
 74
    0
 49
12.7
 74
    0
 49
-12.7
 74
    0
  0
ENDTAB
  0
TABLE
  2
LAYER
  5
2
330
0
100
AcDbSymbolTable
 70
    1
  0
LAYER
  5
10
330
2
100
AcDbSymbolTableRecord
100
AcDbLayerTableRecord
  2
0
 70
    0
 62
    7
  6
CONTINUOUS
370
    0
390
F
  0
LAYER
  5
4A
330
2
100
AcDbSymbolTableRecord
100
AcDbLayerTableRecord
  2
label
 70
    0
 62
    4
  6
CONTINUOUS
370
    0
390
F
  0
LAYER
  5
4B
330
2
100
AcDbSymbolTableRecord
100
AcDbLayerTableRecord
  2
laser
 70
    0
 62
    7
  6
CONTINUOUS
370
    0
390
F
  0
LAYER
  5
4C
330
2
100
AcDbSymbolTableRecord
100
AcDbLayerTableRecord
  2
sheet
 70
    0
 62
    6
  6
CONTINUOUS
370
    0
390
F
  0
ENDTAB
  0
TABLE
  2
STYLE
  5
3
330
0
100
AcDbSymbolTable
 70
    3
  0
STYLE
  5
4D
330
2
100
AcDbSymbolTableRecord
100
AcDbTextStyleTableRecord
  2
standard
 70
    0
 40
0
 41
1
 50
0
 71
    0
 42
1
  3
standard
  4

  0
ENDTAB
  0
TABLE
  2
VIEW
  5
6
330
0
100
AcDbSymbolTable
 70
    0
  0
ENDTAB
  0
TABLE
  2
UCS
  5
7
330
0
100
AcDbSymbolTable
 70
    0
  0
ENDTAB
  0
TABLE
  2
APPID
  5
9
330
0
100
AcDbSymbolTable
 70
    1
  0
APPID
  5
12
330
9
100
AcDbSymbolTableRecord
100
AcDbRegAppTableRecord
  2
ACAD
 70
    0
  0
APPID
  5
4E
330
9
100
AcDbSymbolTableRecord
100
AcDbRegAppTableRecord
  2
LibreCad
 70
    0
  0
ENDTAB
  0
TABLE
  2
DIMSTYLE
  5
A
330
0
100
AcDbSymbolTable
 70
    1
100
AcDbDimStyleTable
 71
    1
  0
DIMSTYLE
105
4F
330
A
100
AcDbSymbolTableRecord
100
AcDbDimStyleTableRecord
  2
Standard
 70
    0
 40
2.5
 41
2.5
 42
0.625
 43
0.38
 44
1.25
 45
0
 46
0
 47
0
 48
0
 49
1
140
2.5
141
0.09
142
0
143
25.4
144
1
145
0
146
1
147
0.625
148
0
 71
    0
 72
    0
 73
    0
 74
    1
 75
    0
 76
    0
 77
    0
 78
    8
 79
    0
170
    0
171
    2
172
    0
173
    0
174
    0
175
    0
176
    0
177
    0
178
    0
179
    0
271
    2
272
    4
273
    2
274
    2
275
    0
276
    0
277
    2
278
   44
279
    0
280
    0
281
    0
282
    0
283
    1
284
    0
285
    0
286
    0
288
    0
289
    3
340
STANDARD
341

371
   -2
372
   -2
  0
ENDTAB
  0
TABLE
  2
BLOCK_RECORD
  5
1
330
0
100
AcDbSymbolTable
 70
    2
  0
BLOCK_RECORD
  5
1F
330
1
100
AcDbSymbolTableRecord
100
AcDbBlockTableRecord
  2
*Model_Space
 70
    0
280
    1
281
    0
  0
BLOCK_RECORD
  5
1E
330
1
100
AcDbSymbolTableRecord
100
AcDbBlockTableRecord
  2
*Paper_Space
 70
    0
280
    1
281
    0
  0
ENDTAB
  0
ENDSEC
  0
SECTION
  2
BLOCKS
  0
BLOCK
  5
20
330
1F
100
AcDbEntity
  8
0
100
AcDbBlockBegin
  2
*Model_Space
 70
    0
 10
0
 20
0
 30
0
  3
*Model_Space
  1

  0
ENDBLK
  5
21
330
1F
100
AcDbEntity
  8
0
100
AcDbBlockEnd
  0
BLOCK
  5
1C
330
1B
100
AcDbEntity
  8
0
100
AcDbBlockBegin
  2
*Paper_Space
 70
    0
 10
0
 20
0
 30
0
  3
*Paper_Space
  1

  0
ENDBLK
  5
1D
330
1F
100
AcDbEntity
  8
0
100
AcDbBlockEnd
  0
ENDSEC
  0
SECTION
  2
ENTITIES
  0
LINE
  5
50
100
AcDbEntity
  8
0
  6
ByBlock
 62
  256
370
   -1
100
AcDbLine
 10
0
 20
0
 11
100
 21
100
  0
LINE
  5
51
100
AcDbEntity
  8
0
  6
ByBlock
 62
  256
370
   -1
100
AcDbLine
 10
100
 20
100
 11
0
 21
200
  0
LINE
  5
52
100
AcDbEntity
  8
0
  6
ByBlock
 62
  256
370
   -1
100
AcDbLine
 10
0
 20
200
 11
100
 21
300
  0
LINE
  5
53
100
AcDbEntity
  8
0
  6
ByBlock
 62
  256
370
   -1
100
AcDbLine
 10
100
 20
300
 11
0
 21
400
  0
LINE
  5
54
100
AcDbEntity
  8
0
  6
ByBlock
 62
  256
370
   -1
100
AcDbLine
 10
0
 20
400
 11
100
 21
500
  0
LINE
  5
55
100
AcDbEntity
  8
0
  6
ByBlock
 62
  256
370
   -1
100
AcDbLine
 10
100
 20
500
 11
0
 21
600
  0
LINE
  5
56
100
AcDbEntity
  8
0
  6
ByBlock
 62
  256
370
   -1
100
AcDbLine
 10
0
 20
600
 11
100
 21
700
  0
LINE
  5
57
100
AcDbEntity
  8
0
  6
ByBlock
 62
  256
370
   -1
100
AcDbLine
 10
100
 20
700
 11
0
 21
800
  0
LINE
  5
58
100
AcDbEntity
  8
0
  6
ByBlock
 62
  256
370
   -1
100
AcDbLine
 10
0
 20
800
 11
100
 21
900
  0
LINE
  5
59
100
AcDbEntity
  8
0
  6
ByBlock
 62
  256
370
   -1
100
AcDbLine
 10
100
 20
900
 11
0
 21
1000
  0
LINE
  5
5A
100
AcDbEntity
  8
0
  6
ByBlock
 62
  256
370
   -1
100
AcDbLine
 10
0
 20
1000
 11
100
 21
1100
  0
LINE
  5
5B
100
AcDbEntity
  8
0
  6
ByBlock
 62
  256
370
   -1
100
AcDbLine
 10
100
 20
1100
 11
0
 21
1200
  0
LINE
  5
5C
100
AcDbEntity
  8
0
  6
ByBlock
 62
  256
370
   -1
100
AcDbLine
 10
0
 20
1200
 11
100
 21
1300
  0
LINE
  5
5D
100
AcDbEntity
  8
0
  6
ByBlock
 62
  256
370
   -1
100
AcDbLine
 10
100
 20
1300
 11
0
 21
1400
  0
LINE
  5
5E
100
AcDbEntity
  8
0
  6
ByBlock
 62
  256
370
   -1
100
AcDbLine
 10
0
 20
1400
 11
100
 21
1500
  0
LINE
  5
5F
100
AcDbEntity
  8
0
  6
ByBlock
 62
  256
370
   -1
100
AcDbLine
 10
326.5362257578917
 20
-30.95308171719294
 11
0
 21
0
  0
LINE
  5
60
100
AcDbEntity
  8
0
  6
ByBlock
 62
  256
370
   -1
100
AcDbLine
 10
0
 20
0
 11
-186.7124409247982
 21
-10.36650393834667
  0
LINE
  5
61
100
AcDbEntity
  8
0
  6
ByBlock
 62
  256
370
   -1
100
AcDbLine
 10
-191.9401879300929
 20
83.79112236469578
 11
100
 21
100
  0
LINE
  5
62
100
AcDbEntity
  8
0
  6
ByBlock
 62
  256
370
   -1
100
AcDbLine
 10
100
 20
100
 11
336.8215802225881
 21
77.55116539363817
  0
LINE
  5
63
100
AcDbEntity
  8
0
  6
ByBlock
 62
  256
370
   -1
100
AcDbLine
 10
345.3258273334191
 20
167.2658109289418
 11
0
 21
200
  0
LINE
  5
64
100
AcDbEntity
  8
0
  6
ByBlock
 62
  256
370
   -1
100
AcDbLine
 10
0
 20
200
 11
-197.7825616270502
 21
189.0188693699905
  0
LINE
  5
65
100
AcDbEntity
  8
0
  6
ByBlock
 62
  256
370
   -1
100
AcDbLine
 10
99.99999999999955
 20
300.0000000000001
 11
-203.0103086323449
 21
283.1764956730332
  0
LINE
  5
66
100
AcDbEntity
  8
0
  6
ByBlock
 62
  256
370
   -1
100
AcDbLine
 10
99.99999999999955
 20
300.0000000000001
 11
355.6111817981155
 21
275.7700580397729
  0
LINE
  5
67
100
AcDbEntity
  8
0
  6
ByBlock
 62
  256
370
   -1
100
AcDbLine
 10
364.1154289089466
 20
365.4847035750765
 11
0
 21
400
  0
LINE
  5
68
100
AcDbEntity
  8
0
  6
ByBlock
 62
  256
370
   -1
100
AcDbLine
 10
0
 20
400
 11
-208.8526823293023
 21
388.4042426783279
  0
LINE
  5
69
100
AcDbEntity
  8
0
  6
ByBlock
 62
  256
370
   -1
100
AcDbLine
 10
-214.080429334597
 20
482.5618689813704
 11
100
 21
500
  0
LINE
  5
6A
100
AcDbEntity
  8
0
  6
ByBlock
 62
  256
370
   -1
100
AcDbLine
 10
100
 20
500
 11
374.4007833736429
 21
473.9889506859075
  0
LINE
  5
6B
100
AcDbEntity
  8
0
  6
ByBlock
 62
  256
370
   -1
100
AcDbLine
 10
382.905030484474
 20
563.7035962212111
 11
0
 21
600
  0
LINE
  5
6C
100
AcDbEntity
  8
0
  6
ByBlock
 62
  256
370
   -1
100
AcDbLine
 10
0
 20
600
 11
-219.9228030315544
 21
587.7896159866652
  0
LINE
  5
6D
100
AcDbEntity
  8
0
  6
ByBlock
 62
  256
370
   -1
100
AcDbLine
 10
-225.1505500368491
 20
681.9472422897078
 11
100.0000000000009
 21
700
  0
LINE
  5
6E
100
AcDbEntity
  8
0
  6
ByBlock
 62
  256
370
   -1
100
AcDbLine
 10
100.0000000000009
 20
700
 11
393.1903849491704
 21
672.2078433320423
  0
LINE
  5
6F
100
AcDbEntity
  8
0
  6
ByBlock
 62
  256
370
   -1
100
AcDbLine
 10
401.6946320600015
 20
761.9224888673458
 11
0
 21
800.0000000000001
  0
LINE
  5
70
100
AcDbEntity
  8
0
  6
ByBlock
 62
  256
370
   -1
100
AcDbLine
 10
0
 20
800.0000000000001
 11
-230.9929237338064
 21
787.1749892950024
  0
LINE
  5
71
100
AcDbEntity
  8
0
  6
ByBlock
 62
  256
370
   -1
100
AcDbLine
 10
-236.2206707391011
 20
881.3326155980451
 11
100
 21
900
  0
LINE
  5
72
100
AcDbEntity
  8
0
  6
ByBlock
 62
  256
370
   -1
100
AcDbLine
 10
100
 20
900
 11
411.9799865246979
 21
870.426735978177
  0
LINE
  5
73
100
AcDbEntity
  8
0
  6
ByBlock
 62
  256
370
   -1
100
AcDbLine
 10
420.4842336355289
 20
960.1413815134805
 11
0
 21
1000
  0
LINE
  5
74
100
AcDbEntity
  8
0
  6
ByBlock
 62
  256
370
   -1
100
AcDbLine
 10
0
 20
1000
 11
-242.0630444360585
 21
986.5603626033399
  0
LINE
  5
75
100
AcDbEntity
  8
0
  6
ByBlock
 62
  256
370
   -1
100
AcDbLine
 10
-247.2907914413532
 20
1080.717988906383
 11
100
 21
1100
  0
LINE
  5
76
100
AcDbEntity
  8
0
  6
ByBlock
 62
  256
370
   -1
100
AcDbLine
 10
100
 20
1100
 11
430.7695881002253
 21
1068.645628624311
  0
LINE
  5
77
100
AcDbEntity
  8
0
  6
ByBlock
 62
  256
370
   -1
100
AcDbLine
 10
439.2738352110564
 20
1158.360274159615
 11
0
 21
1200
  0
LINE
  5
78
100
AcDbEntity
  8
0
  6
ByBlock
 62
  256
370
   -1
100
AcDbLine
 10
0
 20
1200
 11
-253.1331651383106
 21
1185.945735911677
  0
LINE
  5
79
100
AcDbEntity
  8
0
  6
ByBlock
 62
  256
370
   -1
100
AcDbLine
 10
-258.3609121436053
 20
1280.10336221472
 11
100
 21
1300
  0
LINE
  5
7A
100
AcDbEntity
  8
0
  6
ByBlock
 62
  256
370
   -1
100
AcDbLine
 10
100
 20
1300
 11
449.5591896757527
 21
1266.864521270446
  0
LINE
  5
7B
100
AcDbEntity
  8
0
  6
ByBlock
 62
  256
370
   -1
100
AcDbLine
 10
458.0634367865838
 20
1356.57916680575
 11
3.637978807091713e-12
 21
1400
  0
LINE
  5
7C
100
AcDbEntity
  8
0
  6
ByBlock
 62
  256
370
   -1
100
AcDbLine
 10
3.637978807091713e-12
 20
1400
 11
-264.2032858405626
 21
1385.331109220014
  0
LINE
  5
7D
100
AcDbEntity
  8
0
  6
ByBlock
 62
  256
370
   -1
100
AcDbLine
 10
-269.4310328458573
 20
1479.488735523057
 11
99.99999999999636
 21
1500
  0
LINE
  5
7E
100
AcDbEntity
  8
0
  6
ByBlock
 62
  256
370
   -1
100
AcDbLine
 10
99.99999999999636
 20
1500
 11
468.3487912512802
 21
1465.083413916581
  0
LINE
  5
7F
100
AcDbEntity
  8
0
  6
ByBlock
 62
  256
370
   -1
100
AcDbLine
 10
323.7051512105877
 20
-60.81919992675623
 11
31.88712822019584
 21
-33.15713244494334
  0
LINE
  5
80
100
AcDbEntity
  8
0
  6
ByBlock
 62
  256
370
   -1
100
AcDbLine
 10
31.88712822019584
 20
-33.15713244494334
 11
0
 21
0
  0
LINE
  5
81
100
AcDbEntity
  8
0
  6
ByBlock
 62
  256
370
   -1
100
AcDbLine
 10
31.88712822019584
 20
-33.15713244494334
 11
35.49745252181066
 21
-98.18314959534447
  0
LINE
  5
82
100
AcDbEntity
  8
0
  6
ByBlock
 62
  256
370
   -1
100
AcDbLine
 10
35.49745252181066
 20
-98.18314959534447
 11
37.16052801994111
 21
-128.137017123387
  0
LINE
  5
83
100
AcDbEntity
  8
0
  6
ByBlock
 62
  256
370
   -1
100
AcDbLine
 10
37.16052801994111
 20
-128.137017123387
 11
7.206660491898635
 21
-129.8000926215175
  0
LINE
  5
84
100
AcDbEntity
  8
0
  6
ByBlock
 62
  256
370
   -1
100
AcDbLine
 10
7.206660491898635
 20
-129.8000926215175
 11
-179.5057804328995
 21
-140.1665965598641
  0
LINE
  5
85
100
AcDbEntity
  8
0
  6
ByBlock
 62
  256
370
   -1
100
AcDbLine
 10
35.49745252181066
 20
-98.18314959534447
 11
5.543584993768181
 21
-99.84622509347496
  0
LINE
  5
86
100
AcDbEntity
  8
0
  6
ByBlock
 62
  256
370
   -1
100
AcDbLine
 10
5.543584993768181
 20
-99.84622509347496
 11
-181.16885593103
 21
-110.2127290318216
  0
LINE
  5
87
100
AcDbEntity
  8
0
  6
ByBlock
 62
  256
370
   -1
100
AcDbLine
 10
0
 20
0
 11
1.6819555279592
 21
-30.29391818301966
  0
LINE
  5
88
100
AcDbEntity
  8
0
  6
ByBlock
 62
  256
370
   -1
100
AcDbLine
 10
1.6819555279592
 20
-30.29391818301966
 11
5.543584993768181
 21
-99.84622509347496
  0
LINE
  5
89
100
AcDbEntity
  8
0
  6
ByBlock
 62
  256
370
   -1
100
AcDbLine
 10
480.6167809562652
 20
1594.503259491355
 11
112.2679897049849
 21
1629.419845574774
  0
LINE
  5
8A
100
AcDbEntity
  8
0
  6
ByBlock
 62
  256
370
   -1
100
AcDbLine
 10
112.2679897049849
 20
1629.419845574774
 11
82.40187149542162
 21
1632.250920122078
  0
LINE
  5
8B
100
AcDbEntity
  8
0
  6
ByBlock
 62
  256
370
   -1
100
AcDbLine
 10
82.40187149542162
 20
1632.250920122078
 11
79.57079694811743
 21
1602.384801912515
  0
LINE
  5
8C
100
AcDbEntity
  8
0
  6
ByBlock
 62
  256
370
   -1
100
AcDbLine
 10
79.57079694811743
 20
1602.384801912515
 11
109.4369151576807
 21
1599.553727365211
  0
LINE
  5
8D
100
AcDbEntity
  8
0
  6
ByBlock
 62
  256
370
   -1
100
AcDbLine
 10
109.4369151576807
 20
1599.553727365211
 11
477.7857064089609
 21
1564.637141281792
  0
LINE
  5
8E
100
AcDbEntity
  8
0
  6
ByBlock
 62
  256
370
   -1
100
AcDbLine
 10
112.2679897049813
 20
1629.419845574774
 11
109.436915157677
 21
1599.553727365211
  0
LINE
  5
8F
100
AcDbEntity
  8
0
  6
ByBlock
 62
  256
370
   -1
100
AcDbLine
 10
109.4369151576771
 20
1599.553727365211
 11
99.99999999999636
 21
1500
  0
LINE
  5
90
100
AcDbEntity
  8
0
  6
ByBlock
 62
  256
370
   -1
100
AcDbLine
 10
79.57079694811743
 20
1602.384801912515
 11
72.569296078904
 21
1528.523217164277
  0
LINE
  5
91
100
AcDbEntity
  8
0
  6
ByBlock
 62
  256
370
   -1
100
AcDbLine
 10
72.569296078904
 20
1528.523217164277
 11
100
 21
1500
  0
LINE
  5
92
100
AcDbEntity
  8
0
  6
ByBlock
 62
  256
370
   -1
100
AcDbLine
 10
72.56929607890356
 20
1528.523217164277
 11
-271.0941083439878
 21
1509.4426030511
  0
LINE
  5
93
100
AcDbEntity
  8
0
  6
ByBlock
 62
  256
370
   -1
100
AcDbLine
 10
5.543584993768181
 20
-99.84622509347496
 11
7.206660491898635
 21
-129.8000926215175
  0
LINE
  5
94
100
AcDbEntity
  8
0
  6
ByBlock
 62
  256
370
   -1
100
AcDbLine
 10
0
 20
2000
 11
100
 21
2100
  0
LINE
  5
95
100
AcDbEntity
  8
0
  6
ByBlock
 62
  256
370
   -1
100
AcDbLine
 10
100
 20
2100
 11
0
 21
2200
  0
LINE
  5
96
100
AcDbEntity
  8
0
  6
ByBlock
 62
  256
370
   -1
100
AcDbLine
 10
0
 20
2200
 11
100
 21
2300
  0
LINE
  5
97
100
AcDbEntity
  8
0
  6
ByBlock
 62
  256
370
   -1
100
AcDbLine
 10
100
 20
2300
 11
0
 21
2400
  0
LINE
  5
98
100
AcDbEntity
  8
0
  6
ByBlock
 62
  256
370
   -1
100
AcDbLine
 10
0
 20
2400
 11
100
 21
2500
  0
LINE
  5
99
100
AcDbEntity
  8
0
  6
ByBlock
 62
  256
370
   -1
100
AcDbLine
 10
100
 20
2500
 11
0
 21
2600
  0
LINE
  5
9A
100
AcDbEntity
  8
0
  6
ByBlock
 62
  256
370
   -1
100
AcDbLine
 10
0
 20
2600
 11
100
 21
2700
  0
LINE
  5
9B
100
AcDbEntity
  8
0
  6
ByBlock
 62
  256
370
   -1
100
AcDbLine
 10
100
 20
2700
 11
0
 21
2800
  0
LINE
  5
9C
100
AcDbEntity
  8
0
  6
ByBlock
 62
  256
370
   -1
100
AcDbLine
 10
0
 20
2800
 11
100
 21
2900
  0
LINE
  5
9D
100
AcDbEntity
  8
0
  6
ByBlock
 62
  256
370
   -1
100
AcDbLine
 10
100
 20
2900
 11
0
 21
3000
  0
LINE
  5
9E
100
AcDbEntity
  8
0
  6
ByBlock
 62
  256
370
   -1
100
AcDbLine
 10
0
 20
3000
 11
100
 21
3100
  0
LINE
  5
9F
100
AcDbEntity
  8
0
  6
ByBlock
 62
  256
370
   -1
100
AcDbLine
 10
100
 20
3100
 11
0
 21
3200
  0
LINE
  5
A0
100
AcDbEntity
  8
0
  6
ByBlock
 62
  256
370
   -1
100
AcDbLine
 10
0
 20
3200
 11
100
 21
3300
  0
LINE
  5
A1
100
AcDbEntity
  8
0
  6
ByBlock
 62
  256
370
   -1
100
AcDbLine
 10
100
 20
3300
 11
0
 21
3400
  0
LINE
  5
A2
100
AcDbEntity
  8
0
  6
ByBlock
 62
  256
370
   -1
100
AcDbLine
 10
0
 20
3400
 11
100
 21
3500
  0
LINE
  5
A3
100
AcDbEntity
  8
0
  6
ByBlock
 62
  256
370
   -1
100
AcDbLine
 10
326.5362257578917
 20
1969.046918282807
 11
0
 21
2000
  0
LINE
  5
A4
100
AcDbEntity
  8
0
  6
ByBlock
 62
  256
370
   -1
100
AcDbLine
 10
0
 20
2000
 11
-186.7124409247982
 21
1989.633496061653
  0
LINE
  5
A5
100
AcDbEntity
  8
0
  6
ByBlock
 62
  256
370
   -1
100
AcDbLine
 10
-191.9401879300929
 20
2083.791122364696
 11
100
 21
2100
  0
LINE
  5
A6
100
AcDbEntity
  8
0
  6
ByBlock
 62
  256
370
   -1
100
AcDbLine
 10
100
 20
2100
 11
336.8215802225881
 21
2077.551165393638
  0
LINE
  5
A7
100
AcDbEntity
  8
0
  6
ByBlock
 62
  256
370
   -1
100
AcDbLine
 10
345.3258273334191
 20
2167.265810928942
 11
0
 21
2200
  0
LINE
  5
A8
100
AcDbEntity
  8
0
  6
ByBlock
 62
  256
370
   -1
100
AcDbLine
 10
0
 20
2200
 11
-197.7825616270502
 21
2189.018869369991
  0
LINE
  5
A9
100
AcDbEntity
  8
0
  6
ByBlock
 62
  256
370
   -1
100
AcDbLine
 10
99.99999999999955
 20
2300
 11
-203.0103086323449
 21
2283.176495673033
  0
LINE
  5
AA
100
AcDbEntity
  8
0
  6
ByBlock
 62
  256
370
   -1
100
AcDbLine
 10
99.99999999999955
 20
2300
 11
355.6111817981155
 21
2275.770058039773
  0
LINE
  5
AB
100
AcDbEntity
  8
0
  6
ByBlock
 62
  256
370
   -1
100
AcDbLine
 10
364.1154289089466
 20
2365.484703575076
 11
0
 21
2400
  0
LINE
  5
AC
100
AcDbEntity
  8
0
  6
ByBlock
 62
  256
370
   -1
100
AcDbLine
 10
0
 20
2400
 11
-208.8526823293023
 21
2388.404242678328
  0
LINE
  5
AD
100
AcDbEntity
  8
0
  6
ByBlock
 62
  256
370
   -1
100
AcDbLine
 10
-214.080429334597
 20
2482.56186898137
 11
100
 21
2500
  0
LINE
  5
AE
100
AcDbEntity
  8
0
  6
ByBlock
 62
  256
370
   -1
100
AcDbLine
 10
100
 20
2500
 11
374.4007833736429
 21
2473.988950685908
  0
LINE
  5
AF
100
AcDbEntity
  8
0
  6
ByBlock
 62
  256
370
   -1
100
AcDbLine
 10
382.905030484474
 20
2563.703596221211
 11
0
 21
2600
  0
LINE
  5
B0
100
AcDbEntity
  8
0
  6
ByBlock
 62
  256
370
   -1
100
AcDbLine
 10
0
 20
2600
 11
-219.9228030315544
 21
2587.789615986665
  0
LINE
  5
B1
100
AcDbEntity
  8
0
  6
ByBlock
 62
  256
370
   -1
100
AcDbLine
 10
-225.1505500368491
 20
2681.947242289708
 11
100.0000000000009
 21
2700
  0
LINE
  5
B2
100
AcDbEntity
  8
0
  6
ByBlock
 62
  256
370
   -1
100
AcDbLine
 10
100.0000000000009
 20
2700
 11
393.1903849491704
 21
2672.207843332042
  0
LINE
  5
B3
100
AcDbEntity
  8
0
  6
ByBlock
 62
  256
370
   -1
100
AcDbLine
 10
401.6946320600015
 20
2761.922488867346
 11
0
 21
2800
  0
LINE
  5
B4
100
AcDbEntity
  8
0
  6
ByBlock
 62
  256
370
   -1
100
AcDbLine
 10
0
 20
2800
 11
-230.9929237338064
 21
2787.174989295002
  0
LINE
  5
B5
100
AcDbEntity
  8
0
  6
ByBlock
 62
  256
370
   -1
100
AcDbLine
 10
-236.2206707391011
 20
2881.332615598045
 11
100
 21
2900
  0
LINE
  5
B6
100
AcDbEntity
  8
0
  6
ByBlock
 62
  256
370
   -1
100
AcDbLine
 10
100
 20
2900
 11
411.9799865246979
 21
2870.426735978177
  0
LINE
  5
B7
100
AcDbEntity
  8
0
  6
ByBlock
 62
  256
370
   -1
100
AcDbLine
 10
420.4842336355289
 20
2960.141381513481
 11
0
 21
3000
  0
LINE
  5
B8
100
AcDbEntity
  8
0
  6
ByBlock
 62
  256
370
   -1
100
AcDbLine
 10
0
 20
3000
 11
-242.0630444360585
 21
2986.56036260334
  0
LINE
  5
B9
100
AcDbEntity
  8
0
  6
ByBlock
 62
  256
370
   -1
100
AcDbLine
 10
-247.2907914413532
 20
3080.717988906383
 11
100
 21
3100
  0
LINE
  5
BA
100
AcDbEntity
  8
0
  6
ByBlock
 62
  256
370
   -1
100
AcDbLine
 10
100
 20
3100
 11
430.7695881002253
 21
3068.645628624311
  0
LINE
  5
BB
100
AcDbEntity
  8
0
  6
ByBlock
 62
  256
370
   -1
100
AcDbLine
 10
439.2738352110564
 20
3158.360274159615
 11
0
 21
3200
  0
LINE
  5
BC
100
AcDbEntity
  8
0
  6
ByBlock
 62
  256
370
   -1
100
AcDbLine
 10
0
 20
3200
 11
-253.1331651383106
 21
3185.945735911677
  0
LINE
  5
BD
100
AcDbEntity
  8
0
  6
ByBlock
 62
  256
370
   -1
100
AcDbLine
 10
-258.3609121436053
 20
3280.10336221472
 11
100
 21
3300
  0
LINE
  5
BE
100
AcDbEntity
  8
0
  6
ByBlock
 62
  256
370
   -1
100
AcDbLine
 10
100
 20
3300
 11
449.5591896757527
 21
3266.864521270446
  0
LINE
  5
BF
100
AcDbEntity
  8
0
  6
ByBlock
 62
  256
370
   -1
100
AcDbLine
 10
458.0634367865838
 20
3356.57916680575
 11
3.637978807091713e-12
 21
3400
  0
LINE
  5
C0
100
AcDbEntity
  8
0
  6
ByBlock
 62
  256
370
   -1
100
AcDbLine
 10
3.637978807091713e-12
 20
3400
 11
-264.2032858405626
 21
3385.331109220015
  0
LINE
  5
C1
100
AcDbEntity
  8
0
  6
ByBlock
 62
  256
370
   -1
100
AcDbLine
 10
-269.4310328458573
 20
3479.488735523058
 11
99.99999999999636
 21
3500
  0
LINE
  5
C2
100
AcDbEntity
  8
0
  6
ByBlock
 62
  256
370
   -1
100
AcDbLine
 10
99.99999999999636
 20
3500
 11
468.3487912512802
 21
3465.083413916581
  0
LINE
  5
C3
100
AcDbEntity
  8
0
  6
ByBlock
 62
  256
370
   -1
100
AcDbLine
 10
323.7051512105877
 20
1939.180800073244
 11
31.88712822019584
 21
1966.842867555057
  0
LINE
  5
C4
100
AcDbEntity
  8
0
  6
ByBlock
 62
  256
370
   -1
100
AcDbLine
 10
31.88712822019584
 20
1966.842867555057
 11
0
 21
2000
  0
LINE
  5
C5
100
AcDbEntity
  8
0
  6
ByBlock
 62
  256
370
   -1
100
AcDbLine
 10
31.88712822019584
 20
1966.842867555057
 11
35.49745252181066
 21
1901.816850404655
  0
LINE
  5
C6
100
AcDbEntity
  8
0
  6
ByBlock
 62
  256
370
   -1
100
AcDbLine
 10
35.49745252181066
 20
1901.816850404655
 11
37.16052801994111
 21
1871.862982876613
  0
LINE
  5
C7
100
AcDbEntity
  8
0
  6
ByBlock
 62
  256
370
   -1
100
AcDbLine
 10
37.16052801994111
 20
1871.862982876613
 11
7.206660491898635
 21
1870.199907378483
  0
LINE
  5
C8
100
AcDbEntity
  8
0
  6
ByBlock
 62
  256
370
   -1
100
AcDbLine
 10
7.206660491898635
 20
1870.199907378483
 11
-179.5057804328995
 21
1859.833403440136
  0
LINE
  5
C9
100
AcDbEntity
  8
0
  6
ByBlock
 62
  256
370
   -1
100
AcDbLine
 10
35.49745252181066
 20
1901.816850404655
 11
5.543584993768181
 21
1900.153774906525
  0
LINE
  5
CA
100
AcDbEntity
  8
0
  6
ByBlock
 62
  256
370
   -1
100
AcDbLine
 10
5.543584993768181
 20
1900.153774906525
 11
-181.16885593103
 21
1889.787270968178
  0
LINE
  5
CB
100
AcDbEntity
  8
0
  6
ByBlock
 62
  256
370
   -1
100
AcDbLine
 10
0
 20
2000
 11
1.6819555279592
 21
1969.70608181698
  0
LINE
  5
CC
100
AcDbEntity
  8
0
  6
ByBlock
 62
  256
370
   -1
100
AcDbLine
 10
1.6819555279592
 20
1969.70608181698
 11
5.543584993768181
 21
1900.153774906525
  0
LINE
  5
CD
100
AcDbEntity
  8
0
  6
ByBlock
 62
  256
370
   -1
100
AcDbLine
 10
480.6167809562652
 20
3594.503259491355
 11
112.2679897049849
 21
3629.419845574774
  0
LINE
  5
CE
100
AcDbEntity
  8
0
  6
ByBlock
 62
  256
370
   -1
100
AcDbLine
 10
112.2679897049849
 20
3629.419845574774
 11
82.40187149542162
 21
3632.250920122078
  0
LINE
  5
CF
100
AcDbEntity
  8
0
  6
ByBlock
 62
  256
370
   -1
100
AcDbLine
 10
82.40187149542162
 20
3632.250920122078
 11
79.57079694811743
 21
3602.384801912515
  0
LINE
  5
D0
100
AcDbEntity
  8
0
  6
ByBlock
 62
  256
370
   -1
100
AcDbLine
 10
79.57079694811743
 20
3602.384801912515
 11
109.4369151576807
 21
3599.553727365211
  0
LINE
  5
D1
100
AcDbEntity
  8
0
  6
ByBlock
 62
  256
370
   -1
100
AcDbLine
 10
109.4369151576807
 20
3599.553727365211
 11
477.7857064089609
 21
3564.637141281792
  0
LINE
  5
D2
100
AcDbEntity
  8
0
  6
ByBlock
 62
  256
370
   -1
100
AcDbLine
 10
112.2679897049813
 20
3629.419845574774
 11
109.436915157677
 21
3599.553727365211
  0
LINE
  5
D3
100
AcDbEntity
  8
0
  6
ByBlock
 62
  256
370
   -1
100
AcDbLine
 10
109.4369151576771
 20
3599.553727365211
 11
99.99999999999636
 21
3500
  0
LINE
  5
D4
100
AcDbEntity
  8
0
  6
ByBlock
 62
  256
370
   -1
100
AcDbLine
 10
79.57079694811743
 20
3602.384801912515
 11
72.569296078904
 21
3528.523217164277
  0
LINE
  5
D5
100
AcDbEntity
  8
0
  6
ByBlock
 62
  256
370
   -1
100
AcDbLine
 10
72.569296078904
 20
3528.523217164277
 11
100
 21
3500
  0
LINE
  5
D6
100
AcDbEntity
  8
0
  6
ByBlock
 62
  256
370
   -1
100
AcDbLine
 10
72.56929607890356
 20
3528.523217164277
 11
-271.0941083439878
 21
3509.4426030511
  0
LINE
  5
D7
100
AcDbEntity
  8
0
  6
ByBlock
 62
  256
370
   -1
100
AcDbLine
 10
5.543584993768181
 20
1900.153774906525
 11
7.206660491898635
 21
1870.199907378483
  0
LINE
  5
D8
100
AcDbEntity
  8
0
  6
ByBlock
 62
  256
370
   -1
100
AcDbLine
 10
653.0724515157833
 20
-61.90616343438569
 11
573.6431604451761
 21
55.10233078727674
  0
LINE
  5
D9
100
AcDbEntity
  8
0
  6
ByBlock
 62
  256
370
   -1
100
AcDbLine
 10
573.6431604451761
 20
55.10233078727674
 11
690.6516546668382
 21
134.5316218578839
  0
LINE
  5
DA
100
AcDbEntity
  8
0
  6
ByBlock
 62
  256
370
   -1
100
AcDbLine
 10
690.6516546668382
 20
134.5316218578839
 11
611.2223635962309
 21
251.540116079546
  0
LINE
  5
DB
100
AcDbEntity
  8
0
  6
ByBlock
 62
  256
370
   -1
100
AcDbLine
 10
611.2223635962309
 20
251.540116079546
 11
728.2308578178931
 21
330.9694071501533
  0
LINE
  5
DC
100
AcDbEntity
  8
0
  6
ByBlock
 62
  256
370
   -1
100
AcDbLine
 10
728.2308578178931
 20
330.9694071501533
 11
648.801566747286
 21
447.9779013718155
  0
LINE
  5
DD
100
AcDbEntity
  8
0
  6
ByBlock
 62
  256
370
   -1
100
AcDbLine
 10
648.801566747286
 20
447.9779013718155
 11
765.8100609689481
 21
527.4071924424227
  0
LINE
  5
DE
100
AcDbEntity
  8
0
  6
ByBlock
 62
  256
370
   -1
100
AcDbLine
 10
765.8100609689481
 20
527.4071924424227
 11
686.3807698983409
 21
644.4156866640849
  0
LINE
  5
DF
100
AcDbEntity
  8
0
  6
ByBlock
 62
  256
370
   -1
100
AcDbLine
 10
686.3807698983409
 20
644.4156866640849
 11
803.389264120003
 21
723.8449777346921
  0
LINE
  5
E0
100
AcDbEntity
  8
0
  6
ByBlock
 62
  256
370
   -1
100
AcDbLine
 10
803.389264120003
 20
723.8449777346921
 11
723.9599730493958
 21
840.8534719563543
  0
LINE
  5
E1
100
AcDbEntity
  8
0
  6
ByBlock
 62
  256
370
   -1
100
AcDbLine
 10
723.9599730493958
 20
840.8534719563543
 11
840.968467271058
 21
920.2827630269617
  0
LINE
  5
E2
100
AcDbEntity
  8
0
  6
ByBlock
 62
  256
370
   -1
100
AcDbLine
 10
840.968467271058
 20
920.2827630269617
 11
761.5391762004507
 21
1037.291257248624
  0
LINE
  5
E3
100
AcDbEntity
  8
0
  6
ByBlock
 62
  256
370
   -1
100
AcDbLine
 10
761.5391762004507
 20
1037.291257248624
 11
878.5476704221129
 21
1116.720548319231
  0
LINE
  5
E4
100
AcDbEntity
  8
0
  6
ByBlock
 62
  256
370
   -1
100
AcDbLine
 10
878.5476704221129
 20
1116.720548319231
 11
799.1183793515056
 21
1233.729042540893
  0
LINE
  5
E5
100
AcDbEntity
  8
0
  6
ByBlock
 62
  256
370
   -1
100
AcDbLine
 10
799.1183793515056
 20
1233.729042540893
 11
916.1268735731678
 21
1313.1583336115
  0
LINE
  5
E6
100
AcDbEntity
  8
0
  6
ByBlock
 62
  256
370
   -1
100
AcDbLine
 10
916.1268735731678
 20
1313.1583336115
 11
836.6975825025605
 21
1430.166827833163
  0
LINE
  5
E7
100
AcDbEntity
  8
0
  6
ByBlock
 62
  256
370
   -1
100
AcDbLine
 10
326.5362257578917
 20
-30.95308171719275
 11
653.0724515157833
 21
-61.90616343438569
  0
LINE
  5
E8
100
AcDbEntity
  8
0
  6
ByBlock
 62
  256
370
   -1
100
AcDbLine
 10
653.0724515157833
 20
-61.90616343438569
 11
834.5115186373619
 21
-107.1705525504593
  0
LINE
  5
E9
100
AcDbEntity
  8
0
  6
ByBlock
 62
  256
370
   -1
100
AcDbLine
 10
857.3379966916194
 20
-15.67224748739696
 11
573.6431604451761
 21
55.10233078727674
  0
LINE
  5
EA
100
AcDbEntity
  8
0
  6
ByBlock
 62
  256
370
   -1
100
AcDbLine
 10
573.6431604451761
 20
55.10233078727674
 11
336.821580222588
 21
77.55116539363812
  0
LINE
  5
EB
100
AcDbEntity
  8
0
  6
ByBlock
 62
  256
370
   -1
100
AcDbLine
 10
345.3258273334191
 20
167.2658109289417
 11
690.6516546668382
 21
134.5316218578839
  0
LINE
  5
EC
100
AcDbEntity
  8
0
  6
ByBlock
 62
  256
370
   -1
100
AcDbLine
 10
690.6516546668382
 20
134.5316218578839
 11
882.8481858502189
 21
86.58352163746838
  0
LINE
  5
ED
100
AcDbEntity
  8
0
  6
ByBlock
 62
  256
370
   -1
100
AcDbLine
 10
611.2223635962314
 20
251.5401160795462
 11
905.6746639044767
 21
178.081826700531
  0
LINE
  5
EE
100
AcDbEntity
  8
0
  6
ByBlock
 62
  256
370
   -1
100
AcDbLine
 10
611.2223635962314
 20
251.5401160795462
 11
355.6111817981155
 21
275.7700580397728
  0
LINE
  5
EF
100
AcDbEntity
  8
0
  6
ByBlock
 62
  256
370
   -1
100
AcDbLine
 10
364.1154289089466
 20
365.4847035750765
 11
728.2308578178931
 21
330.9694071501533
  0
LINE
  5
F0
100
AcDbEntity
  8
0
  6
ByBlock
 62
  256
370
   -1
100
AcDbLine
 10
728.2308578178931
 20
330.9694071501533
 11
931.184853063076
 21
280.3375958253958
  0
LINE
  5
F1
100
AcDbEntity
  8
0
  6
ByBlock
 62
  256
370
   -1
100
AcDbLine
 10
954.0113311173338
 20
371.8359008884584
 11
648.801566747286
 21
447.9779013718155
  0
LINE
  5
F2
100
AcDbEntity
  8
0
  6
ByBlock
 62
  256
370
   -1
100
AcDbLine
 10
648.801566747286
 20
447.9779013718155
 11
374.4007833736429
 21
473.9889506859075
  0
LINE
  5
F3
100
AcDbEntity
  8
0
  6
ByBlock
 62
  256
370
   -1
100
AcDbLine
 10
382.905030484474
 20
563.7035962212111
 11
765.8100609689481
 21
527.4071924424227
  0
LINE
  5
F4
100
AcDbEntity
  8
0
  6
ByBlock
 62
  256
370
   -1
100
AcDbLine
 10
765.8100609689481
 20
527.4071924424227
 11
979.5215202759333
 21
474.0916700133234
  0
LINE
  5
F5
100
AcDbEntity
  8
0
  6
ByBlock
 62
  256
370
   -1
100
AcDbLine
 10
1002.347998330191
 20
565.5899750763862
 11
686.38076989834
 21
644.4156866640851
  0
LINE
  5
F6
100
AcDbEntity
  8
0
  6
ByBlock
 62
  256
370
   -1
100
AcDbLine
 10
686.38076989834
 20
644.4156866640851
 11
393.1903849491704
 21
672.2078433320423
  0
LINE
  5
F7
100
AcDbEntity
  8
0
  6
ByBlock
 62
  256
370
   -1
100
AcDbLine
 10
401.6946320600015
 20
761.9224888673458
 11
803.3892641200031
 21
723.8449777346922
  0
LINE
  5
F8
100
AcDbEntity
  8
0
  6
ByBlock
 62
  256
370
   -1
100
AcDbLine
 10
803.3892641200031
 20
723.8449777346922
 11
1027.85818748879
 21
667.8457442012511
  0
LINE
  5
F9
100
AcDbEntity
  8
0
  6
ByBlock
 62
  256
370
   -1
100
AcDbLine
 10
1050.684665543048
 20
759.3440492643138
 11
723.9599730493958
 21
840.8534719563543
  0
LINE
  5
FA
100
AcDbEntity
  8
0
  6
ByBlock
 62
  256
370
   -1
100
AcDbLine
 10
723.9599730493958
 20
840.8534719563543
 11
411.9799865246979
 21
870.426735978177
  0
LINE
  5
FB
100
AcDbEntity
  8
0
  6
ByBlock
 62
  256
370
   -1
100
AcDbLine
 10
420.4842336355289
 20
960.1413815134805
 11
840.968467271058
 21
920.2827630269617
  0
LINE
  5
FC
100
AcDbEntity
  8
0
  6
ByBlock
 62
  256
370
   -1
100
AcDbLine
 10
840.968467271058
 20
920.2827630269617
 11
1076.194854701648
 21
861.5998183891788
  0
LINE
  5
FD
100
AcDbEntity
  8
0
  6
ByBlock
 62
  256
370
   -1
100
AcDbLine
 10
1099.021332755905
 20
953.0981234522417
 11
761.5391762004507
 21
1037.291257248624
  0
LINE
  5
FE
100
AcDbEntity
  8
0
  6
ByBlock
 62
  256
370
   -1
100
AcDbLine
 10
761.5391762004507
 20
1037.291257248624
 11
430.7695881002253
 21
1068.645628624311
  0
LINE
  5
FF
100
AcDbEntity
  8
0
  6
ByBlock
 62
  256
370
   -1
100
AcDbLine
 10
439.2738352110564
 20
1158.360274159615
 11
878.5476704221129
 21
1116.720548319231
  0
LINE
  5
100
100
AcDbEntity
  8
0
  6
ByBlock
 62
  256
370
   -1
100
AcDbLine
 10
878.5476704221129
 20
1116.720548319231
 11
1124.531521914505
 21
1055.353892577107
  0
LINE
  5
101
100
AcDbEntity
  8
0
  6
ByBlock
 62
  256
370
   -1
100
AcDbLine
 10
1147.357999968762
 20
1146.852197640169
 11
799.1183793515056
 21
1233.729042540893
  0
LINE
  5
102
100
AcDbEntity
  8
0
  6
ByBlock
 62
  256
370
   -1
100
AcDbLine
 10
799.1183793515056
 20
1233.729042540893
 11
449.5591896757527
 21
1266.864521270446
  0
LINE
  5
103
100
AcDbEntity
  8
0
  6
ByBlock
 62
  256
370
   -1
100
AcDbLine
 10
458.063436786584
 20
1356.57916680575
 11
916.1268735731643
 21
1313.158333611501
  0
LINE
  5
104
100
AcDbEntity
  8
0
  6
ByBlock
 62
  256
370
   -1
100
AcDbLine
 10
916.1268735731643
 20
1313.158333611501
 11
1172.868189127362
 21
1249.107966765034
  0
LINE
  5
105
100
AcDbEntity
  8
0
  6
ByBlock
 62
  256
370
   -1
100
AcDbLine
 10
1195.694667181619
 20
1340.606271828097
 11
836.697582502564
 21
1430.166827833162
  0
LINE
  5
106
100
AcDbEntity
  8
0
  6
ByBlock
 62
  256
370
   -1
100
AcDbLine
 10
836.697582502564
 20
1430.166827833162
 11
468.3487912512803
 21
1465.083413916581
  0
LINE
  5
107
100
AcDbEntity
  8
0
  6
ByBlock
 62
  256
370
   -1
100
AcDbLine
 10
323.7051512105871
 20
-60.81919992675606
 11
615.523174200979
 21
-88.48126740856873
  0
LINE
  5
108
100
AcDbEntity
  8
0
  6
ByBlock
 62
  256
370
   -1
100
AcDbLine
 10
615.523174200979
 20
-88.48126740856873
 11
653.0724515157833
 21
-61.90616343438569
  0
LINE
  5
109
100
AcDbEntity
  8
0
  6
ByBlock
 62
  256
370
   -1
100
AcDbLine
 10
615.523174200979
 20
-88.48126740856873
 11
599.759024108004
 21
-151.6707358337206
  0
LINE
  5
10A
100
AcDbEntity
  8
0
  6
ByBlock
 62
  256
370
   -1
100
AcDbLine
 10
599.759024108004
 20
-151.6707358337206
 11
592.4973574048907
 21
-180.7786075644548
  0
LINE
  5
10B
100
AcDbEntity
  8
0
  6
ByBlock
 62
  256
370
   -1
100
AcDbLine
 10
592.4973574048907
 20
-180.7786075644548
 11
621.6052291356252
 21
-188.0402742675681
  0
LINE
  5
10C
100
AcDbEntity
  8
0
  6
ByBlock
 62
  256
370
   -1
100
AcDbLine
 10
621.6052291356252
 20
-188.0402742675681
 11
803.0442962572037
 21
-233.3046633836424
  0
LINE
  5
10D
100
AcDbEntity
  8
0
  6
ByBlock
 62
  256
370
   -1
100
AcDbLine
 10
599.759024108004
 20
-151.6707358337206
 11
628.8668958387387
 21
-158.9324025368336
  0
LINE
  5
10E
100
AcDbEntity
  8
0
  6
ByBlock
 62
  256
370
   -1
100
AcDbLine
 10
628.8668958387387
 20
-158.9324025368336
 11
810.3059629603172
 21
-204.1967916529075
  0
LINE
  5
10F
100
AcDbEntity
  8
0
  6
ByBlock
 62
  256
370
   -1
100
AcDbLine
 10
653.0724515157833
 20
-61.90616343438569
 11
645.7283468932156
 21
-91.3444816704924
  0
LINE
  5
110
100
AcDbEntity
  8
0
  6
ByBlock
 62
  256
370
   -1
100
AcDbLine
 10
645.7283468932156
 20
-91.3444816704924
 11
628.8668958387387
 21
-158.9324025368336
  0
LINE
  5
111
100
AcDbEntity
  8
0
  6
ByBlock
 62
  256
370
   -1
100
AcDbLine
 10
480.6167809562652
 20
1594.503259491355
 11
848.9655722075455
 21
1559.586673407936
  0
LINE
  5
112
100
AcDbEntity
  8
0
  6
ByBlock
 62
  256
370
   -1
100
AcDbLine
 10
848.9655722075455
 20
1559.586673407936
 11
878.8316904171088
 21
1556.755598860632
  0
LINE
  5
113
100
AcDbEntity
  8
0
  6
ByBlock
 62
  256
370
   -1
100
AcDbLine
 10
878.8316904171088
 20
1556.755598860632
 11
876.0006158698045
 21
1526.889480651069
  0
LINE
  5
114
100
AcDbEntity
  8
0
  6
ByBlock
 62
  256
370
   -1
100
AcDbLine
 10
876.0006158698045
 20
1526.889480651069
 11
846.1344976602413
 21
1529.720555198373
  0
LINE
  5
115
100
AcDbEntity
  8
0
  6
ByBlock
 62
  256
370
   -1
100
AcDbLine
 10
846.1344976602413
 20
1529.720555198373
 11
477.7857064089611
 21
1564.637141281792
  0
LINE
  5
116
100
AcDbEntity
  8
0
  6
ByBlock
 62
  256
370
   -1
100
AcDbLine
 10
848.9655722075491
 20
1559.586673407936
 11
846.1344976602448
 21
1529.720555198372
  0
LINE
  5
117
100
AcDbEntity
  8
0
  6
ByBlock
 62
  256
370
   -1
100
AcDbLine
 10
846.134497660245
 20
1529.720555198373
 11
836.697582502564
 21
1430.166827833162
  0
LINE
  5
118
100
AcDbEntity
  8
0
  6
ByBlock
 62
  256
370
   -1
100
AcDbLine
 10
876.0006158698045
 20
1526.889480651069
 11
868.999115000591
 21
1453.027895902831
  0
LINE
  5
119
100
AcDbEntity
  8
0
  6
ByBlock
 62
  256
370
   -1
100
AcDbLine
 10
868.999115000591
 20
1453.027895902831
 11
836.6975825025605
 21
1430.166827833163
  0
LINE
  5
11A
100
AcDbEntity
  8
0
  6
ByBlock
 62
  256
370
   -1
100
AcDbLine
 10
868.9991150005915
 20
1453.027895902831
 11
1202.956333884733
 21
1369.714143558831
  0
LINE
  5
11B
100
AcDbEntity
  8
0
  6
ByBlock
 62
  256
370
   -1
100
AcDbLine
 10
628.8668958387387
 20
-158.9324025368336
 11
621.6052291356252
 21
-188.0402742675681
  0
LINE
  5
11C
100
AcDbEntity
  8
0
  6
ByBlock
 62
  256
370
   -1
100
AcDbLine
 10
-373.4248818495963
 20
-20.73300787669359
 11
-483.8803758601857
 21
67.58224472939168
  0
LINE
  5
11D
100
AcDbEntity
  8
0
  6
ByBlock
 62
  256
370
   -1
100
AcDbLine
 10
-483.8803758601857
 20
67.58224472939168
 11
-395.5651232541005
 21
178.0377387399811
  0
LINE
  5
11E
100
AcDbEntity
  8
0
  6
ByBlock
 62
  256
370
   -1
100
AcDbLine
 10
-395.5651232541005
 20
178.0377387399811
 11
-506.0206172646899
 21
266.3529913460663
  0
LINE
  5
11F
100
AcDbEntity
  8
0
  6
ByBlock
 62
  256
370
   -1
100
AcDbLine
 10
-506.0206172646899
 20
266.3529913460663
 11
-417.7053646586046
 21
376.8084853566556
  0
LINE
  5
120
100
AcDbEntity
  8
0
  6
ByBlock
 62
  256
370
   -1
100
AcDbLine
 10
-417.7053646586046
 20
376.8084853566556
 11
-528.160858669194
 21
465.123737962741
  0
LINE
  5
121
100
AcDbEntity
  8
0
  6
ByBlock
 62
  256
370
   -1
100
AcDbLine
 10
-528.160858669194
 20
465.123737962741
 11
-439.8456060631087
 21
575.5792319733305
  0
LINE
  5
122
100
AcDbEntity
  8
0
  6
ByBlock
 62
  256
370
   -1
100
AcDbLine
 10
-439.8456060631087
 20
575.5792319733305
 11
-550.3011000736981
 21
663.8944845794156
  0
LINE
  5
123
100
AcDbEntity
  8
0
  6
ByBlock
 62
  256
370
   -1
100
AcDbLine
 10
-550.3011000736981
 20
663.8944845794156
 11
-461.9858474676129
 21
774.3499785900051
  0
LINE
  5
124
100
AcDbEntity
  8
0
  6
ByBlock
 62
  256
370
   -1
100
AcDbLine
 10
-461.9858474676129
 20
774.3499785900051
 11
-572.4413414782023
 21
862.6652311960902
  0
LINE
  5
125
100
AcDbEntity
  8
0
  6
ByBlock
 62
  256
370
   -1
100
AcDbLine
 10
-572.4413414782023
 20
862.6652311960902
 11
-484.126088872117
 21
973.1207252066797
  0
LINE
  5
126
100
AcDbEntity
  8
0
  6
ByBlock
 62
  256
370
   -1
100
AcDbLine
 10
-484.126088872117
 20
973.1207252066797
 11
-594.5815828827065
 21
1061.435977812765
  0
LINE
  5
127
100
AcDbEntity
  8
0
  6
ByBlock
 62
  256
370
   -1
100
AcDbLine
 10
-594.5815828827065
 20
1061.435977812765
 11
-506.2663302766211
 21
1171.891471823355
  0
LINE
  5
128
100
AcDbEntity
  8
0
  6
ByBlock
 62
  256
370
   -1
100
AcDbLine
 10
-506.2663302766211
 20
1171.891471823355
 11
-616.7218242872106
 21
1260.206724429439
  0
LINE
  5
129
100
AcDbEntity
  8
0
  6
ByBlock
 62
  256
370
   -1
100
AcDbLine
 10
-616.7218242872106
 20
1260.206724429439
 11
-528.4065716811253
 21
1370.662218440028
  0
LINE
  5
12A
100
AcDbEntity
  8
0
  6
ByBlock
 62
  256
370
   -1
100
AcDbLine
 10
-528.4065716811253
 20
1370.662218440028
 11
-638.8620656917146
 21
1458.977471046114
  0
LINE
  5
12B
100
AcDbEntity
  8
0
  6
ByBlock
 62
  256
370
   -1
100
AcDbLine
 10
-694.5275852988721
 20
-87.64379801973742
 11
-373.4248818495963
 21
-20.73300787669359
  0
LINE
  5
12C
100
AcDbEntity
  8
0
  6
ByBlock
 62
  256
370
   -1
100
AcDbLine
 10
-373.4248818495963
 20
-20.73300787669359
 11
-186.7124409247982
 21
-10.36650393834663
  0
LINE
  5
12D
100
AcDbEntity
  8
0
  6
ByBlock
 62
  256
370
   -1
100
AcDbLine
 10
-191.9401879300929
 20
83.79112236469578
 11
-483.8803758601857
 21
67.58224472939168
  0
LINE
  5
12E
100
AcDbEntity
  8
0
  6
ByBlock
 62
  256
370
   -1
100
AcDbLine
 10
-483.8803758601857
 20
67.58224472939168
 11
-716.7612743519353
 21
19.0549518728665
  0
LINE
  5
12F
100
AcDbEntity
  8
0
  6
ByBlock
 62
  256
370
   -1
100
AcDbLine
 10
-735.1447716384539
 20
107.2767568303928
 11
-395.5651232541005
 21
178.0377387399811
  0
LINE
  5
130
100
AcDbEntity
  8
0
  6
ByBlock
 62
  256
370
   -1
100
AcDbLine
 10
-395.5651232541005
 20
178.0377387399811
 11
-197.7825616270502
 21
189.0188693699905
  0
LINE
  5
131
100
AcDbEntity
  8
0
  6
ByBlock
 62
  256
370
   -1
100
AcDbLine
 10
-506.0206172646894
 20
266.3529913460664
 11
-203.0103086323449
 21
283.1764956730332
  0
LINE
  5
132
100
AcDbEntity
  8
0
  6
ByBlock
 62
  256
370
   -1
100
AcDbLine
 10
-506.0206172646894
 20
266.3529913460664
 11
-757.3784606915169
 21
213.9755067229968
  0
LINE
  5
133
100
AcDbEntity
  8
0
  6
ByBlock
 62
  256
370
   -1
100
AcDbLine
 10
-775.7619579780356
 20
302.197311680523
 11
-417.7053646586046
 21
376.8084853566556
  0
LINE
  5
134
100
AcDbEntity
  8
0
  6
ByBlock
 62
  256
370
   -1
100
AcDbLine
 10
-417.7053646586046
 20
376.8084853566556
 11
-208.8526823293023
 21
388.4042426783278
  0
LINE
  5
135
100
AcDbEntity
  8
0
  6
ByBlock
 62
  256
370
   -1
100
AcDbLine
 10
-214.080429334597
 20
482.5618689813704
 11
-528.160858669194
 21
465.123737962741
  0
LINE
  5
136
100
AcDbEntity
  8
0
  6
ByBlock
 62
  256
370
   -1
100
AcDbLine
 10
-528.160858669194
 20
465.123737962741
 11
-797.9956470310988
 21
408.896061573127
  0
LINE
  5
137
100
AcDbEntity
  8
0
  6
ByBlock
 62
  256
370
   -1
100
AcDbLine
 10
-816.3791443176174
 20
497.1178665306533
 11
-439.8456060631087
 21
575.5792319733305
  0
LINE
  5
138
100
AcDbEntity
  8
0
  6
ByBlock
 62
  256
370
   -1
100
AcDbLine
 10
-439.8456060631087
 20
575.5792319733305
 11
-219.9228030315544
 21
587.7896159866652
  0
LINE
  5
139
100
AcDbEntity
  8
0
  6
ByBlock
 62
  256
370
   -1
100
AcDbLine
 10
-225.1505500368491
 20
681.9472422897078
 11
-550.301100073699
 21
663.8944845794156
  0
LINE
  5
13A
100
AcDbEntity
  8
0
  6
ByBlock
 62
  256
370
   -1
100
AcDbLine
 10
-550.301100073699
 20
663.8944845794156
 11
-838.6128333706804
 21
603.8166164232573
  0
LINE
  5
13B
100
AcDbEntity
  8
0
  6
ByBlock
 62
  256
370
   -1
100
AcDbLine
 10
-856.9963306571992
 20
692.0384213807832
 11
-461.9858474676129
 21
774.3499785900052
  0
LINE
  5
13C
100
AcDbEntity
  8
0
  6
ByBlock
 62
  256
370
   -1
100
AcDbLine
 10
-461.9858474676129
 20
774.3499785900052
 11
-230.9929237338064
 21
787.1749892950024
  0
LINE
  5
13D
100
AcDbEntity
  8
0
  6
ByBlock
 62
  256
370
   -1
100
AcDbLine
 10
-236.2206707391011
 20
881.3326155980451
 11
-572.4413414782023
 21
862.6652311960902
  0
LINE
  5
13E
100
AcDbEntity
  8
0
  6
ByBlock
 62
  256
370
   -1
100
AcDbLine
 10
-572.4413414782023
 20
862.6652311960902
 11
-879.2300197102622
 21
798.7371712733875
  0
LINE
  5
13F
100
AcDbEntity
  8
0
  6
ByBlock
 62
  256
370
   -1
100
AcDbLine
 10
-897.6135169967808
 20
886.9589762309137
 11
-484.126088872117
 21
973.1207252066797
  0
LINE
  5
140
100
AcDbEntity
  8
0
  6
ByBlock
 62
  256
370
   -1
100
AcDbLine
 10
-484.126088872117
 20
973.1207252066797
 11
-242.0630444360585
 21
986.5603626033399
  0
LINE
  5
141
100
AcDbEntity
  8
0
  6
ByBlock
 62
  256
370
   -1
100
AcDbLine
 10
-247.2907914413532
 20
1080.717988906382
 11
-594.5815828827065
 21
1061.435977812765
  0
LINE
  5
142
100
AcDbEntity
  8
0
  6
ByBlock
 62
  256
370
   -1
100
AcDbLine
 10
-594.5815828827065
 20
1061.435977812765
 11
-919.847206049844
 21
993.6577261235175
  0
LINE
  5
143
100
AcDbEntity
  8
0
  6
ByBlock
 62
  256
370
   -1
100
AcDbLine
 10
-938.2307033363627
 20
1081.879531081044
 11
-506.2663302766211
 21
1171.891471823355
  0
LINE
  5
144
100
AcDbEntity
  8
0
  6
ByBlock
 62
  256
370
   -1
100
AcDbLine
 10
-506.2663302766211
 20
1171.891471823355
 11
-253.1331651383106
 21
1185.945735911677
  0
LINE
  5
145
100
AcDbEntity
  8
0
  6
ByBlock
 62
  256
370
   -1
100
AcDbLine
 10
-258.3609121436053
 20
1280.10336221472
 11
-616.7218242872106
 21
1260.206724429439
  0
LINE
  5
146
100
AcDbEntity
  8
0
  6
ByBlock
 62
  256
370
   -1
100
AcDbLine
 10
-616.7218242872106
 20
1260.206724429439
 11
-960.4643923894257
 21
1188.578280973648
  0
LINE
  5
147
100
AcDbEntity
  8
0
  6
ByBlock
 62
  256
370
   -1
100
AcDbLine
 10
-978.8478896759443
 20
1276.800085931174
 11
-528.406571681129
 21
1370.662218440029
  0
LINE
  5
148
100
AcDbEntity
  8
0
  6
ByBlock
 62
  256
370
   -1
100
AcDbLine
 10
-528.406571681129
 20
1370.662218440029
 11
-264.2032858405627
 21
1385.331109220015
  0
LINE
  5
149
100
AcDbEntity
  8
0
  6
ByBlock
 62
  256
370
   -1
100
AcDbLine
 10
-269.4310328458574
 20
1479.488735523057
 11
-638.8620656917111
 21
1458.977471046114
  0
LINE
  5
14A
100
AcDbEntity
  8
0
  6
ByBlock
 62
  256
370
   -1
100
AcDbLine
 10
-638.8620656917111
 20
1458.977471046114
 11
-1001.081578729008
 21
1383.498835823779
  0
LINE
  5
14B
100
AcDbEntity
  8
0
  6
ByBlock
 62
  256
370
   -1
100
AcDbLine
 10
-688.4076959565208
 20
-117.0129477254639
 11
-401.4454886854853
 21
-57.21629131789791
  0
LINE
  5
14C
100
AcDbEntity
  8
0
  6
ByBlock
 62
  256
370
   -1
100
AcDbLine
 10
-401.4454886854853
 20
-57.21629131789791
 11
-373.4248818495963
 21
-20.73300787669359
  0
LINE
  5
14D
100
AcDbEntity
  8
0
  6
ByBlock
 62
  256
370
   -1
100
AcDbLine
 10
-401.4454886854853
 20
-57.21629131789791
 11
-397.8351643838703
 21
-122.2423084682992
  0
LINE
  5
14E
100
AcDbEntity
  8
0
  6
ByBlock
 62
  256
370
   -1
100
AcDbLine
 10
-397.8351643838703
 20
-122.2423084682992
 11
-396.1720888857398
 21
-152.1961759963414
  0
LINE
  5
14F
100
AcDbEntity
  8
0
  6
ByBlock
 62
  256
370
   -1
100
AcDbLine
 10
-396.1720888857398
 20
-152.1961759963414
 11
-366.2182213576972
 21
-150.5331004982111
  0
LINE
  5
150
100
AcDbEntity
  8
0
  6
ByBlock
 62
  256
370
   -1
100
AcDbLine
 10
-366.2182213576972
 20
-150.5331004982111
 11
-179.5057804328991
 21
-140.166596559864
  0
LINE
  5
151
100
AcDbEntity
  8
0
  6
ByBlock
 62
  256
370
   -1
100
AcDbLine
 10
-397.8351643838703
 20
-122.2423084682992
 11
-367.8812968558278
 21
-120.5792329701686
  0
LINE
  5
152
100
AcDbEntity
  8
0
  6
ByBlock
 62
  256
370
   -1
100
AcDbLine
 10
-367.8812968558278
 20
-120.5792329701686
 11
-181.1688559310297
 21
-110.2127290318216
  0
LINE
  5
153
100
AcDbEntity
  8
0
  6
ByBlock
 62
  256
370
   -1
100
AcDbLine
 10
-373.4248818495963
 20
-20.73300787669359
 11
-371.742926321637
 21
-51.02692605971325
  0
LINE
  5
154
100
AcDbEntity
  8
0
  6
ByBlock
 62
  256
370
   -1
100
AcDbLine
 10
-371.742926321637
 20
-51.02692605971325
 11
-367.8812968558278
 21
-120.5792329701686
  0
LINE
  5
155
100
AcDbEntity
  8
0
  6
ByBlock
 62
  256
370
   -1
100
AcDbLine
 10
-1027.601099212531
 20
1510.76515121526
 11
-665.381586175238
 21
1586.243786437595
  0
LINE
  5
156
100
AcDbEntity
  8
0
  6
ByBlock
 62
  256
370
   -1
100
AcDbLine
 10
-665.381586175238
 20
1586.243786437595
 11
-636.0124364695115
 21
1592.363675779946
  0
LINE
  5
157
100
AcDbEntity
  8
0
  6
ByBlock
 62
  256
370
   -1
100
AcDbLine
 10
-636.0124364695115
 20
1592.363675779946
 11
-629.89254712716
 21
1562.99452607422
  0
LINE
  5
158
100
AcDbEntity
  8
0
  6
ByBlock
 62
  256
370
   -1
100
AcDbLine
 10
-629.89254712716
 20
1562.99452607422
 11
-659.2616968328865
 21
1556.874636731868
  0
LINE
  5
159
100
AcDbEntity
  8
0
  6
ByBlock
 62
  256
370
   -1
100
AcDbLine
 10
-659.2616968328865
 20
1556.874636731868
 11
-1021.481209870179
 21
1481.396001509532
  0
LINE
  5
15A
100
AcDbEntity
  8
0
  6
ByBlock
 62
  256
370
   -1
100
AcDbLine
 10
-665.3815861752344
 20
1586.243786437596
 11
-659.2616968328829
 21
1556.874636731869
  0
LINE
  5
15B
100
AcDbEntity
  8
0
  6
ByBlock
 62
  256
370
   -1
100
AcDbLine
 10
-659.2616968328829
 20
1556.874636731869
 11
-638.8620656917111
 21
1458.977471046114
  0
LINE
  5
15C
100
AcDbEntity
  8
0
  6
ByBlock
 62
  256
370
   -1
100
AcDbLine
 10
-629.89254712716
 20
1562.99452607422
 11
-614.7575127668797
 21
1490.361988937922
  0
LINE
  5
15D
100
AcDbEntity
  8
0
  6
ByBlock
 62
  256
370
   -1
100
AcDbLine
 10
-614.7575127668797
 20
1490.361988937922
 11
-638.8620656917146
 21
1458.977471046114
  0
LINE
  5
15E
100
AcDbEntity
  8
0
  6
ByBlock
 62
  256
370
   -1
100
AcDbLine
 10
-614.7575127668792
 20
1490.361988937922
 11
-271.0941083439879
 21
1509.4426030511
  0
LINE
  5
15F
100
AcDbEntity
  8
0
  6
ByBlock
 62
  256
370
   -1
100
AcDbLine
 10
-367.8812968558278
 20
-120.5792329701686
 11
-366.2182213576972
 21
-150.5331004982111
  0
LINE
  5
160
100
AcDbEntity
  8
0
  6
ByBlock
 62
  256
370
   -1
100
AcDbLine
 10
-1015.630288748148
 20
-154.5545881627811
 11
-949.6421728436849
 21
-29.47234098365823
  0
LINE
  5
161
100
AcDbEntity
  8
0
  6
ByBlock
 62
  256
370
   -1
100
AcDbLine
 10
-949.6421728436849
 20
-29.47234098365823
 11
-1074.724420022807
 21
36.51577492080494
  0
LINE
  5
162
100
AcDbEntity
  8
0
  6
ByBlock
 62
  256
370
   -1
100
AcDbLine
 10
-1074.724420022807
 20
36.51577492080494
 11
-1008.736304118344
 21
161.5980220999275
  0
LINE
  5
163
100
AcDbEntity
  8
0
  6
ByBlock
 62
  256
370
   -1
100
AcDbLine
 10
-1008.736304118344
 20
161.5980220999275
 11
-1133.818551297467
 21
227.5861380043907
  0
LINE
  5
164
100
AcDbEntity
  8
0
  6
ByBlock
 62
  256
370
   -1
100
AcDbLine
 10
-1133.818551297467
 20
227.5861380043907
 11
-1067.830435393004
 21
352.6683851835135
  0
LINE
  5
165
100
AcDbEntity
  8
0
  6
ByBlock
 62
  256
370
   -1
100
AcDbLine
 10
-1067.830435393004
 20
352.6683851835135
 11
-1192.912682572126
 21
418.6565010879765
  0
LINE
  5
166
100
AcDbEntity
  8
0
  6
ByBlock
 62
  256
370
   -1
100
AcDbLine
 10
-1192.912682572126
 20
418.6565010879765
 11
-1126.924566667663
 21
543.738748267099
  0
LINE
  5
167
100
AcDbEntity
  8
0
  6
ByBlock
 62
  256
370
   -1
100
AcDbLine
 10
-1126.924566667663
 20
543.738748267099
 11
-1252.006813846785
 21
609.7268641715625
  0
LINE
  5
168
100
AcDbEntity
  8
0
  6
ByBlock
 62
  256
370
   -1
100
AcDbLine
 10
-1252.006813846785
 20
609.7268641715625
 11
-1186.018697942322
 21
734.8091113506848
  0
LINE
  5
169
100
AcDbEntity
  8
0
  6
ByBlock
 62
  256
370
   -1
100
AcDbLine
 10
-1186.018697942322
 20
734.8091113506848
 11
-1311.100945121445
 21
800.7972272551483
  0
LINE
  5
16A
100
AcDbEntity
  8
0
  6
ByBlock
 62
  256
370
   -1
100
AcDbLine
 10
-1311.100945121445
 20
800.7972272551483
 11
-1245.112829216982
 21
925.8794744342711
  0
LINE
  5
16B
100
AcDbEntity
  8
0
  6
ByBlock
 62
  256
370
   -1
100
AcDbLine
 10
-1245.112829216982
 20
925.8794744342711
 11
-1370.195076396104
 21
991.8675903387339
  0
LINE
  5
16C
100
AcDbEntity
  8
0
  6
ByBlock
 62
  256
370
   -1
100
AcDbLine
 10
-1370.195076396104
 20
991.8675903387339
 11
-1304.206960491641
 21
1116.949837517856
  0
LINE
  5
16D
100
AcDbEntity
  8
0
  6
ByBlock
 62
  256
370
   -1
100
AcDbLine
 10
-1304.206960491641
 20
1116.949837517856
 11
-1429.289207670764
 21
1182.937953422319
  0
LINE
  5
16E
100
AcDbEntity
  8
0
  6
ByBlock
 62
  256
370
   -1
100
AcDbLine
 10
-1429.289207670764
 20
1182.937953422319
 11
-1363.3010917663
 21
1308.020200601442
  0
LINE
  5
16F
100
AcDbEntity
  8
0
  6
ByBlock
 62
  256
370
   -1
100
AcDbLine
 10
-694.5275852988722
 20
-87.64379801973722
 11
-1015.630288748148
 21
-154.5545881627811
  0
LINE
  5
170
100
AcDbEntity
  8
0
  6
ByBlock
 62
  256
370
   -1
100
AcDbLine
 10
-1015.630288748148
 20
-154.5545881627811
 11
-1190.943360423807
 21
-219.6262939929281
  0
LINE
  5
171
100
AcDbEntity
  8
0
  6
ByBlock
 62
  256
370
   -1
100
AcDbLine
 10
-1223.758513662172
 20
-131.2172806078817
 11
-949.6421728436849
 21
-29.47234098365823
  0
LINE
  5
172
100
AcDbEntity
  8
0
  6
ByBlock
 62
  256
370
   -1
100
AcDbLine
 10
-949.6421728436849
 20
-29.47234098365823
 11
-716.7612743519351
 21
19.05495187286655
  0
LINE
  5
173
100
AcDbEntity
  8
0
  6
ByBlock
 62
  256
370
   -1
100
AcDbLine
 10
-735.1447716384539
 20
107.2767568303928
 11
-1074.724420022807
 21
36.51577492080494
  0
LINE
  5
174
100
AcDbEntity
  8
0
  6
ByBlock
 62
  256
370
   -1
100
AcDbLine
 10
-1074.724420022807
 20
36.51577492080494
 11
-1260.431747456248
 21
-32.41401146505251
  0
LINE
  5
175
100
AcDbEntity
  8
0
  6
ByBlock
 62
  256
370
   -1
100
AcDbLine
 10
-1008.736304118345
 20
161.5980220999276
 11
-1293.246900694614
 21
55.99500191999414
  0
LINE
  5
176
100
AcDbEntity
  8
0
  6
ByBlock
 62
  256
370
   -1
100
AcDbLine
 10
-1008.736304118345
 20
161.5980220999276
 11
-757.3784606915169
 21
213.9755067229967
  0
LINE
  5
177
100
AcDbEntity
  8
0
  6
ByBlock
 62
  256
370
   -1
100
AcDbLine
 10
-775.7619579780356
 20
302.197311680523
 11
-1133.818551297467
 21
227.5861380043907
  0
LINE
  5
178
100
AcDbEntity
  8
0
  6
ByBlock
 62
  256
370
   -1
100
AcDbLine
 10
-1133.818551297467
 20
227.5861380043907
 11
-1329.92013448869
 21
154.7982710628228
  0
LINE
  5
179
100
AcDbEntity
  8
0
  6
ByBlock
 62
  256
370
   -1
100
AcDbLine
 10
-1362.735287727055
 20
243.2072844478694
 11
-1067.830435393004
 21
352.6683851835135
  0
LINE
  5
17A
100
AcDbEntity
  8
0
  6
ByBlock
 62
  256
370
   -1
100
AcDbLine
 10
-1067.830435393004
 20
352.6683851835135
 11
-797.9956470310988
 21
408.896061573127
  0
LINE
  5
17B
100
AcDbEntity
  8
0
  6
ByBlock
 62
  256
370
   -1
100
AcDbLine
 10
-816.3791443176174
 20
497.1178665306533
 11
-1192.912682572126
 21
418.6565010879765
  0
LINE
  5
17C
100
AcDbEntity
  8
0
  6
ByBlock
 62
  256
370
   -1
100
AcDbLine
 10
-1192.912682572126
 20
418.6565010879765
 11
-1399.408521521131
 21
342.0105535906985
  0
LINE
  5
17D
100
AcDbEntity
  8
0
  6
ByBlock
 62
  256
370
   -1
100
AcDbLine
 10
-1432.223674759497
 20
430.4195669757452
 11
-1126.924566667662
 21
543.7387482670993
  0
LINE
  5
17E
100
AcDbEntity
  8
0
  6
ByBlock
 62
  256
370
   -1
100
AcDbLine
 10
-1126.924566667662
 20
543.7387482670993
 11
-838.6128333706804
 21
603.8166164232573
  0
LINE
  5
17F
100
AcDbEntity
  8
0
  6
ByBlock
 62
  256
370
   -1
100
AcDbLine
 10
-856.9963306571992
 20
692.0384213807832
 11
-1252.006813846785
 21
609.7268641715624
  0
LINE
  5
180
100
AcDbEntity
  8
0
  6
ByBlock
 62
  256
370
   -1
100
AcDbLine
 10
-1252.006813846785
 20
609.7268641715624
 11
-1468.896908553573
 21
529.2228361185739
  0
LINE
  5
181
100
AcDbEntity
  8
0
  6
ByBlock
 62
  256
370
   -1
100
AcDbLine
 10
-1501.712061791938
 20
617.6318495036205
 11
-1186.018697942322
 21
734.8091113506848
  0
LINE
  5
182
100
AcDbEntity
  8
0
  6
ByBlock
 62
  256
370
   -1
100
AcDbLine
 10
-1186.018697942322
 20
734.8091113506848
 11
-879.2300197102622
 21
798.7371712733875
  0
LINE
  5
183
100
AcDbEntity
  8
0
  6
ByBlock
 62
  256
370
   -1
100
AcDbLine
 10
-897.6135169967808
 20
886.9589762309137
 11
-1311.100945121445
 21
800.7972272551483
  0
LINE
  5
184
100
AcDbEntity
  8
0
  6
ByBlock
 62
  256
370
   -1
100
AcDbLine
 10
-1311.100945121445
 20
800.7972272551483
 11
-1538.385295586014
 21
716.4351186464496
  0
LINE
  5
185
100
AcDbEntity
  8
0
  6
ByBlock
 62
  256
370
   -1
100
AcDbLine
 10
-1571.200448824379
 20
804.8441320314964
 11
-1245.112829216982
 21
925.8794744342711
  0
LINE
  5
186
100
AcDbEntity
  8
0
  6
ByBlock
 62
  256
370
   -1
100
AcDbLine
 10
-1245.112829216982
 20
925.8794744342711
 11
-919.847206049844
 21
993.6577261235175
  0
LINE
  5
187
100
AcDbEntity
  8
0
  6
ByBlock
 62
  256
370
   -1
100
AcDbLine
 10
-938.2307033363627
 20
1081.879531081044
 11
-1370.195076396104
 21
991.8675903387339
  0
LINE
  5
188
100
AcDbEntity
  8
0
  6
ByBlock
 62
  256
370
   -1
100
AcDbLine
 10
-1370.195076396104
 20
991.8675903387339
 11
-1607.873682618455
 21
903.6474011743253
  0
LINE
  5
189
100
AcDbEntity
  8
0
  6
ByBlock
 62
  256
370
   -1
100
AcDbLine
 10
-1640.688835856821
 20
992.0564145593714
 11
-1304.206960491641
 21
1116.949837517856
  0
LINE
  5
18A
100
AcDbEntity
  8
0
  6
ByBlock
 62
  256
370
   -1
100
AcDbLine
 10
-1304.206960491641
 20
1116.949837517856
 11
-960.4643923894257
 21
1188.578280973648
  0
LINE
  5
18B
100
AcDbEntity
  8
0
  6
ByBlock
 62
  256
370
   -1
100
AcDbLine
 10
-978.8478896759445
 20
1276.800085931174
 11
-1429.28920767076
 21
1182.937953422321
  0
LINE
  5
18C
100
AcDbEntity
  8
0
  6
ByBlock
 62
  256
370
   -1
100
AcDbLine
 10
-1429.28920767076
 20
1182.937953422321
 11
-1677.362069650897
 21
1090.8596837022
  0
LINE
  5
18D
100
AcDbEntity
  8
0
  6
ByBlock
 62
  256
370
   -1
100
AcDbLine
 10
-1710.177222889262
 20
1179.268697087247
 11
-1363.301091766304
 21
1308.020200601442
  0
LINE
  5
18E
100
AcDbEntity
  8
0
  6
ByBlock
 62
  256
370
   -1
100
AcDbLine
 10
-1363.301091766304
 20
1308.020200601442
 11
-1001.081578729008
 21
1383.498835823778
  0
LINE
  5
18F
100
AcDbEntity
  8
0
  6
ByBlock
 62
  256
370
   -1
100
AcDbLine
 10
-688.4076959565202
 20
-117.0129477254637
 11
-975.3699032275558
 21
-176.8096041330295
  0
LINE
  5
190
100
AcDbEntity
  8
0
  6
ByBlock
 62
  256
370
   -1
100
AcDbLine
 10
-975.3699032275558
 20
-176.8096041330295
 11
-1015.630288748148
 21
-154.5545881627811
  0
LINE
  5
191
100
AcDbEntity
  8
0
  6
ByBlock
 62
  256
370
   -1
100
AcDbLine
 10
-975.3699032275558
 20
-176.8096041330295
 11
-952.7074933829903
 21
-237.8655827759439
  0
LINE
  5
192
100
AcDbEntity
  8
0
  6
ByBlock
 62
  256
370
   -1
100
AcDbLine
 10
-952.7074933829903
 20
-237.8655827759439
 11
-942.2681822872448
 21
-265.9906744886163
  0
LINE
  5
193
100
AcDbEntity
  8
0
  6
ByBlock
 62
  256
370
   -1
100
AcDbLine
 10
-942.2681822872448
 20
-265.9906744886163
 11
-970.3932739999175
 21
-276.4299855843617
  0
LINE
  5
194
100
AcDbEntity
  8
0
  6
ByBlock
 62
  256
370
   -1
100
AcDbLine
 10
-970.3932739999175
 20
-276.4299855843617
 11
-1145.706345675576
 21
-341.5016914145095
  0
LINE
  5
195
100
AcDbEntity
  8
0
  6
ByBlock
 62
  256
370
   -1
100
AcDbLine
 10
-952.7074933829903
 20
-237.8655827759439
 11
-980.832585095663
 21
-248.3048938716892
  0
LINE
  5
196
100
AcDbEntity
  8
0
  6
ByBlock
 62
  256
370
   -1
100
AcDbLine
 10
-980.832585095663
 20
-248.3048938716892
 11
-1156.145656771322
 21
-313.3765997018367
  0
LINE
  5
197
100
AcDbEntity
  8
0
  6
ByBlock
 62
  256
370
   -1
100
AcDbLine
 10
-1015.630288748148
 20
-154.5545881627811
 11
-1005.072465591404
 21
-182.9989693912142
  0
LINE
  5
198
100
AcDbEntity
  8
0
  6
ByBlock
 62
  256
370
   -1
100
AcDbLine
 10
-1005.072465591404
 20
-182.9989693912142
 11
-980.832585095663
 21
-248.3048938716892
  0
LINE
  5
199
100
AcDbEntity
  8
0
  6
ByBlock
 62
  256
370
   -1
100
AcDbLine
 10
-1027.601099212531
 20
1510.76515121526
 11
-1389.820612249824
 21
1435.286515992923
  0
LINE
  5
19A
100
AcDbEntity
  8
0
  6
ByBlock
 62
  256
370
   -1
100
AcDbLine
 10
-1389.820612249824
 20
1435.286515992923
 11
-1419.18976195555
 21
1429.166626650571
  0
LINE
  5
19B
100
AcDbEntity
  8
0
  6
ByBlock
 62
  256
370
   -1
100
AcDbLine
 10
-1419.18976195555
 20
1429.166626650571
 11
-1413.069872613199
 21
1399.797476944846
  0
LINE
  5
19C
100
AcDbEntity
  8
0
  6
ByBlock
 62
  256
370
   -1
100
AcDbLine
 10
-1413.069872613199
 20
1399.797476944846
 11
-1383.700722907472
 21
1405.917366287197
  0
LINE
  5
19D
100
AcDbEntity
  8
0
  6
ByBlock
 62
  256
370
   -1
100
AcDbLine
 10
-1383.700722907472
 20
1405.917366287197
 11
-1021.48120987018
 21
1481.396001509532
  0
LINE
  5
19E
100
AcDbEntity
  8
0
  6
ByBlock
 62
  256
370
   -1
100
AcDbLine
 10
-1389.820612249827
 20
1435.286515992924
 11
-1383.700722907476
 21
1405.917366287196
  0
LINE
  5
19F
100
AcDbEntity
  8
0
  6
ByBlock
 62
  256
370
   -1
100
AcDbLine
 10
-1383.700722907476
 20
1405.917366287196
 11
-1363.301091766304
 21
1308.020200601442
  0
LINE
  5
1A0
100
AcDbEntity
  8
0
  6
ByBlock
 62
  256
370
   -1
100
AcDbLine
 10
-1413.069872613199
 20
1399.797476944846
 11
-1397.934838252918
 21
1327.164939808547
  0
LINE
  5
1A1
100
AcDbEntity
  8
0
  6
ByBlock
 62
  256
370
   -1
100
AcDbLine
 10
-1397.934838252918
 20
1327.164939808547
 11
-1363.3010917663
 21
1308.020200601442
  0
LINE
  5
1A2
100
AcDbEntity
  8
0
  6
ByBlock
 62
  256
370
   -1
100
AcDbLine
 10
-1397.934838252919
 20
1327.164939808547
 11
-1720.616533985008
 21
1207.39378879992
  0
LINE
  5
1A3
100
AcDbEntity
  8
0
  6
ByBlock
 62
  256
370
   -1
100
AcDbLine
 10
-980.832585095663
 20
-248.3048938716892
 11
-970.3932739999175
 21
-276.4299855843617
  0
LINE
  5
1A4
100
AcDbEntity
  8
0
  6
ByBlock
 62
  256
370
   -1
100
AcDbLine
 10
1202.956333884733
 20
1369.714143558831
 11
803.0442962572037
 21
-233.3046633836424
  0
LINE
  5
1A5
100
AcDbEntity
  8
0
  6
ByBlock
 62
  256
370
   -1
100
AcDbLine
 10
-1720.616533985008
 20
1207.39378879992
 11
-1145.706345675576
 21
-341.5016914145095
  0
LINE
  5
1A6
100
AcDbEntity
  8
0
  6
ByBlock
 62
  256
370
   -1
100
AcDbLine
 10
480.6167809562652
 20
3594.503259491355
 11
323.7051512105877
 21
1939.180800073244
  0
LINE
  5
1A7
100
AcDbEntity
  8
0
  6
ByBlock
 62
  256
370
   -1
100
AcDbLine
 10
-179.5057804328995
 20
1859.833403440136
 11
-271.0941083439878
 21
3509.4426030511
  0
LINE
  5
1A8
100
AcDbEntity
  8
laser
  6
ByBlock
 62
  256
370
   -1
100
AcDbLine
 10
480.6167809562652
 20
3594.503259491355
 11
113.5124112970516
 21
3629.301884135303
  0
LINE
  5
1A9
100
AcDbEntity
  8
laser
  6
ByBlock
 62
  256
370
   -1
100
AcDbLine
 10
113.5124112970516
 20
3629.301884135303
 11
112.2148354628652
 21
3615.613246622586
  0
LINE
  5
1AA
100
AcDbEntity
  8
laser
  6
ByBlock
 62
  256
370
   -1
100
AcDbLine
 10
112.2148354628652
 20
3615.613246622586
 11
109.725992278735
 21
3615.849169501528
  0
LINE
  5
1AB
100
AcDbEntity
  8
laser
  6
ByBlock
 62
  256
370
   -1
100
AcDbLine
 10
109.725992278735
 20
3615.849169501528
 11
111.0235681129161
 21
3629.537807014245
  0
LINE
  5
1AC
100
AcDbEntity
  8
laser
  6
ByBlock
 62
  256
370
   -1
100
AcDbLine
 10
111.0235681129161
 20
3629.537807014245
 11
82.40187149542163
 21
3632.250920122078
  0
LINE
  5
1AD
100
AcDbEntity
  8
laser
  6
ByBlock
 62
  256
370
   -1
100
AcDbLine
 10
82.40187149542163
 20
3632.250920122078
 11
79.68875838758844
 21
3603.62922350458
  0
LINE
  5
1AE
100
AcDbEntity
  8
laser
  6
ByBlock
 62
  256
370
   -1
100
AcDbLine
 10
79.68875838758844
 20
3603.62922350458
 11
108.310455005083
 21
3600.916110396747
  0
LINE
  5
1AF
100
AcDbEntity
  8
laser
  6
ByBlock
 62
  256
370
   -1
100
AcDbLine
 10
108.310455005083
 20
3600.916110396747
 11
109.4900693997931
 21
3613.360326317398
  0
LINE
  5
1B0
100
AcDbEntity
  8
laser
  6
ByBlock
 62
  256
370
   -1
100
AcDbLine
 10
109.4900693997931
 20
3613.360326317398
 11
111.9789125839233
 21
3613.124403438456
  0
LINE
  5
1B1
100
AcDbEntity
  8
laser
  6
ByBlock
 62
  256
370
   -1
100
AcDbLine
 10
111.9789125839233
 20
3613.124403438456
 11
110.7992981892094
 21
3600.680187517805
  0
LINE
  5
1B2
100
AcDbEntity
  8
laser
  6
ByBlock
 62
  256
370
   -1
100
AcDbLine
 10
110.7992981892094
 20
3600.680187517805
 11
225.1386301803998
 21
3589.841712618434
  0
LINE
  5
1B3
100
AcDbEntity
  8
laser
  6
ByBlock
 62
  256
370
   -1
100
AcDbLine
 10
225.1386301803998
 20
3589.841712618434
 11
225.0597284928244
 21
3587.337985052774
  0
LINE
  5
1B4
100
AcDbEntity
  8
laser
  6
ByBlock
 62
  256
370
   -1
100
AcDbLine
 10
225.0597284928244
 20
3587.337985052774
 11
110.5633753102712
 21
3598.191344333675
  0
LINE
  5
1B5
100
AcDbEntity
  8
laser
  6
ByBlock
 62
  256
370
   -1
100
AcDbLine
 10
110.5633753102712
 20
3598.191344333675
 11
106.0808406103729
 21
3550.9033238352
  0
LINE
  5
1B6
100
AcDbEntity
  8
laser
  6
ByBlock
 62
  256
370
   -1
100
AcDbLine
 10
106.0808406103729
 20
3550.9033238352
 11
103.5919974262426
 21
3551.139246714142
  0
LINE
  5
1B7
100
AcDbEntity
  8
laser
  6
ByBlock
 62
  256
370
   -1
100
AcDbLine
 10
103.5919974262426
 20
3551.139246714142
 11
108.074532126141
 21
3598.427267212618
  0
LINE
  5
1B8
100
AcDbEntity
  8
laser
  6
ByBlock
 62
  256
370
   -1
100
AcDbLine
 10
108.074532126141
 20
3598.427267212618
 11
79.45283550864643
 21
3601.14038032045
  0
LINE
  5
1B9
100
AcDbEntity
  8
laser
  6
ByBlock
 62
  256
370
   -1
100
AcDbLine
 10
79.45283550864643
 20
3601.14038032045
 11
72.72489877057183
 21
3530.164731121408
  0
LINE
  5
1BA
100
AcDbEntity
  8
laser
  6
ByBlock
 62
  256
370
   -1
100
AcDbLine
 10
72.72489877057183
 20
3530.164731121408
 11
86.31915752035758
 21
3516.029038664413
  0
LINE
  5
1BB
100
AcDbEntity
  8
laser
  6
ByBlock
 62
  256
370
   -1
100
AcDbLine
 10
84.51721795717731
 20
3514.296118063045
 11
70.92295920739298
 21
3528.431810520039
  0
LINE
  5
1BC
100
AcDbEntity
  8
laser
  6
ByBlock
 62
  256
370
   -1
100
AcDbLine
 10
70.92295920739298
 20
3528.431810520039
 11
-271.0941083439878
 21
3509.4426030511
  0
LINE
  5
1BD
100
AcDbEntity
  8
laser
  6
ByBlock
 62
  256
370
   -1
100
AcDbLine
 10
-271.0941083439878
 20
3509.4426030511
 11
-269.5003276582794
 21
3480.736813336726
  0
LINE
  5
1BE
100
AcDbEntity
  8
laser
  6
ByBlock
 62
  256
370
   -1
100
AcDbLine
 10
-269.5003276582794
 20
3480.736813336726
 11
-147.6941468783203
 21
3487.499642029427
  0
LINE
  5
1BF
100
AcDbEntity
  8
laser
  6
ByBlock
 62
  256
370
   -1
100
AcDbLine
 10
-147.6941468783203
 20
3487.499642029427
 11
-147.6017116728991
 21
3485.000923852062
  0
LINE
  5
1C0
100
AcDbEntity
  8
laser
  6
ByBlock
 62
  256
370
   -1
100
AcDbLine
 10
-147.6017116728991
 20
3485.000923852062
 11
-269.3617380334352
 21
3478.240657709389
  0
LINE
  5
1C1
100
AcDbEntity
  8
laser
  6
ByBlock
 62
  256
370
   -1
100
AcDbLine
 10
-269.3617380334352
 20
3478.240657709389
 11
-264.2725806529847
 21
3386.579187033683
  0
LINE
  5
1C2
100
AcDbEntity
  8
laser
  6
ByBlock
 62
  256
370
   -1
100
AcDbLine
 10
-264.2725806529847
 20
3386.579187033683
 11
-144.2073933145709
 21
3393.245353633172
  0
LINE
  5
1C3
100
AcDbEntity
  8
laser
  6
ByBlock
 62
  256
370
   -1
100
AcDbLine
 10
-144.2073933145709
 20
3393.245353633172
 11
-144.1149581091497
 21
3390.746635455808
  0
LINE
  5
1C4
100
AcDbEntity
  8
laser
  6
ByBlock
 62
  256
370
   -1
100
AcDbLine
 10
-144.1149581091497
 20
3390.746635455808
 11
-264.1339910281405
 21
3384.083031406346
  0
LINE
  5
1C5
100
AcDbEntity
  8
laser
  6
ByBlock
 62
  256
370
   -1
100
AcDbLine
 10
-264.1339910281405
 20
3384.083031406346
 11
-258.4302069560273
 21
3281.351440028388
  0
LINE
  5
1C6
100
AcDbEntity
  8
laser
  6
ByBlock
 62
  256
370
   -1
100
AcDbLine
 10
-258.4302069560273
 20
3281.351440028388
 11
-140.3107018166866
 21
3287.909579963561
  0
LINE
  5
1C7
100
AcDbEntity
  8
laser
  6
ByBlock
 62
  256
370
   -1
100
AcDbLine
 10
-140.3107018166866
 20
3287.909579963561
 11
-140.2182666112654
 21
3285.410861786197
  0
LINE
  5
1C8
100
AcDbEntity
  8
laser
  6
ByBlock
 62
  256
370
   -1
100
AcDbLine
 10
-140.2182666112654
 20
3285.410861786197
 11
-258.2916173311831
 21
3278.855284401051
  0
LINE
  5
1C9
100
AcDbEntity
  8
laser
  6
ByBlock
 62
  256
370
   -1
100
AcDbLine
 10
-258.2916173311831
 20
3278.855284401051
 11
-253.2024599507326
 21
3187.193813725346
  0
LINE
  5
1CA
100
AcDbEntity
  8
laser
  6
ByBlock
 62
  256
370
   -1
100
AcDbLine
 10
-253.2024599507326
 20
3187.193813725346
 11
-136.8239482529372
 21
3193.655291567307
  0
LINE
  5
1CB
100
AcDbEntity
  8
laser
  6
ByBlock
 62
  256
370
   -1
100
AcDbLine
 10
-136.8239482529372
 20
3193.655291567307
 11
-136.7315130475161
 21
3191.156573389942
  0
LINE
  5
1CC
100
AcDbEntity
  8
laser
  6
ByBlock
 62
  256
370
   -1
100
AcDbLine
 10
-136.7315130475161
 20
3191.156573389942
 11
-253.0638703258885
 21
3184.697658098009
  0
LINE
  5
1CD
100
AcDbEntity
  8
laser
  6
ByBlock
 62
  256
370
   -1
100
AcDbLine
 10
-253.0638703258885
 20
3184.697658098009
 11
-247.3600862537753
 21
3081.966066720051
  0
LINE
  5
1CE
100
AcDbEntity
  8
laser
  6
ByBlock
 62
  256
370
   -1
100
AcDbLine
 10
-247.3600862537753
 20
3081.966066720051
 11
-132.927256755053
 21
3088.319517897696
  0
LINE
  5
1CF
100
AcDbEntity
  8
laser
  6
ByBlock
 62
  256
370
   -1
100
AcDbLine
 10
-132.927256755053
 20
3088.319517897696
 11
-132.8348215496318
 21
3085.820799720331
  0
LINE
  5
1D0
100
AcDbEntity
  8
laser
  6
ByBlock
 62
  256
370
   -1
100
AcDbLine
 10
-132.8348215496318
 20
3085.820799720331
 11
-247.2214966289311
 21
3079.469911092714
  0
LINE
  5
1D1
100
AcDbEntity
  8
laser
  6
ByBlock
 62
  256
370
   -1
100
AcDbLine
 10
-247.2214966289311
 20
3079.469911092714
 11
-242.1323392484806
 21
2987.808440417008
  0
LINE
  5
1D2
100
AcDbEntity
  8
laser
  6
ByBlock
 62
  256
370
   -1
100
AcDbLine
 10
-242.1323392484806
 20
2987.808440417008
 11
-129.4405031913036
 21
2994.065229501442
  0
LINE
  5
1D3
100
AcDbEntity
  8
laser
  6
ByBlock
 62
  256
370
   -1
100
AcDbLine
 10
-129.3480679858824
 20
2991.566511324078
 11
-241.9937496236364
 21
2985.312284789672
  0
LINE
  5
1D4
100
AcDbEntity
  8
laser
  6
ByBlock
 62
  256
370
   -1
100
AcDbLine
 10
-241.9937496236364
 20
2985.312284789672
 11
-236.2899655515232
 21
2882.580693411713
  0
LINE
  5
1D5
100
AcDbEntity
  8
laser
  6
ByBlock
 62
  256
370
   -1
100
AcDbLine
 10
-236.2899655515232
 20
2882.580693411713
 11
-125.5438116934193
 21
2888.729455831831
  0
LINE
  5
1D6
100
AcDbEntity
  8
laser
  6
ByBlock
 62
  256
370
   -1
100
AcDbLine
 10
-125.5438116934193
 20
2888.729455831831
 11
-125.4513764879982
 21
2886.230737654466
  0
LINE
  5
1D7
100
AcDbEntity
  8
laser
  6
ByBlock
 62
  256
370
   -1
100
AcDbLine
 10
-125.4513764879982
 20
2886.230737654466
 11
-236.151375926679
 21
2880.084537784376
  0
LINE
  5
1D8
100
AcDbEntity
  8
laser
  6
ByBlock
 62
  256
370
   -1
100
AcDbLine
 10
-236.151375926679
 20
2880.084537784376
 11
-231.0622185462285
 21
2788.423067108671
  0
LINE
  5
1D9
100
AcDbEntity
  8
laser
  6
ByBlock
 62
  256
370
   -1
100
AcDbLine
 10
-231.0622185462285
 20
2788.423067108671
 11
-122.0570581296699
 21
2794.475167435577
  0
LINE
  5
1DA
100
AcDbEntity
  8
laser
  6
ByBlock
 62
  256
370
   -1
100
AcDbLine
 10
-122.0570581296699
 20
2794.475167435577
 11
-121.9646229242488
 21
2791.976449258212
  0
LINE
  5
1DB
100
AcDbEntity
  8
laser
  6
ByBlock
 62
  256
370
   -1
100
AcDbLine
 10
-121.9646229242488
 20
2791.976449258212
 11
-230.9236289213843
 21
2785.926911481334
  0
LINE
  5
1DC
100
AcDbEntity
  8
laser
  6
ByBlock
 62
  256
370
   -1
100
AcDbLine
 10
-230.9236289213843
 20
2785.926911481334
 11
-225.2198448492712
 21
2683.195320103376
  0
LINE
  5
1DD
100
AcDbEntity
  8
laser
  6
ByBlock
 62
  256
370
   -1
100
AcDbLine
 10
-225.2198448492712
 20
2683.195320103376
 11
-118.1603666317857
 21
2689.139393765965
  0
LINE
  5
1DE
100
AcDbEntity
  8
laser
  6
ByBlock
 62
  256
370
   -1
100
AcDbLine
 10
-118.1603666317857
 20
2689.139393765965
 11
-118.0679314263645
 21
2686.640675588601
  0
LINE
  5
1DF
100
AcDbEntity
  8
laser
  6
ByBlock
 62
  256
370
   -1
100
AcDbLine
 10
-118.0679314263645
 20
2686.640675588601
 11
-225.081255224427
 21
2680.69916447604
  0
LINE
  5
1E0
100
AcDbEntity
  8
laser
  6
ByBlock
 62
  256
370
   -1
100
AcDbLine
 10
-225.081255224427
 20
2680.69916447604
 11
-219.9920978439765
 21
2589.037693800333
  0
LINE
  5
1E1
100
AcDbEntity
  8
laser
  6
ByBlock
 62
  256
370
   -1
100
AcDbLine
 10
-219.9920978439765
 20
2589.037693800333
 11
-114.6736130680363
 21
2594.885105369711
  0
LINE
  5
1E2
100
AcDbEntity
  8
laser
  6
ByBlock
 62
  256
370
   -1
100
AcDbLine
 10
-114.6736130680363
 20
2594.885105369711
 11
-114.5811778626152
 21
2592.386387192348
  0
LINE
  5
1E3
100
AcDbEntity
  8
laser
  6
ByBlock
 62
  256
370
   -1
100
AcDbLine
 10
-114.5811778626152
 20
2592.386387192348
 11
-219.8535082191323
 21
2586.541538172997
  0
LINE
  5
1E4
100
AcDbEntity
  8
laser
  6
ByBlock
 62
  256
370
   -1
100
AcDbLine
 10
-219.8535082191323
 20
2586.541538172997
 11
-214.1497241470191
 21
2483.809946795039
  0
LINE
  5
1E5
100
AcDbEntity
  8
laser
  6
ByBlock
 62
  256
370
   -1
100
AcDbLine
 10
-214.1497241470191
 20
2483.809946795039
 11
-110.7769215701521
 21
2489.549331700101
  0
LINE
  5
1E6
100
AcDbEntity
  8
laser
  6
ByBlock
 62
  256
370
   -1
100
AcDbLine
 10
-110.6844863647309
 20
2487.050613522737
 11
-214.0111345221749
 21
2481.313791167702
  0
LINE
  5
1E7
100
AcDbEntity
  8
laser
  6
ByBlock
 62
  256
370
   -1
100
AcDbLine
 10
-214.0111345221749
 20
2481.313791167702
 11
-208.9219771417244
 21
2389.652320491996
  0
LINE
  5
1E8
100
AcDbEntity
  8
laser
  6
ByBlock
 62
  256
370
   -1
100
AcDbLine
 10
-208.9219771417244
 20
2389.652320491996
 11
-107.2901680064027
 21
2395.295043303847
  0
LINE
  5
1E9
100
AcDbEntity
  8
laser
  6
ByBlock
 62
  256
370
   -1
100
AcDbLine
 10
-107.2901680064027
 20
2395.295043303847
 11
-107.1977328009816
 21
2392.796325126482
  0
LINE
  5
1EA
100
AcDbEntity
  8
laser
  6
ByBlock
 62
  256
370
   -1
100
AcDbLine
 10
-107.1977328009816
 20
2392.796325126482
 11
-208.7833875168802
 21
2387.15616486466
  0
LINE
  5
1EB
100
AcDbEntity
  8
laser
  6
ByBlock
 62
  256
370
   -1
100
AcDbLine
 10
-208.7833875168802
 20
2387.15616486466
 11
-203.079603444767
 21
2284.424573486701
  0
LINE
  5
1EC
100
AcDbEntity
  8
laser
  6
ByBlock
 62
  256
370
   -1
100
AcDbLine
 10
-203.079603444767
 20
2284.424573486701
 11
-103.3934765085184
 21
2289.959269634235
  0
LINE
  5
1ED
100
AcDbEntity
  8
laser
  6
ByBlock
 62
  256
370
   -1
100
AcDbLine
 10
-103.3934765085184
 20
2289.959269634235
 11
-103.3010413030973
 21
2287.460551456871
  0
LINE
  5
1EE
100
AcDbEntity
  8
laser
  6
ByBlock
 62
  256
370
   -1
100
AcDbLine
 10
-103.3010413030973
 20
2287.460551456871
 11
-202.9410138199228
 21
2281.928417859365
  0
LINE
  5
1EF
100
AcDbEntity
  8
laser
  6
ByBlock
 62
  256
370
   -1
100
AcDbLine
 10
-202.9410138199228
 20
2281.928417859365
 11
-197.8518564394723
 21
2190.266947183659
  0
LINE
  5
1F0
100
AcDbEntity
  8
laser
  6
ByBlock
 62
  256
370
   -1
100
AcDbLine
 10
-197.8518564394723
 20
2190.266947183659
 11
-99.90672294476906
 21
2195.704981237981
  0
LINE
  5
1F1
100
AcDbEntity
  8
laser
  6
ByBlock
 62
  256
370
   -1
100
AcDbLine
 10
-99.90672294476906
 20
2195.704981237981
 11
-99.81428773934795
 21
2193.206263060617
  0
LINE
  5
1F2
100
AcDbEntity
  8
laser
  6
ByBlock
 62
  256
370
   -1
100
AcDbLine
 10
-99.81428773934795
 20
2193.206263060617
 11
-197.7132668146281
 21
2187.770791556322
  0
LINE
  5
1F3
100
AcDbEntity
  8
laser
  6
ByBlock
 62
  256
370
   -1
100
AcDbLine
 10
-197.7132668146281
 20
2187.770791556322
 11
-192.009482742515
 21
2085.039200178364
  0
LINE
  5
1F4
100
AcDbEntity
  8
laser
  6
ByBlock
 62
  256
370
   -1
100
AcDbLine
 10
-192.009482742515
 20
2085.039200178364
 11
-96.01003144688477
 21
2090.36920756837
  0
LINE
  5
1F5
100
AcDbEntity
  8
laser
  6
ByBlock
 62
  256
370
   -1
100
AcDbLine
 10
-96.01003144688477
 20
2090.36920756837
 11
-95.91759624146366
 21
2087.870489391006
  0
LINE
  5
1F6
100
AcDbEntity
  8
laser
  6
ByBlock
 62
  256
370
   -1
100
AcDbLine
 10
-95.91759624146366
 20
2087.870489391006
 11
-191.8708931176708
 21
2082.543044551027
  0
LINE
  5
1F7
100
AcDbEntity
  8
laser
  6
ByBlock
 62
  256
370
   -1
100
AcDbLine
 10
-191.8708931176708
 20
2082.543044551027
 11
-186.7817357372203
 21
1990.881573875322
  0
LINE
  5
1F8
100
AcDbEntity
  8
laser
  6
ByBlock
 62
  256
370
   -1
100
AcDbLine
 10
-186.7817357372203
 20
1990.881573875322
 11
-92.52327788313545
 21
1996.114919172117
  0
LINE
  5
1F9
100
AcDbEntity
  8
laser
  6
ByBlock
 62
  256
370
   -1
100
AcDbLine
 10
-92.52327788313545
 20
1996.114919172117
 11
-92.43084267771431
 21
1993.616200994752
  0
LINE
  5
1FA
100
AcDbEntity
  8
laser
  6
ByBlock
 62
  256
370
   -1
100
AcDbLine
 10
-92.43084267771431
 20
1993.616200994752
 11
-186.6431461123761
 21
1988.385418247985
  0
LINE
  5
1FB
100
AcDbEntity
  8
laser
  6
ByBlock
 62
  256
370
   -1
100
AcDbLine
 10
-186.6431461123761
 20
1988.385418247985
 11
-181.2381507434521
 21
1891.035348781847
  0
LINE
  5
1FC
100
AcDbEntity
  8
laser
  6
ByBlock
 62
  256
370
   -1
100
AcDbLine
 10
-181.2381507434521
 20
1891.035348781847
 11
-88.82586966628932
 21
1896.166192077521
  0
LINE
  5
1FD
100
AcDbEntity
  8
laser
  6
ByBlock
 62
  256
370
   -1
100
AcDbLine
 10
-88.82586966628932
 20
1896.166192077521
 11
-88.73343446086815
 21
1893.667473900156
  0
LINE
  5
1FE
100
AcDbEntity
  8
laser
  6
ByBlock
 62
  256
370
   -1
100
AcDbLine
 10
-88.73343446086815
 20
1893.667473900156
 11
-181.0995611186079
 21
1888.53919315451
  0
LINE
  5
1FF
100
AcDbEntity
  8
laser
  6
ByBlock
 62
  256
370
   -1
100
AcDbLine
 10
-181.0995611186079
 20
1888.53919315451
 11
-179.5057804328995
 21
1859.833403440136
  0
LINE
  5
200
100
AcDbEntity
  8
laser
  6
ByBlock
 62
  256
370
   -1
100
AcDbLine
 10
37.16052801994111
 20
1871.862982876613
 11
35.56674733423274
 21
1900.568772590987
  0
LINE
  5
201
100
AcDbEntity
  8
laser
  6
ByBlock
 62
  256
370
   -1
100
AcDbLine
 10
35.56674733423274
 20
1900.568772590987
 11
6.860957619858738
 21
1898.974991905279
  0
LINE
  5
202
100
AcDbEntity
  8
laser
  6
ByBlock
 62
  256
370
   -1
100
AcDbLine
 10
6.860957619858738
 20
1898.974991905279
 11
7.55390574407966
 21
1886.494213768594
  0
LINE
  5
203
100
AcDbEntity
  8
laser
  6
ByBlock
 62
  256
370
   -1
100
AcDbLine
 10
7.55390574407966
 20
1886.494213768594
 11
5.175622157015631
 21
1886.362168544132
  0
LINE
  5
204
100
AcDbEntity
  8
laser
  6
ByBlock
 62
  256
370
   -1
100
AcDbLine
 10
5.175622157015631
 20
1886.362168544132
 11
5.057750116742786
 21
1886.35562414375
  0
LINE
  5
205
100
AcDbEntity
  8
laser
  6
ByBlock
 62
  256
370
   -1
100
AcDbLine
 10
5.057750116742786
 20
1886.35562414375
 11
4.364801992521834
 21
1898.836402280435
  0
LINE
  5
206
100
AcDbEntity
  8
laser
  6
ByBlock
 62
  256
370
   -1
100
AcDbLine
 10
4.364801992521834
 20
1898.836402280435
 11
-86.23685216774871
 21
1893.806087214009
  0
LINE
  5
207
100
AcDbEntity
  8
laser
  6
ByBlock
 62
  256
370
   -1
100
AcDbLine
 10
-86.23685216774871
 20
1893.806087214009
 11
-86.32928737316985
 21
1896.304805391373
  0
LINE
  5
208
100
AcDbEntity
  8
laser
  6
ByBlock
 62
  256
370
   -1
100
AcDbLine
 10
-86.32928737316985
 20
1896.304805391373
 11
4.226212367677633
 21
1901.332557907771
  0
LINE
  5
209
100
AcDbEntity
  8
laser
  6
ByBlock
 62
  256
370
   -1
100
AcDbLine
 10
4.226212367677633
 20
1901.332557907771
 11
2.433987259617354
 21
1933.612555735662
  0
LINE
  5
20A
100
AcDbEntity
  8
laser
  6
ByBlock
 62
  256
370
   -1
100
AcDbLine
 10
2.433987259617354
 20
1933.612555735662
 11
4.930142886954313
 21
1933.751145360506
  0
LINE
  5
20B
100
AcDbEntity
  8
laser
  6
ByBlock
 62
  256
370
   -1
100
AcDbLine
 10
4.930142886954313
 20
1933.751145360506
 11
6.722367995014523
 21
1901.471147532616
  0
LINE
  5
20C
100
AcDbEntity
  8
laser
  6
ByBlock
 62
  256
370
   -1
100
AcDbLine
 10
6.722367995014523
 20
1901.471147532616
 11
35.42815770938854
 21
1903.064928218324
  0
LINE
  5
20D
100
AcDbEntity
  8
laser
  6
ByBlock
 62
  256
370
   -1
100
AcDbLine
 10
35.42815770938854
 20
1903.064928218324
 11
31.99338489495604
 21
1964.929064866415
  0
LINE
  5
20E
100
AcDbEntity
  8
laser
  6
ByBlock
 62
  256
370
   -1
100
AcDbLine
 10
31.99338489495604
 20
1964.929064866415
 11
15.90905462919272
 21
1981.654003695254
  0
LINE
  5
20F
100
AcDbEntity
  8
laser
  6
ByBlock
 62
  256
370
   -1
100
AcDbLine
 10
17.71099419237209
 20
1983.386924296623
 11
33.79532445813538
 21
1966.661985467784
  0
LINE
  5
210
100
AcDbEntity
  8
laser
  6
ByBlock
 62
  256
370
   -1
100
AcDbLine
 10
33.79532445813538
 20
1966.661985467784
 11
323.7051512105877
 21
1939.180800073244
  0
LINE
  5
211
100
AcDbEntity
  8
laser
  6
ByBlock
 62
  256
370
   -1
100
AcDbLine
 10
323.7051512105877
 20
1939.180800073244
 11
326.4182643184208
 21
1967.802496690741
  0
LINE
  5
212
100
AcDbEntity
  8
laser
  6
ByBlock
 62
  256
370
   -1
100
AcDbLine
 10
326.4182643184208
 20
1967.802496690741
 11
252.390489591345
 21
1974.819751070867
  0
LINE
  5
213
100
AcDbEntity
  8
laser
  6
ByBlock
 62
  256
370
   -1
100
AcDbLine
 10
252.390489591345
 20
1974.819751070867
 11
252.5479798444567
 21
1977.316029054831
  0
LINE
  5
214
100
AcDbEntity
  8
laser
  6
ByBlock
 62
  256
370
   -1
100
AcDbLine
 10
252.5479798444567
 20
1977.316029054831
 11
326.6541871973629
 21
1970.291339874873
  0
LINE
  5
215
100
AcDbEntity
  8
laser
  6
ByBlock
 62
  256
370
   -1
100
AcDbLine
 10
326.6541871973629
 20
1970.291339874873
 11
336.7036187831172
 21
2076.306743801573
  0
LINE
  5
216
100
AcDbEntity
  8
laser
  6
ByBlock
 62
  256
370
   -1
100
AcDbLine
 10
336.7036187831172
 20
2076.306743801573
 11
259.2564751424384
 21
2083.648127626015
  0
LINE
  5
217
100
AcDbEntity
  8
laser
  6
ByBlock
 62
  256
370
   -1
100
AcDbLine
 10
259.2564751424384
 20
2083.648127626015
 11
259.4139653955501
 21
2086.144405609977
  0
LINE
  5
218
100
AcDbEntity
  8
laser
  6
ByBlock
 62
  256
370
   -1
100
AcDbLine
 10
259.4139653955501
 20
2086.144405609977
 11
336.9395416620592
 21
2078.795586985703
  0
LINE
  5
219
100
AcDbEntity
  8
laser
  6
ByBlock
 62
  256
370
   -1
100
AcDbLine
 10
336.9395416620592
 20
2078.795586985703
 11
345.2078658939483
 21
2166.021389336877
  0
LINE
  5
21A
100
AcDbEntity
  8
laser
  6
ByBlock
 62
  256
370
   -1
100
AcDbLine
 10
345.2078658939483
 20
2166.021389336877
 11
264.9334829681107
 21
2173.630773345446
  0
LINE
  5
21B
100
AcDbEntity
  8
laser
  6
ByBlock
 62
  256
370
   -1
100
AcDbLine
 10
264.9334829681107
 20
2173.630773345446
 11
265.0909732212223
 21
2176.127051329408
  0
LINE
  5
21C
100
AcDbEntity
  8
laser
  6
ByBlock
 62
  256
370
   -1
100
AcDbLine
 10
265.0909732212223
 20
2176.127051329408
 11
345.4437887728901
 21
2168.510232521007
  0
LINE
  5
21D
100
AcDbEntity
  8
laser
  6
ByBlock
 62
  256
370
   -1
100
AcDbLine
 10
345.4437887728901
 20
2168.510232521007
 11
355.4932203586446
 21
2274.525636447708
  0
LINE
  5
21E
100
AcDbEntity
  8
laser
  6
ByBlock
 62
  256
370
   -1
100
AcDbLine
 10
355.4932203586446
 20
2274.525636447708
 11
271.7994685192041
 21
2282.459149900593
  0
LINE
  5
21F
100
AcDbEntity
  8
laser
  6
ByBlock
 62
  256
370
   -1
100
AcDbLine
 10
271.7994685192041
 20
2282.459149900593
 11
271.9569587723157
 21
2284.955427884556
  0
LINE
  5
220
100
AcDbEntity
  8
laser
  6
ByBlock
 62
  256
370
   -1
100
AcDbLine
 10
271.9569587723157
 20
2284.955427884556
 11
355.7291432375866
 21
2277.014479631838
  0
LINE
  5
221
100
AcDbEntity
  8
laser
  6
ByBlock
 62
  256
370
   -1
100
AcDbLine
 10
355.7291432375866
 20
2277.014479631838
 11
363.9974674694757
 21
2364.240281983011
  0
LINE
  5
222
100
AcDbEntity
  8
laser
  6
ByBlock
 62
  256
370
   -1
100
AcDbLine
 10
363.9974674694757
 20
2364.240281983011
 11
277.4764763448763
 21
2372.441795620025
  0
LINE
  5
223
100
AcDbEntity
  8
laser
  6
ByBlock
 62
  256
370
   -1
100
AcDbLine
 10
277.4764763448763
 20
2372.441795620025
 11
277.633966597988
 21
2374.938073603988
  0
LINE
  5
224
100
AcDbEntity
  8
laser
  6
ByBlock
 62
  256
370
   -1
100
AcDbLine
 10
277.633966597988
 20
2374.938073603988
 11
364.2333903484177
 21
2366.729125167141
  0
LINE
  5
225
100
AcDbEntity
  8
laser
  6
ByBlock
 62
  256
370
   -1
100
AcDbLine
 10
364.2333903484177
 20
2366.729125167141
 11
374.2828219341721
 21
2472.744529093843
  0
LINE
  5
226
100
AcDbEntity
  8
laser
  6
ByBlock
 62
  256
370
   -1
100
AcDbLine
 10
374.2828219341721
 20
2472.744529093843
 11
284.3424618959698
 21
2481.270172175172
  0
LINE
  5
227
100
AcDbEntity
  8
laser
  6
ByBlock
 62
  256
370
   -1
100
AcDbLine
 10
284.4999521490814
 20
2483.766450159135
 11
374.5187448131141
 21
2475.233372277973
  0
LINE
  5
228
100
AcDbEntity
  8
laser
  6
ByBlock
 62
  256
370
   -1
100
AcDbLine
 10
374.5187448131141
 20
2475.233372277973
 11
382.7870690450031
 21
2562.459174629146
  0
LINE
  5
229
100
AcDbEntity
  8
laser
  6
ByBlock
 62
  256
370
   -1
100
AcDbLine
 10
382.7870690450031
 20
2562.459174629146
 11
290.019469721642
 21
2571.252817894604
  0
LINE
  5
22A
100
AcDbEntity
  8
laser
  6
ByBlock
 62
  256
370
   -1
100
AcDbLine
 10
290.019469721642
 20
2571.252817894604
 11
290.1769599747536
 21
2573.749095878567
  0
LINE
  5
22B
100
AcDbEntity
  8
laser
  6
ByBlock
 62
  256
370
   -1
100
AcDbLine
 10
290.1769599747536
 20
2573.749095878567
 11
383.0229919239451
 21
2564.948017813276
  0
LINE
  5
22C
100
AcDbEntity
  8
laser
  6
ByBlock
 62
  256
370
   -1
100
AcDbLine
 10
383.0229919239451
 20
2564.948017813276
 11
393.0724235096994
 21
2670.963421739977
  0
LINE
  5
22D
100
AcDbEntity
  8
laser
  6
ByBlock
 62
  256
370
   -1
100
AcDbLine
 10
393.0724235096994
 20
2670.963421739977
 11
296.8854552727354
 21
2680.08119444975
  0
LINE
  5
22E
100
AcDbEntity
  8
laser
  6
ByBlock
 62
  256
370
   -1
100
AcDbLine
 10
296.8854552727354
 20
2680.08119444975
 11
297.042945525847
 21
2682.577472433713
  0
LINE
  5
22F
100
AcDbEntity
  8
laser
  6
ByBlock
 62
  256
370
   -1
100
AcDbLine
 10
297.042945525847
 20
2682.577472433713
 11
393.3083463886415
 21
2673.452264924107
  0
LINE
  5
230
100
AcDbEntity
  8
laser
  6
ByBlock
 62
  256
370
   -1
100
AcDbLine
 10
393.3083463886415
 20
2673.452264924107
 11
401.5766706205305
 21
2760.678067275281
  0
LINE
  5
231
100
AcDbEntity
  8
laser
  6
ByBlock
 62
  256
370
   -1
100
AcDbLine
 10
401.5766706205305
 20
2760.678067275281
 11
302.5624630984076
 21
2770.063840169183
  0
LINE
  5
232
100
AcDbEntity
  8
laser
  6
ByBlock
 62
  256
370
   -1
100
AcDbLine
 10
302.5624630984076
 20
2770.063840169183
 11
302.7199533515193
 21
2772.560118153146
  0
LINE
  5
233
100
AcDbEntity
  8
laser
  6
ByBlock
 62
  256
370
   -1
100
AcDbLine
 10
302.7199533515193
 20
2772.560118153146
 11
401.8125934994725
 21
2763.166910459411
  0
LINE
  5
234
100
AcDbEntity
  8
laser
  6
ByBlock
 62
  256
370
   -1
100
AcDbLine
 10
401.8125934994725
 20
2763.166910459411
 11
411.8620250852269
 21
2869.182314386112
  0
LINE
  5
235
100
AcDbEntity
  8
laser
  6
ByBlock
 62
  256
370
   -1
100
AcDbLine
 10
411.8620250852269
 20
2869.182314386112
 11
309.428448649501
 21
2878.892216724329
  0
LINE
  5
236
100
AcDbEntity
  8
laser
  6
ByBlock
 62
  256
370
   -1
100
AcDbLine
 10
309.428448649501
 20
2878.892216724329
 11
309.5859389026127
 21
2881.388494708292
  0
LINE
  5
237
100
AcDbEntity
  8
laser
  6
ByBlock
 62
  256
370
   -1
100
AcDbLine
 10
309.5859389026127
 20
2881.388494708292
 11
412.0979479641689
 21
2871.671157570242
  0
LINE
  5
238
100
AcDbEntity
  8
laser
  6
ByBlock
 62
  256
370
   -1
100
AcDbLine
 10
412.0979479641689
 20
2871.671157570242
 11
420.366272196058
 21
2958.896959921416
  0
LINE
  5
239
100
AcDbEntity
  8
laser
  6
ByBlock
 62
  256
370
   -1
100
AcDbLine
 10
420.366272196058
 20
2958.896959921416
 11
315.1054564751733
 21
2968.874862443761
  0
LINE
  5
23A
100
AcDbEntity
  8
laser
  6
ByBlock
 62
  256
370
   -1
100
AcDbLine
 10
315.262946728285
 20
2971.371140427724
 11
420.6021950750001
 21
2961.385803105546
  0
LINE
  5
23B
100
AcDbEntity
  8
laser
  6
ByBlock
 62
  256
370
   -1
100
AcDbLine
 10
420.6021950750001
 20
2961.385803105546
 11
430.6516266607543
 21
3067.401207032246
  0
LINE
  5
23C
100
AcDbEntity
  8
laser
  6
ByBlock
 62
  256
370
   -1
100
AcDbLine
 10
430.6516266607543
 20
3067.401207032246
 11
321.9714420262667
 21
3077.703238998909
  0
LINE
  5
23D
100
AcDbEntity
  8
laser
  6
ByBlock
 62
  256
370
   -1
100
AcDbLine
 10
321.9714420262667
 20
3077.703238998909
 11
322.1289322793784
 21
3080.199516982871
  0
LINE
  5
23E
100
AcDbEntity
  8
laser
  6
ByBlock
 62
  256
370
   -1
100
AcDbLine
 10
322.1289322793784
 20
3080.199516982871
 11
430.8875495396964
 21
3069.890050216377
  0
LINE
  5
23F
100
AcDbEntity
  8
laser
  6
ByBlock
 62
  256
370
   -1
100
AcDbLine
 10
430.8875495396964
 20
3069.890050216377
 11
439.1558737715853
 21
3157.11585256755
  0
LINE
  5
240
100
AcDbEntity
  8
laser
  6
ByBlock
 62
  256
370
   -1
100
AcDbLine
 10
439.1558737715853
 20
3157.11585256755
 11
327.648449851939
 21
3167.68588471834
  0
LINE
  5
241
100
AcDbEntity
  8
laser
  6
ByBlock
 62
  256
370
   -1
100
AcDbLine
 10
327.648449851939
 20
3167.68588471834
 11
327.8059401050506
 21
3170.182162702303
  0
LINE
  5
242
100
AcDbEntity
  8
laser
  6
ByBlock
 62
  256
370
   -1
100
AcDbLine
 10
327.8059401050506
 20
3170.182162702303
 11
439.3917966505275
 21
3159.60469575168
  0
LINE
  5
243
100
AcDbEntity
  8
laser
  6
ByBlock
 62
  256
370
   -1
100
AcDbLine
 10
439.3917966505275
 20
3159.60469575168
 11
449.4412282362817
 21
3265.620099678381
  0
LINE
  5
244
100
AcDbEntity
  8
laser
  6
ByBlock
 62
  256
370
   -1
100
AcDbLine
 10
449.4412282362817
 20
3265.620099678381
 11
334.5144354030324
 21
3276.514261273487
  0
LINE
  5
245
100
AcDbEntity
  8
laser
  6
ByBlock
 62
  256
370
   -1
100
AcDbLine
 10
334.5144354030324
 20
3276.514261273487
 11
334.6719256561441
 21
3279.01053925745
  0
LINE
  5
246
100
AcDbEntity
  8
laser
  6
ByBlock
 62
  256
370
   -1
100
AcDbLine
 10
334.6719256561441
 20
3279.01053925745
 11
449.6771511152238
 21
3268.108942862511
  0
LINE
  5
247
100
AcDbEntity
  8
laser
  6
ByBlock
 62
  256
370
   -1
100
AcDbLine
 10
449.6771511152238
 20
3268.108942862511
 11
457.9454753471128
 21
3355.334745213685
  0
LINE
  5
248
100
AcDbEntity
  8
laser
  6
ByBlock
 62
  256
370
   -1
100
AcDbLine
 10
457.9454753471128
 20
3355.334745213685
 11
340.1914432287047
 21
3366.496906992919
  0
LINE
  5
249
100
AcDbEntity
  8
laser
  6
ByBlock
 62
  256
370
   -1
100
AcDbLine
 10
340.1914432287047
 20
3366.496906992919
 11
340.3489334818163
 21
3368.993184976882
  0
LINE
  5
24A
100
AcDbEntity
  8
laser
  6
ByBlock
 62
  256
370
   -1
100
AcDbLine
 10
340.3489334818163
 20
3368.993184976882
 11
458.1813982260549
 21
3357.823588397815
  0
LINE
  5
24B
100
AcDbEntity
  8
laser
  6
ByBlock
 62
  256
370
   -1
100
AcDbLine
 10
458.1813982260549
 20
3357.823588397815
 11
468.2308298118092
 21
3463.838992324516
  0
LINE
  5
24C
100
AcDbEntity
  8
laser
  6
ByBlock
 62
  256
370
   -1
100
AcDbLine
 10
468.2308298118092
 20
3463.838992324516
 11
347.0574287797981
 21
3475.325283548066
  0
LINE
  5
24D
100
AcDbEntity
  8
laser
  6
ByBlock
 62
  256
370
   -1
100
AcDbLine
 10
347.0574287797981
 20
3475.325283548066
 11
347.2149190329097
 21
3477.821561532028
  0
LINE
  5
24E
100
AcDbEntity
  8
laser
  6
ByBlock
 62
  256
370
   -1
100
AcDbLine
 10
347.2149190329097
 20
3477.821561532028
 11
468.4667526907513
 21
3466.327835508646
  0
LINE
  5
24F
100
AcDbEntity
  8
laser
  6
ByBlock
 62
  256
370
   -1
100
AcDbLine
 10
468.4667526907513
 20
3466.327835508646
 11
477.6677449694899
 21
3563.392719689727
  0
LINE
  5
250
100
AcDbEntity
  8
laser
  6
ByBlock
 62
  256
370
   -1
100
AcDbLine
 10
477.6677449694899
 20
3563.392719689727
 11
353.3570389042649
 21
3575.176402906583
  0
LINE
  5
251
100
AcDbEntity
  8
laser
  6
ByBlock
 62
  256
370
   -1
100
AcDbLine
 10
353.3570389042649
 20
3575.176402906583
 11
353.5145291573764
 21
3577.672680890546
  0
LINE
  5
252
100
AcDbEntity
  8
laser
  6
ByBlock
 62
  256
370
   -1
100
AcDbLine
 10
353.5145291573764
 20
3577.672680890546
 11
477.9036678484319
 21
3565.881562873857
  0
LINE
  5
253
100
AcDbEntity
  8
laser
  6
ByBlock
 62
  256
370
   -1
100
AcDbLine
 10
477.9036678484319
 20
3565.881562873857
 11
480.6167809562651
 21
3594.503259491355
  0
LINE
  5
254
100
AcDbEntity
  8
laser
  6
ByBlock
 62
  256
370
   -1
100
AcDbLine
 10
227.6324216812535
 20
3589.605320677746
 11
227.5535199936781
 21
3587.101593112086
  0
LINE
  5
255
100
AcDbEntity
  8
laser
  6
ByBlock
 62
  256
370
   -1
100
AcDbLine
 10
227.5535199936781
 20
3587.101593112086
 11
350.8669601761949
 21
3575.412442905433
  0
LINE
  5
256
100
AcDbEntity
  8
laser
  6
ByBlock
 62
  256
370
   -1
100
AcDbLine
 10
350.8669601761949
 20
3575.412442905433
 11
351.0244504293065
 21
3577.908720889395
  0
LINE
  5
257
100
AcDbEntity
  8
laser
  6
ByBlock
 62
  256
370
   -1
100
AcDbLine
 10
351.0244504293065
 20
3577.908720889395
 11
227.6324216812535
 21
3589.605320677746
  0
LINE
  5
258
100
AcDbEntity
  8
laser
  6
ByBlock
 62
  256
370
   -1
100
AcDbLine
 10
224.476354178235
 20
3489.456218051316
 11
224.3974524906596
 21
3486.952490485656
  0
LINE
  5
259
100
AcDbEntity
  8
laser
  6
ByBlock
 62
  256
370
   -1
100
AcDbLine
 10
224.3974524906596
 20
3486.952490485656
 11
344.5673500517281
 21
3475.561323546915
  0
LINE
  5
25A
100
AcDbEntity
  8
laser
  6
ByBlock
 62
  256
370
   -1
100
AcDbLine
 10
344.5673500517281
 20
3475.561323546915
 11
344.7248403048397
 21
3478.057601530878
  0
LINE
  5
25B
100
AcDbEntity
  8
laser
  6
ByBlock
 62
  256
370
   -1
100
AcDbLine
 10
344.7248403048397
 20
3478.057601530878
 11
224.4763541782449
 21
3489.456218051316
  0
LINE
  5
25C
100
AcDbEntity
  8
laser
  6
ByBlock
 62
  256
370
   -1
100
AcDbLine
 10
221.036535928239
 20
3380.303067617861
 11
220.9576342406635
 21
3377.7993400522
  0
LINE
  5
25D
100
AcDbEntity
  8
laser
  6
ByBlock
 62
  256
370
   -1
100
AcDbLine
 10
220.9576342406635
 20
3377.7993400522
 11
337.7013645006347
 21
3366.732946991769
  0
LINE
  5
25E
100
AcDbEntity
  8
laser
  6
ByBlock
 62
  256
370
   -1
100
AcDbLine
 10
337.7013645006347
 20
3366.732946991769
 11
337.8588547537464
 21
3369.229224975732
  0
LINE
  5
25F
100
AcDbEntity
  8
laser
  6
ByBlock
 62
  256
370
   -1
100
AcDbLine
 10
337.8588547537464
 20
3369.229224975732
 11
221.0365359282441
 21
3380.303067617861
  0
LINE
  5
260
100
AcDbEntity
  8
laser
  6
ByBlock
 62
  256
370
   -1
100
AcDbLine
 10
218.1923885034009
 20
3290.051888876475
 11
218.1134868158255
 21
3287.548161310814
  0
LINE
  5
261
100
AcDbEntity
  8
laser
  6
ByBlock
 62
  256
370
   -1
100
AcDbLine
 10
218.1134868158255
 20
3287.548161310814
 11
332.0243566749624
 21
3276.750301272336
  0
LINE
  5
262
100
AcDbEntity
  8
laser
  6
ByBlock
 62
  256
370
   -1
100
AcDbLine
 10
332.0243566749624
 20
3276.750301272336
 11
332.181846928074
 21
3279.246579256299
  0
LINE
  5
263
100
AcDbEntity
  8
laser
  6
ByBlock
 62
  256
370
   -1
100
AcDbLine
 10
332.181846928074
 20
3279.246579256299
 11
218.1923885034009
 21
3290.051888876475
  0
LINE
  5
264
100
AcDbEntity
  8
laser
  6
ByBlock
 62
  256
370
   -1
100
AcDbLine
 10
214.7525702534049
 20
3180.898738443019
 11
214.6736685658295
 21
3178.395010877358
  0
LINE
  5
265
100
AcDbEntity
  8
laser
  6
ByBlock
 62
  256
370
   -1
100
AcDbLine
 10
214.6736685658295
 20
3178.395010877358
 11
325.158371123869
 21
3167.92192471719
  0
LINE
  5
266
100
AcDbEntity
  8
laser
  6
ByBlock
 62
  256
370
   -1
100
AcDbLine
 10
325.158371123869
 20
3167.92192471719
 11
325.3158613769807
 21
3170.418202701152
  0
LINE
  5
267
100
AcDbEntity
  8
laser
  6
ByBlock
 62
  256
370
   -1
100
AcDbLine
 10
325.3158613769807
 20
3170.418202701152
 11
214.7525702534049
 21
3180.898738443019
  0
LINE
  5
268
100
AcDbEntity
  8
laser
  6
ByBlock
 62
  256
370
   -1
100
AcDbLine
 10
211.9084228285669
 20
3090.647559701633
 11
211.8295211409915
 21
3088.143832135973
  0
LINE
  5
269
100
AcDbEntity
  8
laser
  6
ByBlock
 62
  256
370
   -1
100
AcDbLine
 10
211.8295211409915
 20
3088.143832135973
 11
319.4813632981968
 21
3077.939278997758
  0
LINE
  5
26A
100
AcDbEntity
  8
laser
  6
ByBlock
 62
  256
370
   -1
100
AcDbLine
 10
319.4813632981968
 20
3077.939278997758
 11
319.6388535513084
 21
3080.435556981721
  0
LINE
  5
26B
100
AcDbEntity
  8
laser
  6
ByBlock
 62
  256
370
   -1
100
AcDbLine
 10
319.6388535513084
 20
3080.435556981721
 11
211.9084228285683
 21
3090.647559701633
  0
LINE
  5
26C
100
AcDbEntity
  8
laser
  6
ByBlock
 62
  256
370
   -1
100
AcDbLine
 10
208.3897028909954
 20
2978.990681702516
 11
312.6153777471034
 21
2969.11090244261
  0
LINE
  5
26D
100
AcDbEntity
  8
laser
  6
ByBlock
 62
  256
370
   -1
100
AcDbLine
 10
312.772868000215
 20
2971.607180426573
 11
208.4686045785711
 21
2981.494409268177
  0
LINE
  5
26E
100
AcDbEntity
  8
laser
  6
ByBlock
 62
  256
370
   -1
100
AcDbLine
 10
307.0958601745427
 20
2881.624534707142
 11
306.9383699214311
 21
2879.128256723179
  0
LINE
  5
26F
100
AcDbEntity
  8
laser
  6
ByBlock
 62
  256
370
   -1
100
AcDbLine
 10
306.9383699214311
 20
2879.128256723179
 11
205.5455554661573
 21
2888.73950296113
  0
LINE
  5
270
100
AcDbEntity
  8
laser
  6
ByBlock
 62
  256
370
   -1
100
AcDbLine
 10
205.5455554661573
 20
2888.73950296113
 11
205.6244571537328
 21
2891.243230526791
  0
LINE
  5
271
100
AcDbEntity
  8
laser
  6
ByBlock
 62
  256
370
   -1
100
AcDbLine
 10
205.6244571537328
 20
2891.243230526791
 11
307.0958601745406
 21
2881.624534707142
  0
LINE
  5
272
100
AcDbEntity
  8
laser
  6
ByBlock
 62
  256
370
   -1
100
AcDbLine
 10
202.1846389037368
 20
2782.090080093335
 11
300.2298746234493
 21
2772.796158151994
  0
LINE
  5
273
100
AcDbEntity
  8
laser
  6
ByBlock
 62
  256
370
   -1
100
AcDbLine
 10
300.2298746234493
 20
2772.796158151994
 11
300.0723843703377
 21
2770.299880168031
  0
LINE
  5
274
100
AcDbEntity
  8
laser
  6
ByBlock
 62
  256
370
   -1
100
AcDbLine
 10
300.0723843703377
 20
2770.299880168031
 11
202.1057372161613
 21
2779.586352527674
  0
LINE
  5
275
100
AcDbEntity
  8
laser
  6
ByBlock
 62
  256
370
   -1
100
AcDbLine
 10
202.1057372161613
 20
2779.586352527674
 11
202.1846389037368
 21
2782.090080093335
  0
LINE
  5
276
100
AcDbEntity
  8
laser
  6
ByBlock
 62
  256
370
   -1
100
AcDbLine
 10
199.3404914788987
 20
2691.838901351948
 11
294.5528667977771
 21
2682.813512432563
  0
LINE
  5
277
100
AcDbEntity
  8
laser
  6
ByBlock
 62
  256
370
   -1
100
AcDbLine
 10
294.5528667977771
 20
2682.813512432563
 11
294.3953765446655
 21
2680.317234448601
  0
LINE
  5
278
100
AcDbEntity
  8
laser
  6
ByBlock
 62
  256
370
   -1
100
AcDbLine
 10
294.3953765446655
 20
2680.317234448601
 11
199.2615897913233
 21
2689.335173786288
  0
LINE
  5
279
100
AcDbEntity
  8
laser
  6
ByBlock
 62
  256
370
   -1
100
AcDbLine
 10
199.2615897913233
 20
2689.335173786288
 11
199.3404914788987
 21
2691.838901351948
  0
LINE
  5
27A
100
AcDbEntity
  8
laser
  6
ByBlock
 62
  256
370
   -1
100
AcDbLine
 10
195.9006732289027
 20
2582.685750918493
 11
287.6868812466837
 21
2573.985135877416
  0
LINE
  5
27B
100
AcDbEntity
  8
laser
  6
ByBlock
 62
  256
370
   -1
100
AcDbLine
 10
287.6868812466837
 20
2573.985135877416
 11
287.529390993572
 21
2571.488857893453
  0
LINE
  5
27C
100
AcDbEntity
  8
laser
  6
ByBlock
 62
  256
370
   -1
100
AcDbLine
 10
287.529390993572
 20
2571.488857893453
 11
195.8217715413272
 21
2580.182023352832
  0
LINE
  5
27D
100
AcDbEntity
  8
laser
  6
ByBlock
 62
  256
370
   -1
100
AcDbLine
 10
195.8217715413272
 20
2580.182023352832
 11
195.9006732289027
 21
2582.685750918493
  0
LINE
  5
27E
100
AcDbEntity
  8
laser
  6
ByBlock
 62
  256
370
   -1
100
AcDbLine
 10
193.0565258040646
 20
2492.434572177106
 11
282.0098734210114
 21
2484.002490157985
  0
LINE
  5
27F
100
AcDbEntity
  8
laser
  6
ByBlock
 62
  256
370
   -1
100
AcDbLine
 10
281.8523831678998
 20
2481.506212174022
 11
192.9776241164892
 21
2489.930844611446
  0
LINE
  5
280
100
AcDbEntity
  8
laser
  6
ByBlock
 62
  256
370
   -1
100
AcDbLine
 10
189.6167075540686
 20
2383.281421743651
 11
275.143887869918
 21
2375.174113602837
  0
LINE
  5
281
100
AcDbEntity
  8
laser
  6
ByBlock
 62
  256
370
   -1
100
AcDbLine
 10
275.143887869918
 20
2375.174113602837
 11
274.9863976168064
 21
2372.677835618874
  0
LINE
  5
282
100
AcDbEntity
  8
laser
  6
ByBlock
 62
  256
370
   -1
100
AcDbLine
 10
274.9863976168064
 20
2372.677835618874
 11
189.5378058664932
 21
2380.77769417799
  0
LINE
  5
283
100
AcDbEntity
  8
laser
  6
ByBlock
 62
  256
370
   -1
100
AcDbLine
 10
189.5378058664932
 20
2380.77769417799
 11
189.6167075540686
 21
2383.281421743651
  0
LINE
  5
284
100
AcDbEntity
  8
laser
  6
ByBlock
 62
  256
370
   -1
100
AcDbLine
 10
186.7725601292306
 20
2293.030243002264
 11
269.4668800442457
 21
2285.191467883405
  0
LINE
  5
285
100
AcDbEntity
  8
laser
  6
ByBlock
 62
  256
370
   -1
100
AcDbLine
 10
269.4668800442457
 20
2285.191467883405
 11
269.3093897911341
 21
2282.695189899443
  0
LINE
  5
286
100
AcDbEntity
  8
laser
  6
ByBlock
 62
  256
370
   -1
100
AcDbLine
 10
269.3093897911341
 20
2282.695189899443
 11
186.6936584416551
 21
2290.526515436603
  0
LINE
  5
287
100
AcDbEntity
  8
laser
  6
ByBlock
 62
  256
370
   -1
100
AcDbLine
 10
186.6936584416551
 20
2290.526515436603
 11
186.7725601292306
 21
2293.030243002264
  0
LINE
  5
288
100
AcDbEntity
  8
laser
  6
ByBlock
 62
  256
370
   -1
100
AcDbLine
 10
183.3327418792346
 20
2183.877092568809
 11
262.6008944931523
 21
2176.363091328258
  0
LINE
  5
289
100
AcDbEntity
  8
laser
  6
ByBlock
 62
  256
370
   -1
100
AcDbLine
 10
262.6008944931523
 20
2176.363091328258
 11
262.4434042400406
 21
2173.866813344296
  0
LINE
  5
28A
100
AcDbEntity
  8
laser
  6
ByBlock
 62
  256
370
   -1
100
AcDbLine
 10
262.4434042400406
 20
2173.866813344296
 11
183.2538401916591
 21
2181.373365003149
  0
LINE
  5
28B
100
AcDbEntity
  8
laser
  6
ByBlock
 62
  256
370
   -1
100
AcDbLine
 10
183.2538401916591
 20
2181.373365003149
 11
183.3327418792346
 21
2183.877092568809
  0
LINE
  5
28C
100
AcDbEntity
  8
laser
  6
ByBlock
 62
  256
370
   -1
100
AcDbLine
 10
180.4885944543965
 20
2093.625913827423
 11
256.9238866674801
 21
2086.380445608826
  0
LINE
  5
28D
100
AcDbEntity
  8
laser
  6
ByBlock
 62
  256
370
   -1
100
AcDbLine
 10
256.9238866674801
 20
2086.380445608826
 11
256.7663964143684
 21
2083.884167624864
  0
LINE
  5
28E
100
AcDbEntity
  8
laser
  6
ByBlock
 62
  256
370
   -1
100
AcDbLine
 10
256.7663964143684
 20
2083.884167624864
 11
180.409692766821
 21
2091.122186261762
  0
LINE
  5
28F
100
AcDbEntity
  8
laser
  6
ByBlock
 62
  256
370
   -1
100
AcDbLine
 10
180.409692766821
 20
2091.122186261762
 11
180.4885944543965
 21
2093.625913827423
  0
LINE
  5
290
100
AcDbEntity
  8
laser
  6
ByBlock
 62
  256
370
   -1
100
AcDbLine
 10
177.0487762044005
 20
1984.472763393968
 11
250.0579011163867
 21
1977.55206905368
  0
LINE
  5
291
100
AcDbEntity
  8
laser
  6
ByBlock
 62
  256
370
   -1
100
AcDbLine
 10
250.0579011163867
 20
1977.55206905368
 11
249.900410863275
 21
1975.055791069716
  0
LINE
  5
292
100
AcDbEntity
  8
laser
  6
ByBlock
 62
  256
370
   -1
100
AcDbLine
 10
249.900410863275
 20
1975.055791069716
 11
176.969874516825
 21
1981.969035828306
  0
LINE
  5
293
100
AcDbEntity
  8
laser
  6
ByBlock
 62
  256
370
   -1
100
AcDbLine
 10
176.969874516825
 20
1981.969035828306
 11
177.0487762044005
 21
1984.472763393968
  0
LINE
  5
294
100
AcDbEntity
  8
laser
  6
ByBlock
 62
  256
370
   -1
100
AcDbLine
 10
2.295397634773068
 20
1936.108711362999
 11
4.791553262109941
 21
1936.247300987843
  0
LINE
  5
295
100
AcDbEntity
  8
laser
  6
ByBlock
 62
  256
370
   -1
100
AcDbLine
 10
4.791553262109941
 20
1936.247300987843
 11
1.434887017268466
 21
1996.704650126152
  0
LINE
  5
296
100
AcDbEntity
  8
laser
  6
ByBlock
 62
  256
370
   -1
100
AcDbLine
 10
1.434887017268466
 20
1996.704650126152
 11
14.17613402782375
 21
1983.455943258434
  0
LINE
  5
297
100
AcDbEntity
  8
laser
  6
ByBlock
 62
  256
370
   -1
100
AcDbLine
 10
15.97807359100338
 20
1985.188863859802
 11
3.236826580448223
 21
1998.437570727521
  0
LINE
  5
298
100
AcDbEntity
  8
laser
  6
ByBlock
 62
  256
370
   -1
100
AcDbLine
 10
3.236826580448223
 20
1998.437570727521
 11
174.4760830159713
 21
1982.205427768993
  0
LINE
  5
299
100
AcDbEntity
  8
laser
  6
ByBlock
 62
  256
370
   -1
100
AcDbLine
 10
174.4760830159713
 20
1982.205427768993
 11
174.5549847035468
 21
1984.709155334654
  0
LINE
  5
29A
100
AcDbEntity
  8
laser
  6
ByBlock
 62
  256
370
   -1
100
AcDbLine
 10
174.5549847035468
 20
1984.709155334654
 11
2.761592943336382
 21
2000.99382599037
  0
LINE
  5
29B
100
AcDbEntity
  8
laser
  6
ByBlock
 62
  256
370
   -1
100
AcDbLine
 10
2.761592943336382
 20
2000.99382599037
 11
49.99999999999992
 21
2048.232233047033
  0
LINE
  5
29C
100
AcDbEntity
  8
laser
  6
ByBlock
 62
  256
370
   -1
100
AcDbLine
 10
49.99999999999992
 20
2048.232233047033
 11
48.23223304703355
 21
2050
  0
LINE
  5
29D
100
AcDbEntity
  8
laser
  6
ByBlock
 62
  256
370
   -1
100
AcDbLine
 10
48.23223304703355
 20
2050
 11
-0.5461655903191058
 21
2001.221601362647
  0
LINE
  5
29E
100
AcDbEntity
  8
laser
  6
ByBlock
 62
  256
370
   -1
100
AcDbLine
 10
-0.5461655903191058
 20
2001.221601362647
 11
-90.02669559001599
 21
1996.253532485969
  0
LINE
  5
29F
100
AcDbEntity
  8
laser
  6
ByBlock
 62
  256
370
   -1
100
AcDbLine
 10
-90.02669559001599
 20
1996.253532485969
 11
-89.93426038459484
 21
1993.754814308604
  0
LINE
  5
2A0
100
AcDbEntity
  8
laser
  6
ByBlock
 62
  256
370
   -1
100
AcDbLine
 10
-89.93426038459484
 20
1993.754814308604
 11
-1.178783001246344
 21
1998.68262737391
  0
LINE
  5
2A1
100
AcDbEntity
  8
laser
  6
ByBlock
 62
  256
370
   -1
100
AcDbLine
 10
-1.178783001246344
 20
1998.68262737391
 11
2.295397634773068
 21
1936.108711362999
  0
LINE
  5
2A2
100
AcDbEntity
  8
laser
  6
ByBlock
 62
  256
370
   -1
100
AcDbLine
 10
2.295397634773068
 20
1936.108711362999
 11
4.791553262109941
 21
1936.247300987843
  0
LINE
  5
2A3
100
AcDbEntity
  8
laser
  6
ByBlock
 62
  256
370
   -1
100
AcDbLine
 10
50.00000000000023
 20
2051.767766952967
 11
51.76776695296645
 21
2050
  0
LINE
  5
2A4
100
AcDbEntity
  8
laser
  6
ByBlock
 62
  256
370
   -1
100
AcDbLine
 10
51.76776695296645
 20
2050
 11
100.4678180447479
 21
2098.700051091781
  0
LINE
  5
2A5
100
AcDbEntity
  8
laser
  6
ByBlock
 62
  256
370
   -1
100
AcDbLine
 10
100.4678180447479
 20
2098.700051091781
 11
177.9159012659674
 21
2091.35857820245
  0
LINE
  5
2A6
100
AcDbEntity
  8
laser
  6
ByBlock
 62
  256
370
   -1
100
AcDbLine
 10
177.9159012659674
 20
2091.35857820245
 11
177.9948029535428
 21
2093.86230576811
  0
LINE
  5
2A7
100
AcDbEntity
  8
laser
  6
ByBlock
 62
  256
370
   -1
100
AcDbLine
 10
177.9948029535428
 20
2093.86230576811
 11
100.5657966369636
 21
2101.201970316003
  0
LINE
  5
2A8
100
AcDbEntity
  8
laser
  6
ByBlock
 62
  256
370
   -1
100
AcDbLine
 10
100.5657966369636
 20
2101.201970316003
 11
51.76776695296667
 21
2150
  0
LINE
  5
2A9
100
AcDbEntity
  8
laser
  6
ByBlock
 62
  256
370
   -1
100
AcDbLine
 10
51.76776695296667
 20
2150
 11
50
 21
2148.232233047033
  0
LINE
  5
2AA
100
AcDbEntity
  8
laser
  6
ByBlock
 62
  256
370
   -1
100
AcDbLine
 10
50
 20
2148.232233047033
 11
97.13914602513205
 21
2101.093087021901
  0
LINE
  5
2AB
100
AcDbEntity
  8
laser
  6
ByBlock
 62
  256
370
   -1
100
AcDbLine
 10
97.13914602513205
 20
2101.093087021901
 11
3.801451975613872
 21
2095.910863661915
  0
LINE
  5
2AC
100
AcDbEntity
  8
laser
  6
ByBlock
 62
  256
370
   -1
100
AcDbLine
 10
3.801451975613872
 20
2095.910863661915
 11
3.847701191577173
 21
2093.409581181716
  0
LINE
  5
2AD
100
AcDbEntity
  8
laser
  6
ByBlock
 62
  256
370
   -1
100
AcDbLine
 10
3.847701191577173
 20
2093.409581181716
 11
96.8027951626816
 21
2098.570562115648
  0
LINE
  5
2AE
100
AcDbEntity
  8
laser
  6
ByBlock
 62
  256
370
   -1
100
AcDbLine
 10
96.8027951626816
 20
2098.570562115648
 11
50.00000000000023
 21
2051.767766952967
  0
LINE
  5
2AF
100
AcDbEntity
  8
laser
  6
ByBlock
 62
  256
370
   -1
100
AcDbLine
 10
50.00000000000023
 20
2051.767766952967
 11
51.76776695296621
 21
2050
  0
LINE
  5
2B0
100
AcDbEntity
  8
laser
  6
ByBlock
 62
  256
370
   -1
100
AcDbLine
 10
50
 20
2151.767766952967
 11
3.339973773014663
 21
2198.427793179952
  0
LINE
  5
2B1
100
AcDbEntity
  8
laser
  6
ByBlock
 62
  256
370
   -1
100
AcDbLine
 10
3.339973773014663
 20
2198.427793179952
 11
180.7600486908054
 21
2181.609756943836
  0
LINE
  5
2B2
100
AcDbEntity
  8
laser
  6
ByBlock
 62
  256
370
   -1
100
AcDbLine
 10
180.7600486908054
 20
2181.609756943836
 11
180.8389503783808
 21
2184.113484509496
  0
LINE
  5
2B3
100
AcDbEntity
  8
laser
  6
ByBlock
 62
  256
370
   -1
100
AcDbLine
 10
180.8389503783808
 20
2184.113484509496
 11
2.761592943335472
 21
2200.993825990369
  0
LINE
  5
2B4
100
AcDbEntity
  8
laser
  6
ByBlock
 62
  256
370
   -1
100
AcDbLine
 10
2.761592943335472
 20
2200.993825990369
 11
50
 21
2248.232233047033
  0
LINE
  5
2B5
100
AcDbEntity
  8
laser
  6
ByBlock
 62
  256
370
   -1
100
AcDbLine
 10
50
 20
2248.232233047033
 11
48.23223304703333
 21
2250
  0
LINE
  5
2B6
100
AcDbEntity
  8
laser
  6
ByBlock
 62
  256
370
   -1
100
AcDbLine
 10
48.23223304703333
 20
2250
 11
-0.5461655903195606
 21
2201.221601362647
  0
LINE
  5
2B7
100
AcDbEntity
  8
laser
  6
ByBlock
 62
  256
370
   -1
100
AcDbLine
 10
-97.41014065164961
 20
2195.843594551834
 11
-97.31770544622847
 21
2193.34487637447
  0
LINE
  5
2B8
100
AcDbEntity
  8
laser
  6
ByBlock
 62
  256
370
   -1
100
AcDbLine
 10
-0.4887081308534107
 20
2198.720941177887
 11
48.23223304703333
 21
2150
  0
LINE
  5
2B9
100
AcDbEntity
  8
laser
  6
ByBlock
 62
  256
370
   -1
100
AcDbLine
 10
48.23223304703333
 20
2150
 11
50.00000000000045
 21
2151.767766952967
  0
LINE
  5
2BA
100
AcDbEntity
  8
laser
  6
ByBlock
 62
  256
370
   -1
100
AcDbLine
 10
50
 20
2251.767766952967
 11
51.76776695296667
 21
2250
  0
LINE
  5
2BB
100
AcDbEntity
  8
laser
  6
ByBlock
 62
  256
370
   -1
100
AcDbLine
 10
51.76776695296667
 20
2250
 11
100.4678180447477
 21
2298.700051091781
  0
LINE
  5
2BC
100
AcDbEntity
  8
laser
  6
ByBlock
 62
  256
370
   -1
100
AcDbLine
 10
100.4678180447477
 20
2298.700051091781
 11
184.1998669408014
 21
2290.762907377291
  0
LINE
  5
2BD
100
AcDbEntity
  8
laser
  6
ByBlock
 62
  256
370
   -1
100
AcDbLine
 10
184.1998669408014
 20
2290.762907377291
 11
184.2787686283769
 21
2293.266634942951
  0
LINE
  5
2BE
100
AcDbEntity
  8
laser
  6
ByBlock
 62
  256
370
   -1
100
AcDbLine
 10
184.2787686283769
 20
2293.266634942951
 11
100.5657966369636
 21
2301.201970316003
  0
LINE
  5
2BF
100
AcDbEntity
  8
laser
  6
ByBlock
 62
  256
370
   -1
100
AcDbLine
 10
100.5657966369636
 20
2301.201970316003
 11
51.76776695296712
 21
2350
  0
LINE
  5
2C0
100
AcDbEntity
  8
laser
  6
ByBlock
 62
  256
370
   -1
100
AcDbLine
 10
51.76776695296712
 20
2350
 11
50
 21
2348.232233047033
  0
LINE
  5
2C1
100
AcDbEntity
  8
laser
  6
ByBlock
 62
  256
370
   -1
100
AcDbLine
 10
50
 20
2348.232233047033
 11
97.13914602513205
 21
2301.093087021901
  0
LINE
  5
2C2
100
AcDbEntity
  8
laser
  6
ByBlock
 62
  256
370
   -1
100
AcDbLine
 10
97.13914602513205
 20
2301.093087021901
 11
0.1072042736385939
 21
2295.705754494245
  0
LINE
  5
2C3
100
AcDbEntity
  8
laser
  6
ByBlock
 62
  256
370
   -1
100
AcDbLine
 10
0.1072042736385939
 20
2295.705754494245
 11
0.1534534896018798
 21
2293.204472014046
  0
LINE
  5
2C4
100
AcDbEntity
  8
laser
  6
ByBlock
 62
  256
370
   -1
100
AcDbLine
 10
0.1534534896018798
 20
2293.204472014046
 11
96.80279516268183
 21
2298.570562115648
  0
LINE
  5
2C5
100
AcDbEntity
  8
laser
  6
ByBlock
 62
  256
370
   -1
100
AcDbLine
 10
96.80279516268183
 20
2298.570562115648
 11
50
 21
2251.767766952967
  0
LINE
  5
2C6
100
AcDbEntity
  8
laser
  6
ByBlock
 62
  256
370
   -1
100
AcDbLine
 10
50
 20
2251.767766952967
 11
51.76776695296667
 21
2250
  0
LINE
  5
2C7
100
AcDbEntity
  8
laser
  6
ByBlock
 62
  256
370
   -1
100
AcDbLine
 10
48.23223304703379
 20
2350
 11
50
 21
2351.767766952967
  0
LINE
  5
2C8
100
AcDbEntity
  8
laser
  6
ByBlock
 62
  256
370
   -1
100
AcDbLine
 10
50
 20
2351.767766952967
 11
3.339973773015117
 21
2398.427793179952
  0
LINE
  5
2C9
100
AcDbEntity
  8
laser
  6
ByBlock
 62
  256
370
   -1
100
AcDbLine
 10
3.339973773015117
 20
2398.427793179952
 11
187.0440143656394
 21
2381.014086118677
  0
LINE
  5
2CA
100
AcDbEntity
  8
laser
  6
ByBlock
 62
  256
370
   -1
100
AcDbLine
 10
187.0440143656394
 20
2381.014086118677
 11
187.1229160532149
 21
2383.517813684338
  0
LINE
  5
2CB
100
AcDbEntity
  8
laser
  6
ByBlock
 62
  256
370
   -1
100
AcDbLine
 10
187.1229160532149
 20
2383.517813684338
 11
2.761592943335927
 21
2400.993825990369
  0
LINE
  5
2CC
100
AcDbEntity
  8
laser
  6
ByBlock
 62
  256
370
   -1
100
AcDbLine
 10
2.761592943335927
 20
2400.993825990369
 11
50
 21
2448.232233047033
  0
LINE
  5
2CD
100
AcDbEntity
  8
laser
  6
ByBlock
 62
  256
370
   -1
100
AcDbLine
 10
50
 20
2448.232233047033
 11
48.23223304703333
 21
2450
  0
LINE
  5
2CE
100
AcDbEntity
  8
laser
  6
ByBlock
 62
  256
370
   -1
100
AcDbLine
 10
48.23223304703333
 20
2450
 11
-0.5461655903191058
 21
2401.221601362648
  0
LINE
  5
2CF
100
AcDbEntity
  8
laser
  6
ByBlock
 62
  256
370
   -1
100
AcDbLine
 10
-104.7935857132832
 20
2395.433656617699
 11
-104.7011505078621
 21
2392.934938440334
  0
LINE
  5
2D0
100
AcDbEntity
  8
laser
  6
ByBlock
 62
  256
370
   -1
100
AcDbLine
 10
-0.4887081308534107
 20
2398.720941177887
 11
48.23223304703379
 21
2350
  0
LINE
  5
2D1
100
AcDbEntity
  8
laser
  6
ByBlock
 62
  256
370
   -1
100
AcDbLine
 10
48.23223304703379
 20
2350
 11
50
 21
2351.767766952967
  0
LINE
  5
2D2
100
AcDbEntity
  8
laser
  6
ByBlock
 62
  256
370
   -1
100
AcDbLine
 10
51.76776695296667
 20
2450
 11
100.4678180447481
 21
2498.700051091781
  0
LINE
  5
2D3
100
AcDbEntity
  8
laser
  6
ByBlock
 62
  256
370
   -1
100
AcDbLine
 10
100.4678180447481
 20
2498.700051091781
 11
190.4838326156355
 21
2490.167236552133
  0
LINE
  5
2D4
100
AcDbEntity
  8
laser
  6
ByBlock
 62
  256
370
   -1
100
AcDbLine
 10
190.562734303211
 20
2492.670964117794
 11
100.5657966369636
 21
2501.201970316003
  0
LINE
  5
2D5
100
AcDbEntity
  8
laser
  6
ByBlock
 62
  256
370
   -1
100
AcDbLine
 10
100.5657966369636
 20
2501.201970316003
 11
51.76776695296667
 21
2550
  0
LINE
  5
2D6
100
AcDbEntity
  8
laser
  6
ByBlock
 62
  256
370
   -1
100
AcDbLine
 10
51.76776695296667
 20
2550
 11
50
 21
2548.232233047033
  0
LINE
  5
2D7
100
AcDbEntity
  8
laser
  6
ByBlock
 62
  256
370
   -1
100
AcDbLine
 10
50
 20
2548.232233047033
 11
97.13914602513159
 21
2501.093087021902
  0
LINE
  5
2D8
100
AcDbEntity
  8
laser
  6
ByBlock
 62
  256
370
   -1
100
AcDbLine
 10
97.13914602513159
 20
2501.093087021902
 11
-3.587043428336706
 21
2495.500645326575
  0
LINE
  5
2D9
100
AcDbEntity
  8
laser
  6
ByBlock
 62
  256
370
   -1
100
AcDbLine
 10
-3.540794212373406
 20
2492.999362846375
 11
96.80279516268138
 21
2498.570562115648
  0
LINE
  5
2DA
100
AcDbEntity
  8
laser
  6
ByBlock
 62
  256
370
   -1
100
AcDbLine
 10
96.80279516268138
 20
2498.570562115648
 11
50
 21
2451.767766952967
  0
LINE
  5
2DB
100
AcDbEntity
  8
laser
  6
ByBlock
 62
  256
370
   -1
100
AcDbLine
 10
50
 20
2451.767766952967
 11
51.76776695296667
 21
2450
  0
LINE
  5
2DC
100
AcDbEntity
  8
laser
  6
ByBlock
 62
  256
370
   -1
100
AcDbLine
 10
50.00000000000045
 20
2551.767766952966
 11
3.339973773015117
 21
2598.427793179952
  0
LINE
  5
2DD
100
AcDbEntity
  8
laser
  6
ByBlock
 62
  256
370
   -1
100
AcDbLine
 10
3.339973773015117
 20
2598.427793179952
 11
193.3279800404736
 21
2580.418415293519
  0
LINE
  5
2DE
100
AcDbEntity
  8
laser
  6
ByBlock
 62
  256
370
   -1
100
AcDbLine
 10
193.3279800404736
 20
2580.418415293519
 11
193.406881728049
 21
2582.92214285918
  0
LINE
  5
2DF
100
AcDbEntity
  8
laser
  6
ByBlock
 62
  256
370
   -1
100
AcDbLine
 10
193.406881728049
 20
2582.92214285918
 11
2.761592943335472
 21
2600.993825990369
  0
LINE
  5
2E0
100
AcDbEntity
  8
laser
  6
ByBlock
 62
  256
370
   -1
100
AcDbLine
 10
2.761592943335472
 20
2600.993825990369
 11
49.99999999999955
 21
2648.232233047033
  0
LINE
  5
2E1
100
AcDbEntity
  8
laser
  6
ByBlock
 62
  256
370
   -1
100
AcDbLine
 10
49.99999999999955
 20
2648.232233047033
 11
48.23223304703333
 21
2650
  0
LINE
  5
2E2
100
AcDbEntity
  8
laser
  6
ByBlock
 62
  256
370
   -1
100
AcDbLine
 10
48.23223304703333
 20
2650
 11
-0.5461655903191058
 21
2601.221601362647
  0
LINE
  5
2E3
100
AcDbEntity
  8
laser
  6
ByBlock
 62
  256
370
   -1
100
AcDbLine
 10
-112.1770307749168
 20
2595.023718683563
 11
-112.0845955694957
 21
2592.525000506199
  0
LINE
  5
2E4
100
AcDbEntity
  8
laser
  6
ByBlock
 62
  256
370
   -1
100
AcDbLine
 10
-0.4887081308538654
 20
2598.720941177887
 11
48.23223304703333
 21
2550
  0
LINE
  5
2E5
100
AcDbEntity
  8
laser
  6
ByBlock
 62
  256
370
   -1
100
AcDbLine
 10
48.23223304703333
 20
2550
 11
50.00000000000045
 21
2551.767766952966
  0
LINE
  5
2E6
100
AcDbEntity
  8
laser
  6
ByBlock
 62
  256
370
   -1
100
AcDbLine
 10
50.00000000000045
 20
2651.767766952967
 11
51.76776695296667
 21
2650
  0
LINE
  5
2E7
100
AcDbEntity
  8
laser
  6
ByBlock
 62
  256
370
   -1
100
AcDbLine
 10
51.76776695296667
 20
2650
 11
100.4678180447477
 21
2698.700051091781
  0
LINE
  5
2E8
100
AcDbEntity
  8
laser
  6
ByBlock
 62
  256
370
   -1
100
AcDbLine
 10
100.4678180447477
 20
2698.700051091781
 11
196.7677982904696
 21
2689.571565726975
  0
LINE
  5
2E9
100
AcDbEntity
  8
laser
  6
ByBlock
 62
  256
370
   -1
100
AcDbLine
 10
196.7677982904696
 20
2689.571565726975
 11
196.846699978045
 21
2692.075293292635
  0
LINE
  5
2EA
100
AcDbEntity
  8
laser
  6
ByBlock
 62
  256
370
   -1
100
AcDbLine
 10
196.846699978045
 20
2692.075293292635
 11
100.5657966369631
 21
2701.201970316003
  0
LINE
  5
2EB
100
AcDbEntity
  8
laser
  6
ByBlock
 62
  256
370
   -1
100
AcDbLine
 10
100.5657966369631
 20
2701.201970316003
 11
51.76776695296667
 21
2750
  0
LINE
  5
2EC
100
AcDbEntity
  8
laser
  6
ByBlock
 62
  256
370
   -1
100
AcDbLine
 10
51.76776695296667
 20
2750
 11
50.00000000000045
 21
2748.232233047033
  0
LINE
  5
2ED
100
AcDbEntity
  8
laser
  6
ByBlock
 62
  256
370
   -1
100
AcDbLine
 10
50.00000000000045
 20
2748.232233047033
 11
97.1391460251325
 21
2701.093087021901
  0
LINE
  5
2EE
100
AcDbEntity
  8
laser
  6
ByBlock
 62
  256
370
   -1
100
AcDbLine
 10
97.1391460251325
 20
2701.093087021901
 11
-7.281291130311999
 21
2695.295536158905
  0
LINE
  5
2EF
100
AcDbEntity
  8
laser
  6
ByBlock
 62
  256
370
   -1
100
AcDbLine
 10
-7.281291130311999
 20
2695.295536158905
 11
-7.235041914348706
 21
2692.794253678705
  0
LINE
  5
2F0
100
AcDbEntity
  8
laser
  6
ByBlock
 62
  256
370
   -1
100
AcDbLine
 10
-7.235041914348706
 20
2692.794253678705
 11
96.80279516268183
 21
2698.570562115648
  0
LINE
  5
2F1
100
AcDbEntity
  8
laser
  6
ByBlock
 62
  256
370
   -1
100
AcDbLine
 10
96.80279516268183
 20
2698.570562115648
 11
50.00000000000045
 21
2651.767766952967
  0
LINE
  5
2F2
100
AcDbEntity
  8
laser
  6
ByBlock
 62
  256
370
   -1
100
AcDbLine
 10
48.23223304703333
 20
2750
 11
49.99999999999955
 21
2751.767766952967
  0
LINE
  5
2F3
100
AcDbEntity
  8
laser
  6
ByBlock
 62
  256
370
   -1
100
AcDbLine
 10
49.99999999999955
 20
2751.767766952967
 11
3.339973773014663
 21
2798.427793179952
  0
LINE
  5
2F4
100
AcDbEntity
  8
laser
  6
ByBlock
 62
  256
370
   -1
100
AcDbLine
 10
3.339973773014663
 20
2798.427793179952
 11
199.6119457153076
 21
2779.822744468362
  0
LINE
  5
2F5
100
AcDbEntity
  8
laser
  6
ByBlock
 62
  256
370
   -1
100
AcDbLine
 10
199.6119457153076
 20
2779.822744468362
 11
199.6908474028831
 21
2782.326472034022
  0
LINE
  5
2F6
100
AcDbEntity
  8
laser
  6
ByBlock
 62
  256
370
   -1
100
AcDbLine
 10
199.6908474028831
 20
2782.326472034022
 11
2.761592943335472
 21
2800.993825990369
  0
LINE
  5
2F7
100
AcDbEntity
  8
laser
  6
ByBlock
 62
  256
370
   -1
100
AcDbLine
 10
2.761592943335472
 20
2800.993825990369
 11
50
 21
2848.232233047034
  0
LINE
  5
2F8
100
AcDbEntity
  8
laser
  6
ByBlock
 62
  256
370
   -1
100
AcDbLine
 10
50
 20
2848.232233047034
 11
48.23223304703379
 21
2850
  0
LINE
  5
2F9
100
AcDbEntity
  8
laser
  6
ByBlock
 62
  256
370
   -1
100
AcDbLine
 10
48.23223304703379
 20
2850
 11
-0.5461655903186511
 21
2801.221601362648
  0
LINE
  5
2FA
100
AcDbEntity
  8
laser
  6
ByBlock
 62
  256
370
   -1
100
AcDbLine
 10
-119.5604758365505
 20
2794.613780749429
 11
-119.4680406311294
 21
2792.115062572065
  0
LINE
  5
2FB
100
AcDbEntity
  8
laser
  6
ByBlock
 62
  256
370
   -1
100
AcDbLine
 10
-0.4887081308534107
 20
2798.720941177887
 11
48.23223304703333
 21
2750
  0
LINE
  5
2FC
100
AcDbEntity
  8
laser
  6
ByBlock
 62
  256
370
   -1
100
AcDbLine
 10
50
 20
2851.767766952966
 11
51.76776695296621
 21
2850
  0
LINE
  5
2FD
100
AcDbEntity
  8
laser
  6
ByBlock
 62
  256
370
   -1
100
AcDbLine
 10
51.76776695296621
 20
2850
 11
100.4678180447472
 21
2898.700051091781
  0
LINE
  5
2FE
100
AcDbEntity
  8
laser
  6
ByBlock
 62
  256
370
   -1
100
AcDbLine
 10
100.4678180447472
 20
2898.700051091781
 11
203.0517639653036
 21
2888.975894901817
  0
LINE
  5
2FF
100
AcDbEntity
  8
laser
  6
ByBlock
 62
  256
370
   -1
100
AcDbLine
 10
203.0517639653036
 20
2888.975894901817
 11
203.1306656528791
 21
2891.479622467478
  0
LINE
  5
300
100
AcDbEntity
  8
laser
  6
ByBlock
 62
  256
370
   -1
100
AcDbLine
 10
203.1306656528791
 20
2891.479622467478
 11
100.5657966369631
 21
2901.201970316003
  0
LINE
  5
301
100
AcDbEntity
  8
laser
  6
ByBlock
 62
  256
370
   -1
100
AcDbLine
 10
100.5657966369631
 20
2901.201970316003
 11
51.76776695296621
 21
2950
  0
LINE
  5
302
100
AcDbEntity
  8
laser
  6
ByBlock
 62
  256
370
   -1
100
AcDbLine
 10
51.76776695296621
 20
2950
 11
50
 21
2948.232233047034
  0
LINE
  5
303
100
AcDbEntity
  8
laser
  6
ByBlock
 62
  256
370
   -1
100
AcDbLine
 10
50
 20
2948.232233047034
 11
97.13914602513205
 21
2901.093087021902
  0
LINE
  5
304
100
AcDbEntity
  8
laser
  6
ByBlock
 62
  256
370
   -1
100
AcDbLine
 10
97.13914602513205
 20
2901.093087021902
 11
-10.97553883228729
 21
2895.090426991234
  0
LINE
  5
305
100
AcDbEntity
  8
laser
  6
ByBlock
 62
  256
370
   -1
100
AcDbLine
 10
-10.97553883228729
 20
2895.090426991234
 11
-10.92928961632398
 21
2892.589144511035
  0
LINE
  5
306
100
AcDbEntity
  8
laser
  6
ByBlock
 62
  256
370
   -1
100
AcDbLine
 10
-10.92928961632398
 20
2892.589144511035
 11
96.80279516268138
 21
2898.570562115648
  0
LINE
  5
307
100
AcDbEntity
  8
laser
  6
ByBlock
 62
  256
370
   -1
100
AcDbLine
 10
96.80279516268138
 20
2898.570562115648
 11
-0.5461655903181963
 21
2801.221601362648
  0
LINE
  5
308
100
AcDbEntity
  8
laser
  6
ByBlock
 62
  256
370
   -1
100
AcDbLine
 10
-16.61946496908533
 20
3200.329192048694
 11
-16.57321575312202
 21
3197.827909568494
  0
LINE
  5
309
100
AcDbEntity
  8
laser
  6
ByBlock
 62
  256
370
   -1
100
AcDbLine
 10
-16.57321575312202
 20
3197.827909568494
 11
-0.4887081308525012
 21
3198.720941177886
  0
LINE
  5
30A
100
AcDbEntity
  8
laser
  6
ByBlock
 62
  256
370
   -1
100
AcDbLine
 10
-0.4887081308525012
 20
3198.720941177886
 11
48.23223304703333
 21
3150
  0
LINE
  5
30B
100
AcDbEntity
  8
laser
  6
ByBlock
 62
  256
370
   -1
100
AcDbLine
 10
48.23223304703333
 20
3150
 11
49.99999999999955
 21
3151.767766952967
  0
LINE
  5
30C
100
AcDbEntity
  8
laser
  6
ByBlock
 62
  256
370
   -1
100
AcDbLine
 10
49.99999999999955
 20
3151.767766952967
 11
3.339973773014208
 21
3198.427793179952
  0
LINE
  5
30D
100
AcDbEntity
  8
laser
  6
ByBlock
 62
  256
370
   -1
100
AcDbLine
 10
3.339973773014208
 20
3198.427793179952
 11
212.1798770649758
 21
3178.631402818045
  0
LINE
  5
30E
100
AcDbEntity
  8
laser
  6
ByBlock
 62
  256
370
   -1
100
AcDbLine
 10
212.1798770649758
 20
3178.631402818045
 11
212.2587787525512
 21
3181.135130383706
  0
LINE
  5
30F
100
AcDbEntity
  8
laser
  6
ByBlock
 62
  256
370
   -1
100
AcDbLine
 10
212.2587787525512
 20
3181.135130383706
 11
2.761592943335927
 21
3200.99382599037
  0
LINE
  5
310
100
AcDbEntity
  8
laser
  6
ByBlock
 62
  256
370
   -1
100
AcDbLine
 10
2.761592943335927
 20
3200.99382599037
 11
49.99999999999955
 21
3248.232233047033
  0
LINE
  5
311
100
AcDbEntity
  8
laser
  6
ByBlock
 62
  256
370
   -1
100
AcDbLine
 10
49.99999999999955
 20
3248.232233047033
 11
48.23223304703333
 21
3250
  0
LINE
  5
312
100
AcDbEntity
  8
laser
  6
ByBlock
 62
  256
370
   -1
100
AcDbLine
 10
48.23223304703333
 20
3250
 11
-0.5461655903191058
 21
3201.221601362647
  0
LINE
  5
313
100
AcDbEntity
  8
laser
  6
ByBlock
 62
  256
370
   -1
100
AcDbLine
 10
-0.5461655903191058
 20
3201.221601362647
 11
-16.61946496908533
 21
3200.329192048694
  0
LINE
  5
314
100
AcDbEntity
  8
laser
  6
ByBlock
 62
  256
370
   -1
100
AcDbLine
 10
-16.61946496908533
 20
3200.329192048694
 11
-16.57321575312202
 21
3197.827909568494
  0
LINE
  5
315
100
AcDbEntity
  8
laser
  6
ByBlock
 62
  256
370
   -1
100
AcDbLine
 10
-14.66978653426257
 20
3094.885317823564
 11
-14.62353731829928
 21
3092.384035343364
  0
LINE
  5
316
100
AcDbEntity
  8
laser
  6
ByBlock
 62
  256
370
   -1
100
AcDbLine
 10
-14.62353731829928
 20
3092.384035343364
 11
96.80279516268183
 21
3098.570562115648
  0
LINE
  5
317
100
AcDbEntity
  8
laser
  6
ByBlock
 62
  256
370
   -1
100
AcDbLine
 10
96.80279516268138
 20
3098.570562115648
 11
50
 21
3051.767766952966
  0
LINE
  5
318
100
AcDbEntity
  8
laser
  6
ByBlock
 62
  256
370
   -1
100
AcDbLine
 10
50
 20
3051.767766952966
 11
51.76776695296621
 21
3050
  0
LINE
  5
319
100
AcDbEntity
  8
laser
  6
ByBlock
 62
  256
370
   -1
100
AcDbLine
 10
51.76776695296621
 20
3050
 11
100.4678180447481
 21
3098.700051091782
  0
LINE
  5
31A
100
AcDbEntity
  8
laser
  6
ByBlock
 62
  256
370
   -1
100
AcDbLine
 10
209.4146313277132
 20
3090.88395164232
 11
100.5657966369627
 21
3101.201970316004
  0
LINE
  5
31B
100
AcDbEntity
  8
laser
  6
ByBlock
 62
  256
370
   -1
100
AcDbLine
 10
100.5657966369627
 20
3101.201970316004
 11
51.76776695296621
 21
3150
  0
LINE
  5
31C
100
AcDbEntity
  8
laser
  6
ByBlock
 62
  256
370
   -1
100
AcDbLine
 10
51.76776695296621
 20
3150
 11
50
 21
3148.232233047034
  0
LINE
  5
31D
100
AcDbEntity
  8
laser
  6
ByBlock
 62
  256
370
   -1
100
AcDbLine
 10
48.23223304703333
 20
3050
 11
49.99999999999955
 21
3048.232233047033
  0
LINE
  5
31E
100
AcDbEntity
  8
laser
  6
ByBlock
 62
  256
370
   -1
100
AcDbLine
 10
49.99999999999955
 20
3048.232233047033
 11
2.761592943335927
 21
3000.99382599037
  0
LINE
  5
31F
100
AcDbEntity
  8
laser
  6
ByBlock
 62
  256
370
   -1
100
AcDbLine
 10
2.761592943335927
 20
3000.99382599037
 11
205.9748130777172
 21
2981.730801208864
  0
LINE
  5
320
100
AcDbEntity
  8
laser
  6
ByBlock
 62
  256
370
   -1
100
AcDbLine
 10
205.8959113901417
 20
2979.227073643203
 11
3.339973773014208
 21
2998.427793179952
  0
LINE
  5
321
100
AcDbEntity
  8
laser
  6
ByBlock
 62
  256
370
   -1
100
AcDbLine
 10
3.339973773014208
 20
2998.427793179952
 11
50
 21
2951.767766952966
  0
LINE
  5
322
100
AcDbEntity
  8
laser
  6
ByBlock
 62
  256
370
   -1
100
AcDbLine
 10
50
 20
2951.767766952966
 11
48.23223304703379
 21
2950
  0
LINE
  5
323
100
AcDbEntity
  8
laser
  6
ByBlock
 62
  256
370
   -1
100
AcDbLine
 10
48.23223304703379
 20
2950
 11
-0.4887081308534107
 21
2998.720941177887
  0
LINE
  5
324
100
AcDbEntity
  8
laser
  6
ByBlock
 62
  256
370
   -1
100
AcDbLine
 10
-0.4887081308534107
 20
2998.720941177887
 11
-12.87896805114674
 21
2998.033018736165
  0
LINE
  5
325
100
AcDbEntity
  8
laser
  6
ByBlock
 62
  256
370
   -1
100
AcDbLine
 10
-12.92521726711004
 20
3000.534301216364
 11
-0.5461655903186511
 21
3001.221601362648
  0
LINE
  5
326
100
AcDbEntity
  8
laser
  6
ByBlock
 62
  256
370
   -1
100
AcDbLine
 10
-0.5461655903186511
 20
3001.221601362648
 11
48.23223304703333
 21
3050
  0
LINE
  5
327
100
AcDbEntity
  8
laser
  6
ByBlock
 62
  256
370
   -1
100
AcDbLine
 10
48.23223304703333
 20
3050
 11
49.99999999999955
 21
3048.232233047033
  0
LINE
  5
328
100
AcDbEntity
  8
laser
  6
ByBlock
 62
  256
370
   -1
100
AcDbLine
 10
-18.36403423623788
 20
3294.680208655895
 11
-18.31778502027458
 21
3292.178926175695
  0
LINE
  5
329
100
AcDbEntity
  8
laser
  6
ByBlock
 62
  256
370
   -1
100
AcDbLine
 10
-18.31778502027458
 20
3292.178926175695
 11
96.80279516268183
 21
3298.570562115648
  0
LINE
  5
32A
100
AcDbEntity
  8
laser
  6
ByBlock
 62
  256
370
   -1
100
AcDbLine
 10
96.80279516268183
 20
3298.570562115648
 11
50
 21
3251.767766952966
  0
LINE
  5
32B
100
AcDbEntity
  8
laser
  6
ByBlock
 62
  256
370
   -1
100
AcDbLine
 10
50
 20
3251.767766952966
 11
51.76776695296621
 21
3250
  0
LINE
  5
32C
100
AcDbEntity
  8
laser
  6
ByBlock
 62
  256
370
   -1
100
AcDbLine
 10
51.76776695296621
 20
3250
 11
100.4678180447477
 21
3298.700051091781
  0
LINE
  5
32D
100
AcDbEntity
  8
laser
  6
ByBlock
 62
  256
370
   -1
100
AcDbLine
 10
100.4678180447477
 20
3298.700051091781
 11
215.6196953149718
 21
3287.784553251501
  0
LINE
  5
32E
100
AcDbEntity
  8
laser
  6
ByBlock
 62
  256
370
   -1
100
AcDbLine
 10
215.6196953149718
 20
3287.784553251501
 11
215.6985970025473
 21
3290.288280817162
  0
LINE
  5
32F
100
AcDbEntity
  8
laser
  6
ByBlock
 62
  256
370
   -1
100
AcDbLine
 10
215.6985970025473
 20
3290.288280817162
 11
100.5657966369627
 21
3301.201970316004
  0
LINE
  5
330
100
AcDbEntity
  8
laser
  6
ByBlock
 62
  256
370
   -1
100
AcDbLine
 10
100.5657966369627
 20
3301.201970316004
 11
51.76776695296621
 21
3350
  0
LINE
  5
331
100
AcDbEntity
  8
laser
  6
ByBlock
 62
  256
370
   -1
100
AcDbLine
 10
51.76776695296621
 20
3350
 11
50
 21
3348.232233047034
  0
LINE
  5
332
100
AcDbEntity
  8
laser
  6
ByBlock
 62
  256
370
   -1
100
AcDbLine
 10
50
 20
3348.232233047034
 11
97.1391460251325
 21
3301.093087021901
  0
LINE
  5
333
100
AcDbEntity
  8
laser
  6
ByBlock
 62
  256
370
   -1
100
AcDbLine
 10
97.1391460251325
 20
3301.093087021901
 11
-18.36403423623788
 21
3294.680208655895
  0
LINE
  5
334
100
AcDbEntity
  8
laser
  6
ByBlock
 62
  256
370
   -1
100
AcDbLine
 10
-20.31371267106061
 20
3400.124082881024
 11
-20.26746345509731
 21
3397.622800400824
  0
LINE
  5
335
100
AcDbEntity
  8
laser
  6
ByBlock
 62
  256
370
   -1
100
AcDbLine
 10
-20.26746345509731
 20
3397.622800400824
 11
-0.4887081308529559
 21
3398.720941177887
  0
LINE
  5
336
100
AcDbEntity
  8
laser
  6
ByBlock
 62
  256
370
   -1
100
AcDbLine
 10
-0.4887081308529559
 20
3398.720941177887
 11
48.23223304703333
 21
3350
  0
LINE
  5
337
100
AcDbEntity
  8
laser
  6
ByBlock
 62
  256
370
   -1
100
AcDbLine
 10
48.23223304703333
 20
3350
 11
49.99999999999955
 21
3351.767766952967
  0
LINE
  5
338
100
AcDbEntity
  8
laser
  6
ByBlock
 62
  256
370
   -1
100
AcDbLine
 10
49.99999999999955
 20
3351.767766952967
 11
3.339973773014208
 21
3398.427793179952
  0
LINE
  5
339
100
AcDbEntity
  8
laser
  6
ByBlock
 62
  256
370
   -1
100
AcDbLine
 10
3.339973773014208
 20
3398.427793179952
 11
218.4638427398099
 21
3378.035731992888
  0
LINE
  5
33A
100
AcDbEntity
  8
laser
  6
ByBlock
 62
  256
370
   -1
100
AcDbLine
 10
218.4638427398099
 20
3378.035731992888
 11
218.5427444273853
 21
3380.539459558549
  0
LINE
  5
33B
100
AcDbEntity
  8
laser
  6
ByBlock
 62
  256
370
   -1
100
AcDbLine
 10
218.5427444273853
 20
3380.539459558549
 11
2.761592943335927
 21
3400.99382599037
  0
LINE
  5
33C
100
AcDbEntity
  8
laser
  6
ByBlock
 62
  256
370
   -1
100
AcDbLine
 10
2.761592943335927
 20
3400.99382599037
 11
50
 21
3448.232233047034
  0
LINE
  5
33D
100
AcDbEntity
  8
laser
  6
ByBlock
 62
  256
370
   -1
100
AcDbLine
 10
50
 20
3448.232233047034
 11
48.23223304703379
 21
3450
  0
LINE
  5
33E
100
AcDbEntity
  8
laser
  6
ByBlock
 62
  256
370
   -1
100
AcDbLine
 10
48.23223304703379
 20
3450
 11
-0.5461655903195606
 21
3401.221601362647
  0
LINE
  5
33F
100
AcDbEntity
  8
laser
  6
ByBlock
 62
  256
370
   -1
100
AcDbLine
 10
-0.5461655903195606
 20
3401.221601362647
 11
-20.31371267106061
 21
3400.124082881024
  0
LINE
  5
340
100
AcDbEntity
  8
laser
  6
ByBlock
 62
  256
370
   -1
100
AcDbLine
 10
-20.31371267106061
 20
3400.124082881024
 11
-20.26746345509731
 21
3397.622800400824
  0
LINE
  5
341
100
AcDbEntity
  8
laser
  6
ByBlock
 62
  256
370
   -1
100
AcDbLine
 10
-22.05828193821318
 20
3494.475099488225
 11
-22.01203272224988
 21
3491.973817008025
  0
LINE
  5
342
100
AcDbEntity
  8
laser
  6
ByBlock
 62
  256
370
   -1
100
AcDbLine
 10
-22.01203272224988
 20
3491.973817008025
 11
96.80279516268229
 21
3498.570562115648
  0
LINE
  5
343
100
AcDbEntity
  8
laser
  6
ByBlock
 62
  256
370
   -1
100
AcDbLine
 10
96.80279516268229
 20
3498.570562115648
 11
50
 21
3451.767766952966
  0
LINE
  5
344
100
AcDbEntity
  8
laser
  6
ByBlock
 62
  256
370
   -1
100
AcDbLine
 10
50
 20
3451.767766952966
 11
51.76776695296621
 21
3450
  0
LINE
  5
345
100
AcDbEntity
  8
laser
  6
ByBlock
 62
  256
370
   -1
100
AcDbLine
 10
51.76776695296621
 20
3450
 11
100.4678180447472
 21
3498.700051091781
  0
LINE
  5
346
100
AcDbEntity
  8
laser
  6
ByBlock
 62
  256
370
   -1
100
AcDbLine
 10
100.4678180447472
 20
3498.700051091781
 11
221.9036609898059
 21
3487.188882426343
  0
LINE
  5
347
100
AcDbEntity
  8
laser
  6
ByBlock
 62
  256
370
   -1
100
AcDbLine
 10
221.9036609898059
 20
3487.188882426343
 11
221.9825626773813
 21
3489.692609992003
  0
LINE
  5
348
100
AcDbEntity
  8
laser
  6
ByBlock
 62
  256
370
   -1
100
AcDbLine
 10
101.3623830315325
 20
3501.126460152594
 11
105.8449177314309
 21
3548.41448065107
  0
LINE
  5
349
100
AcDbEntity
  8
laser
  6
ByBlock
 62
  256
370
   -1
100
AcDbLine
 10
105.8449177314309
 20
3548.41448065107
 11
103.3560745473006
 21
3548.650403530012
  0
LINE
  5
34A
100
AcDbEntity
  8
laser
  6
ByBlock
 62
  256
370
   -1
100
AcDbLine
 10
103.3560745473006
 20
3548.650403530012
 11
99.01265669495223
 21
3502.829981338979
  0
LINE
  5
34B
100
AcDbEntity
  8
laser
  6
ByBlock
 62
  256
370
   -1
100
AcDbLine
 10
99.01265669495223
 20
3502.829981338979
 11
88.05207812172603
 21
3514.227099101233
  0
LINE
  5
34C
100
AcDbEntity
  8
laser
  6
ByBlock
 62
  256
370
   -1
100
AcDbLine
 10
86.25013855854604
 20
3512.494178499865
 11
97.21071713177662
 21
3501.097060737607
  0
LINE
  5
34D
100
AcDbEntity
  8
laser
  6
ByBlock
 62
  256
370
   -1
100
AcDbLine
 10
97.21071713177662
 20
3501.097060737607
 11
-22.05828193821318
 21
3494.475099488225
  0
LINE
  5
34E
100
AcDbEntity
  8
laser
  6
ByBlock
 62
  256
370
   -1
100
AcDbLine
 10
-22.05828193821318
 20
3494.475099488225
 11
-22.01203272224666
 21
3491.973817008025
  0
LINE
  5
34F
100
AcDbEntity
  8
laser
  6
ByBlock
 62
  256
370
   -1
100
AcDbLine
 10
-97.31770544622847
 20
2193.34487637447
 11
-0.4887081308534107
 21
2198.720941177887
  0
LINE
  5
350
100
AcDbEntity
  8
laser
  6
ByBlock
 62
  256
370
   -1
100
AcDbLine
 10
-0.5461655903195606
 20
2201.221601362647
 11
-97.41014065164961
 21
2195.843594551834
  0
LINE
  5
351
100
AcDbEntity
  8
laser
  6
ByBlock
 62
  256
370
   -1
100
AcDbLine
 10
-0.4887081308534107
 20
2398.720941177887
 11
-104.7011505078621
 21
2392.934938440334
  0
LINE
  5
352
100
AcDbEntity
  8
laser
  6
ByBlock
 62
  256
370
   -1
100
AcDbLine
 10
-104.7935857132832
 20
2395.433656617699
 11
-0.5461655903191058
 21
2401.221601362648
  0
LINE
  5
353
100
AcDbEntity
  8
laser
  6
ByBlock
 62
  256
370
   -1
100
AcDbLine
 10
-0.5461655903191058
 20
2601.221601362647
 11
-5.536721863159443
 21
2600.944519551704
  0
LINE
  5
354
100
AcDbEntity
  8
laser
  6
ByBlock
 62
  256
370
   -1
100
AcDbLine
 10
-5.536721863159443
 20
2600.944519551704
 11
-5.490472647196157
 21
2598.443237071505
  0
LINE
  5
355
100
AcDbEntity
  8
laser
  6
ByBlock
 62
  256
370
   -1
100
AcDbLine
 10
-5.490472647196157
 20
2598.443237071505
 11
-0.4887081308538654
 21
2598.720941177887
  0
LINE
  5
356
100
AcDbEntity
  8
laser
  6
ByBlock
 62
  256
370
   -1
100
AcDbLine
 10
-0.5461655903181963
 20
2801.221601362648
 11
-9.230969565134743
 21
2800.739410384034
  0
LINE
  5
357
100
AcDbEntity
  8
laser
  6
ByBlock
 62
  256
370
   -1
100
AcDbLine
 10
-9.230969565134743
 20
2800.739410384034
 11
-9.184720349171442
 21
2798.238127903835
  0
LINE
  5
358
100
AcDbEntity
  8
laser
  6
ByBlock
 62
  256
370
   -1
100
AcDbLine
 10
-9.184720349171442
 20
2798.238127903835
 11
-0.4887081308534107
 21
2798.720941177887
  0
LINE
  5
359
100
AcDbEntity
  8
laser
  6
ByBlock
 62
  256
370
   -1
100
AcDbLine
 10
50.00000000000007
 20
3148.232233047033
 11
97.1391460251325
 21
3101.093087021901
  0
LINE
  5
35A
100
AcDbEntity
  8
laser
  6
ByBlock
 62
  256
370
   -1
100
AcDbLine
 10
97.1391460251325
 20
3101.093087021901
 11
-14.66978653425758
 21
3094.885317823564
  0
LINE
  5
35B
100
AcDbEntity
  8
laser
  6
ByBlock
 62
  256
370
   -1
100
AcDbLine
 10
-93.51344915376532
 20
2090.507820882222
 11
-93.4210139483442
 21
2088.009102704858
  0
LINE
  5
35C
100
AcDbEntity
  8
laser
  6
ByBlock
 62
  256
370
   -1
100
AcDbLine
 10
-93.4210139483442
 20
2088.009102704858
 11
1.349838171514236
 21
2093.270896760332
  0
LINE
  5
35D
100
AcDbEntity
  8
laser
  6
ByBlock
 62
  256
370
   -1
100
AcDbLine
 10
1.349838171514236
 20
2093.270896760332
 11
1.303588955550943
 21
2095.772179240531
  0
LINE
  5
35E
100
AcDbEntity
  8
laser
  6
ByBlock
 62
  256
370
   -1
100
AcDbLine
 10
1.303588955550943
 20
2095.772179240531
 11
-93.51344915376532
 21
2090.507820882222
  0
LINE
  5
35F
100
AcDbEntity
  8
laser
  6
ByBlock
 62
  256
370
   -1
100
AcDbLine
 10
-100.896894215399
 20
2290.097882948088
 11
-100.8044590099779
 21
2287.599164770724
  0
LINE
  5
360
100
AcDbEntity
  8
laser
  6
ByBlock
 62
  256
370
   -1
100
AcDbLine
 10
-2.390658746424343
 20
2295.567070072861
 11
-100.8968942153952
 21
2290.097882948088
  0
LINE
  5
361
100
AcDbEntity
  8
laser
  6
ByBlock
 62
  256
370
   -1
100
AcDbLine
 10
-108.1879040716115
 20
2487.189226836589
 11
-6.038657232436343
 21
2492.860678424991
  0
LINE
  5
362
100
AcDbEntity
  8
laser
  6
ByBlock
 62
  256
370
   -1
100
AcDbLine
 10
-6.084906448399636
 20
2495.36196090519
 11
-108.2803392770293
 21
2489.687945013953
  0
LINE
  5
363
100
AcDbEntity
  8
laser
  6
ByBlock
 62
  256
370
   -1
100
AcDbLine
 10
-112.1770307749168
 20
2595.023718683563
 11
-112.0845955694957
 21
2592.525000506199
  0
LINE
  5
364
100
AcDbEntity
  8
laser
  6
ByBlock
 62
  256
370
   -1
100
AcDbLine
 10
-112.0845955694957
 20
2592.525000506199
 11
-7.988335667259086
 21
2598.304552650121
  0
LINE
  5
365
100
AcDbEntity
  8
laser
  6
ByBlock
 62
  256
370
   -1
100
AcDbLine
 10
-7.988335667259086
 20
2598.304552650121
 11
-8.034584883222372
 21
2600.80583513032
  0
LINE
  5
366
100
AcDbEntity
  8
laser
  6
ByBlock
 62
  256
370
   -1
100
AcDbLine
 10
-8.034584883222372
 20
2600.80583513032
 11
-112.1770307749168
 21
2595.023718683563
  0
LINE
  5
367
100
AcDbEntity
  8
laser
  6
ByBlock
 62
  256
370
   -1
100
AcDbLine
 10
-115.6637843386662
 20
2689.278007079818
 11
-115.5713491332451
 21
2686.779288902454
  0
LINE
  5
368
100
AcDbEntity
  8
laser
  6
ByBlock
 62
  256
370
   -1
100
AcDbLine
 10
-115.5713491332451
 20
2686.779288902454
 11
-9.732904934411629
 21
2692.655569257321
  0
LINE
  5
369
100
AcDbEntity
  8
laser
  6
ByBlock
 62
  256
370
   -1
100
AcDbLine
 10
-9.732904934411629
 20
2692.655569257321
 11
-9.779154150374922
 21
2695.15685173752
  0
LINE
  5
36A
100
AcDbEntity
  8
laser
  6
ByBlock
 62
  256
370
   -1
100
AcDbLine
 10
-9.779154150374922
 20
2695.15685173752
 11
-115.6637843386662
 21
2689.278007079818
  0
LINE
  5
36B
100
AcDbEntity
  8
laser
  6
ByBlock
 62
  256
370
   -1
100
AcDbLine
 10
-119.5604758365505
 20
2794.613780749429
 11
-119.4680406311294
 21
2792.115062572065
  0
LINE
  5
36C
100
AcDbEntity
  8
laser
  6
ByBlock
 62
  256
370
   -1
100
AcDbLine
 10
-119.4680406311294
 20
2792.115062572065
 11
-11.68258336923438
 21
2798.099443482451
  0
LINE
  5
36D
100
AcDbEntity
  8
laser
  6
ByBlock
 62
  256
370
   -1
100
AcDbLine
 10
-11.68258336923438
 20
2798.099443482451
 11
-11.72883258519768
 21
2800.60072596265
  0
LINE
  5
36E
100
AcDbEntity
  8
laser
  6
ByBlock
 62
  256
370
   -1
100
AcDbLine
 10
-11.72883258519768
 20
2800.60072596265
 11
-119.5604758365505
 21
2794.613780749429
  0
LINE
  5
36F
100
AcDbEntity
  8
laser
  6
ByBlock
 62
  256
370
   -1
100
AcDbLine
 10
-123.0472294002999
 20
2888.868069145683
 11
-122.9547941948787
 21
2886.369350968318
  0
LINE
  5
370
100
AcDbEntity
  8
laser
  6
ByBlock
 62
  256
370
   -1
100
AcDbLine
 10
-122.9547941948787
 20
2886.369350968318
 11
-13.42715263638691
 21
2892.45046008965
  0
LINE
  5
371
100
AcDbEntity
  8
laser
  6
ByBlock
 62
  256
370
   -1
100
AcDbLine
 10
-13.42715263638691
 20
2892.45046008965
 11
-13.47340185235021
 21
2894.95174256985
  0
LINE
  5
372
100
AcDbEntity
  8
laser
  6
ByBlock
 62
  256
370
   -1
100
AcDbLine
 10
-13.47340185235021
 20
2894.95174256985
 11
-123.0472294002975
 21
2888.868069145683
  0
LINE
  5
373
100
AcDbEntity
  8
laser
  6
ByBlock
 62
  256
370
   -1
100
AcDbLine
 10
-126.851485692763
 20
2991.70512463793
 11
-15.37683107120967
 21
2997.894334314781
  0
LINE
  5
374
100
AcDbEntity
  8
laser
  6
ByBlock
 62
  256
370
   -1
100
AcDbLine
 10
-15.42308028717298
 20
3000.39561679498
 11
-126.9439208981841
 21
2994.203842815295
  0
LINE
  5
375
100
AcDbEntity
  8
laser
  6
ByBlock
 62
  256
370
   -1
100
AcDbLine
 10
-130.4306744619335
 20
3088.458131211548
 11
-130.3382392565123
 21
3085.959413034183
  0
LINE
  5
376
100
AcDbEntity
  8
laser
  6
ByBlock
 62
  256
370
   -1
100
AcDbLine
 10
-130.3382392565123
 20
3085.959413034183
 11
-17.12140033836221
 21
3092.24535092198
  0
LINE
  5
377
100
AcDbEntity
  8
laser
  6
ByBlock
 62
  256
370
   -1
100
AcDbLine
 10
-17.12140033836221
 20
3092.24535092198
 11
-17.16764955432551
 21
3094.74663340218
  0
LINE
  5
378
100
AcDbEntity
  8
laser
  6
ByBlock
 62
  256
370
   -1
100
AcDbLine
 10
-17.16764955432551
 20
3094.74663340218
 11
-130.4306744619335
 21
3088.458131211548
  0
LINE
  5
379
100
AcDbEntity
  8
laser
  6
ByBlock
 62
  256
370
   -1
100
AcDbLine
 10
-134.3273659598177
 20
3193.793904881159
 11
-134.2349307543966
 21
3191.295186703795
  0
LINE
  5
37A
100
AcDbEntity
  8
laser
  6
ByBlock
 62
  256
370
   -1
100
AcDbLine
 10
-134.2349307543966
 20
3191.295186703795
 11
-19.07107877318496
 21
3197.68922514711
  0
LINE
  5
37B
100
AcDbEntity
  8
laser
  6
ByBlock
 62
  256
370
   -1
100
AcDbLine
 10
-19.07107877318496
 20
3197.68922514711
 11
-19.11732798914826
 21
3200.19050762731
  0
LINE
  5
37C
100
AcDbEntity
  8
laser
  6
ByBlock
 62
  256
370
   -1
100
AcDbLine
 10
-19.11732798914826
 20
3200.19050762731
 11
-134.3273659598177
 21
3193.793904881159
  0
LINE
  5
37D
100
AcDbEntity
  8
laser
  6
ByBlock
 62
  256
370
   -1
100
AcDbLine
 10
-137.8141195235671
 20
3288.048193277413
 11
-137.7216843181459
 21
3285.549475100048
  0
LINE
  5
37E
100
AcDbEntity
  8
laser
  6
ByBlock
 62
  256
370
   -1
100
AcDbLine
 10
-137.7216843181459
 20
3285.549475100048
 11
-20.81564804033751
 21
3292.04024175431
  0
LINE
  5
37F
100
AcDbEntity
  8
laser
  6
ByBlock
 62
  256
370
   -1
100
AcDbLine
 10
-20.81564804033751
 20
3292.04024175431
 11
-20.86189725630081
 21
3294.54152423451
  0
LINE
  5
380
100
AcDbEntity
  8
laser
  6
ByBlock
 62
  256
370
   -1
100
AcDbLine
 10
-20.86189725630081
 20
3294.54152423451
 11
-137.8141195235671
 21
3288.048193277413
  0
LINE
  5
381
100
AcDbEntity
  8
laser
  6
ByBlock
 62
  256
370
   -1
100
AcDbLine
 10
-141.7108110214514
 20
3393.383966947024
 11
-141.6183758160302
 21
3390.88524876966
  0
LINE
  5
382
100
AcDbEntity
  8
laser
  6
ByBlock
 62
  256
370
   -1
100
AcDbLine
 10
-141.6183758160302
 20
3390.88524876966
 11
-22.76532647516024
 21
3397.48411597944
  0
LINE
  5
383
100
AcDbEntity
  8
laser
  6
ByBlock
 62
  256
370
   -1
100
AcDbLine
 10
-22.76532647516024
 20
3397.48411597944
 11
-22.81157569112354
 21
3399.985398459639
  0
LINE
  5
384
100
AcDbEntity
  8
laser
  6
ByBlock
 62
  256
370
   -1
100
AcDbLine
 10
-22.81157569112354
 20
3399.985398459639
 11
-141.7108110214467
 21
3393.383966947024
  0
LINE
  5
385
100
AcDbEntity
  8
laser
  6
ByBlock
 62
  256
370
   -1
100
AcDbLine
 10
-145.1975645852008
 20
3487.638255343279
 11
-145.1051293797796
 21
3485.139537165915
  0
LINE
  5
386
100
AcDbEntity
  8
laser
  6
ByBlock
 62
  256
370
   -1
100
AcDbLine
 10
-145.1051293797796
 20
3485.139537165915
 11
-24.50989574231281
 21
3491.835132586641
  0
LINE
  5
387
100
AcDbEntity
  8
laser
  6
ByBlock
 62
  256
370
   -1
100
AcDbLine
 10
-24.50989574231281
 20
3491.835132586641
 11
-24.55614495827611
 21
3494.33641506684
  0
LINE
  5
388
100
AcDbEntity
  8
laser
  6
ByBlock
 62
  256
370
   -1
100
AcDbLine
 10
-24.55614495827611
 20
3494.33641506684
 11
-145.1975645852008
 21
3487.638255343279
  0
LINE
  5
389
100
AcDbEntity
  8
laser
  6
ByBlock
 62
  256
370
   -1
100
AcDbLine
 10
-145.1975645851926
 20
3487.63825534328
 11
-145.1051293797796
 21
3485.139537165915
  0
LINE
  5
38A
100
AcDbEntity
  8
laser
  6
ByBlock
 62
  256
370
   -1
100
AcDbLine
 10
-2.390658746424343
 20
2295.567070072861
 11
-2.34440953046105
 21
2293.065787592661
  0
LINE
  5
38B
100
AcDbEntity
  8
laser
  6
ByBlock
 62
  256
370
   -1
100
AcDbLine
 10
-2.34440953046105
 20
2293.065787592661
 11
-100.8044590099744
 21
2287.599164770724
  0
LINE
  5
38C
100
AcDbEntity
  8
laser
  6
ByBlock
 62
  256
370
   -1
100
AcDbLine
 10
37.16052801994108
 20
1871.862982876613
 11
7.974105080840047
 21
1870.242516844217
  0
LINE
  5
38D
100
AcDbEntity
  8
laser
  6
ByBlock
 62
  256
370
   -1
100
AcDbLine
 10
7.974105080840047
 20
1870.242516844217
 11
7.692495368924031
 21
1883.998058141257
  0
LINE
  5
38E
100
AcDbEntity
  8
laser
  6
ByBlock
 62
  256
370
   -1
100
AcDbLine
 10
7.692495368924031
 20
1883.998058141257
 11
5.196339741587157
 21
1883.859468516413
  0
LINE
  5
38F
100
AcDbEntity
  8
laser
  6
ByBlock
 62
  256
370
   -1
100
AcDbLine
 10
5.196339741587157
 20
1883.859468516413
 11
5.476242060777132
 21
1870.103832422832
  0
LINE
  5
390
100
AcDbEntity
  8
laser
  6
ByBlock
 62
  256
370
   -1
100
AcDbLine
 10
5.476242060777132
 20
1870.103832422832
 11
-179.5057804328995
 21
1859.833403440136
  0
LINE
  5
391
100
AcDbEntity
  8
laser
  6
ByBlock
 62
  256
370
   -1
100
AcDbLine
 10
209.4146313277132
 20
3090.88395164232
 11
209.3357296401377
 21
3088.38022407666
  0
LINE
  5
392
100
AcDbEntity
  8
laser
  6
ByBlock
 62
  256
370
   -1
100
AcDbLine
 10
209.3357296401377
 20
3088.38022407666
 11
100.4678180447481
 21
3098.700051091782
  0
LINE
  5
393
100
AcDbEntity
  8
laser
  6
ByBlock
 62
  256
370
   -1
100
AcDbLine
 10
17.71099419237225
 20
1983.386924296623
 11
15.97807359100338
 21
1985.188863859802
  0
LINE
  5
394
100
AcDbEntity
  8
laser
  6
ByBlock
 62
  256
370
   -1
100
AcDbLine
 10
14.17613402782375
 20
1983.455943258434
 11
15.90905462919295
 21
1981.654003695254
  0
LINE
  5
395
100
AcDbEntity
  8
laser
  6
ByBlock
 62
  256
370
   -1
100
AcDbLine
 10
84.51721795717731
 20
3514.296118063045
 11
86.25013855854604
 21
3512.494178499865
  0
LINE
  5
396
100
AcDbEntity
  8
laser
  6
ByBlock
 62
  256
370
   -1
100
AcDbLine
 10
88.05207812172603
 20
3514.227099101233
 11
86.31915752035758
 21
3516.029038664413
  0
LINE
  5
397
100
AcDbEntity
  8
laser
  6
ByBlock
 62
  256
370
   -1
100
AcDbLine
 10
-110.7769215701521
 20
2489.549331700101
 11
-108.2803392770293
 21
2489.687945013953
  0
LINE
  5
398
100
AcDbEntity
  8
laser
  6
ByBlock
 62
  256
370
   -1
100
AcDbLine
 10
-108.1879040716115
 20
2487.189226836589
 11
-110.6844863647309
 21
2487.050613522737
  0
LINE
  5
399
100
AcDbEntity
  8
laser
  6
ByBlock
 62
  256
370
   -1
100
AcDbLine
 10
-6.038657232436343
 20
2492.860678424991
 11
-3.540794212373406
 21
2492.999362846375
  0
LINE
  5
39A
100
AcDbEntity
  8
laser
  6
ByBlock
 62
  256
370
   -1
100
AcDbLine
 10
-3.587043428336706
 20
2495.500645326575
 11
-6.084906448399636
 21
2495.36196090519
  0
LINE
  5
39B
100
AcDbEntity
  8
laser
  6
ByBlock
 62
  256
370
   -1
100
AcDbLine
 10
190.4838326156355
 20
2490.167236552133
 11
192.9776241164892
 21
2489.930844611446
  0
LINE
  5
39C
100
AcDbEntity
  8
laser
  6
ByBlock
 62
  256
370
   -1
100
AcDbLine
 10
193.0565258040646
 20
2492.434572177106
 11
190.562734303211
 21
2492.670964117794
  0
LINE
  5
39D
100
AcDbEntity
  8
laser
  6
ByBlock
 62
  256
370
   -1
100
AcDbLine
 10
281.8523831678998
 20
2481.506212174022
 11
284.3424618959698
 21
2481.270172175172
  0
LINE
  5
39E
100
AcDbEntity
  8
laser
  6
ByBlock
 62
  256
370
   -1
100
AcDbLine
 10
284.4999521490814
 20
2483.766450159135
 11
282.0098734210114
 21
2484.002490157985
  0
LINE
  5
39F
100
AcDbEntity
  8
laser
  6
ByBlock
 62
  256
370
   -1
100
AcDbLine
 10
315.262946728285
 20
2971.371140427724
 11
312.772868000215
 21
2971.607180426573
  0
LINE
  5
3A0
100
AcDbEntity
  8
laser
  6
ByBlock
 62
  256
370
   -1
100
AcDbLine
 10
312.6153777471034
 20
2969.11090244261
 11
315.1054564751733
 21
2968.874862443761
  0
LINE
  5
3A1
100
AcDbEntity
  8
laser
  6
ByBlock
 62
  256
370
   -1
100
AcDbLine
 10
208.3897028909954
 20
2978.990681702516
 11
205.8959113901417
 21
2979.227073643203
  0
LINE
  5
3A2
100
AcDbEntity
  8
laser
  6
ByBlock
 62
  256
370
   -1
100
AcDbLine
 10
205.9748130777172
 20
2981.730801208864
 11
208.4686045785711
 21
2981.494409268177
  0
LINE
  5
3A3
100
AcDbEntity
  8
laser
  6
ByBlock
 62
  256
370
   -1
100
AcDbLine
 10
-15.37683107120967
 20
2997.894334314781
 11
-12.87896805114674
 21
2998.033018736165
  0
LINE
  5
3A4
100
AcDbEntity
  8
laser
  6
ByBlock
 62
  256
370
   -1
100
AcDbLine
 10
-12.92521726711004
 20
3000.534301216364
 11
-15.42308028717298
 21
3000.39561679498
  0
LINE
  5
3A5
100
AcDbEntity
  8
laser
  6
ByBlock
 62
  256
370
   -1
100
AcDbLine
 10
-126.9439208981841
 20
2994.203842815295
 11
-129.4405031913036
 21
2994.065229501442
  0
LINE
  5
3A6
100
AcDbEntity
  8
laser
  6
ByBlock
 62
  256
370
   -1
100
AcDbLine
 10
-129.3480679858824
 20
2991.566511324078
 11
-126.851485692763
 21
2991.70512463793
  0
LWPOLYLINE
  5
3A7
100
AcDbEntity
  8
sheet
  6
ByBlock
 62
  256
370
   -1
100
AcDbPolyline
 90
    4
 70
    1
 43
0
 10
3000
 20
4000
 10
4000
 20
4000
 10
4000
 20
4700
 10
3000
 20
4700
  0
LWPOLYLINE
  5
3A8
100
AcDbEntity
  8
sheet
  6
ByBlock
 62
  256
370
   -1
100
AcDbPolyline
 90
    4
 70
    1
 43
0
 10
3000
 20
3000
 10
4000
 20
3000
 10
4000
 20
3700
 10
3000
 20
3700
  0
LWPOLYLINE
  5
3A9
100
AcDbEntity
  8
sheet
  6
ByBlock
 62
  256
370
   -1
100
AcDbPolyline
 90
    4
 70
    1
 43
0
 10
3000
 20
2000
 10
4000
 20
2000
 10
4000
 20
2700
 10
3000
 20
2700
  0
LINE
  5
3AA
100
AcDbEntity
  8
laser
  6
ByBlock
 62
  256
370
   -1
100
AcDbLine
 10
3970.436992398885
 20
4656.733563221893
 11
3603.332622739672
 21
4691.532187865841
  0
LINE
  5
3AB
100
AcDbEntity
  8
laser
  6
ByBlock
 62
  256
370
   -1
100
AcDbLine
 10
3603.332622739672
 20
4691.532187865841
 11
3602.035046905486
 21
4677.843550353124
  0
LINE
  5
3AC
100
AcDbEntity
  8
laser
  6
ByBlock
 62
  256
370
   -1
100
AcDbLine
 10
3602.035046905486
 20
4677.843550353124
 11
3599.546203721355
 21
4678.079473232066
  0
LINE
  5
3AD
100
AcDbEntity
  8
laser
  6
ByBlock
 62
  256
370
   -1
100
AcDbLine
 10
3599.546203721355
 20
4678.079473232066
 11
3600.843779555536
 21
4691.768110744782
  0
LINE
  5
3AE
100
AcDbEntity
  8
laser
  6
ByBlock
 62
  256
370
   -1
100
AcDbLine
 10
3600.843779555536
 20
4691.768110744782
 11
3572.222082938042
 21
4694.481223852616
  0
LINE
  5
3AF
100
AcDbEntity
  8
laser
  6
ByBlock
 62
  256
370
   -1
100
AcDbLine
 10
3572.222082938042
 20
4694.481223852616
 11
3569.508969830209
 21
4665.859527235118
  0
LINE
  5
3B0
100
AcDbEntity
  8
laser
  6
ByBlock
 62
  256
370
   -1
100
AcDbLine
 10
3569.508969830209
 20
4665.859527235118
 11
3598.130666447703
 21
4663.146414127285
  0
LINE
  5
3B1
100
AcDbEntity
  8
laser
  6
ByBlock
 62
  256
370
   -1
100
AcDbLine
 10
3598.130666447703
 20
4663.146414127285
 11
3599.310280842413
 21
4675.590630047936
  0
LINE
  5
3B2
100
AcDbEntity
  8
laser
  6
ByBlock
 62
  256
370
   -1
100
AcDbLine
 10
3599.310280842413
 20
4675.590630047936
 11
3601.799124026544
 21
4675.354707168994
  0
LINE
  5
3B3
100
AcDbEntity
  8
laser
  6
ByBlock
 62
  256
370
   -1
100
AcDbLine
 10
3601.799124026544
 20
4675.354707168994
 11
3600.61950963183
 21
4662.910491248344
  0
LINE
  5
3B4
100
AcDbEntity
  8
laser
  6
ByBlock
 62
  256
370
   -1
100
AcDbLine
 10
3600.61950963183
 20
4662.910491248344
 11
3714.95884162302
 21
4652.072016348971
  0
LINE
  5
3B5
100
AcDbEntity
  8
laser
  6
ByBlock
 62
  256
370
   -1
100
AcDbLine
 10
3714.95884162302
 20
4652.072016348971
 11
3714.879939935445
 21
4649.568288783312
  0
LINE
  5
3B6
100
AcDbEntity
  8
laser
  6
ByBlock
 62
  256
370
   -1
100
AcDbLine
 10
3714.879939935445
 20
4649.568288783312
 11
3600.383586752891
 21
4660.421648064213
  0
LINE
  5
3B7
100
AcDbEntity
  8
laser
  6
ByBlock
 62
  256
370
   -1
100
AcDbLine
 10
3600.383586752891
 20
4660.421648064213
 11
3595.901052052993
 21
4613.133627565738
  0
LINE
  5
3B8
100
AcDbEntity
  8
laser
  6
ByBlock
 62
  256
370
   -1
100
AcDbLine
 10
3595.901052052993
 20
4613.133627565738
 11
3593.412208868863
 21
4613.36955044468
  0
LINE
  5
3B9
100
AcDbEntity
  8
laser
  6
ByBlock
 62
  256
370
   -1
100
AcDbLine
 10
3593.412208868863
 20
4613.36955044468
 11
3597.894743568761
 21
4660.657570943155
  0
LINE
  5
3BA
100
AcDbEntity
  8
laser
  6
ByBlock
 62
  256
370
   -1
100
AcDbLine
 10
3597.894743568761
 20
4660.657570943155
 11
3569.273046951266
 21
4663.370684050988
  0
LINE
  5
3BB
100
AcDbEntity
  8
laser
  6
ByBlock
 62
  256
370
   -1
100
AcDbLine
 10
3569.273046951266
 20
4663.370684050988
 11
3562.545110213192
 21
4592.395034851947
  0
LINE
  5
3BC
100
AcDbEntity
  8
laser
  6
ByBlock
 62
  256
370
   -1
100
AcDbLine
 10
3562.545110213192
 20
4592.395034851947
 11
3576.139368962978
 21
4578.259342394951
  0
LINE
  5
3BD
100
AcDbEntity
  8
laser
  6
ByBlock
 62
  256
370
   -1
100
AcDbLine
 10
3574.337429399798
 20
4576.526421793583
 11
3560.743170650013
 21
4590.662114250577
  0
LINE
  5
3BE
100
AcDbEntity
  8
laser
  6
ByBlock
 62
  256
370
   -1
100
AcDbLine
 10
3560.743170650013
 20
4590.662114250577
 11
3218.726103098632
 21
4571.672906781638
  0
LINE
  5
3BF
100
AcDbEntity
  8
laser
  6
ByBlock
 62
  256
370
   -1
100
AcDbLine
 10
3218.726103098632
 20
4571.672906781638
 11
3220.319883784341
 21
4542.967117067264
  0
LINE
  5
3C0
100
AcDbEntity
  8
laser
  6
ByBlock
 62
  256
370
   -1
100
AcDbLine
 10
3220.319883784341
 20
4542.967117067264
 11
3342.1260645643
 21
4549.729945759965
  0
LINE
  5
3C1
100
AcDbEntity
  8
laser
  6
ByBlock
 62
  256
370
   -1
100
AcDbLine
 10
3342.1260645643
 20
4549.729945759965
 11
3342.218499769721
 21
4547.231227582601
  0
LINE
  5
3C2
100
AcDbEntity
  8
laser
  6
ByBlock
 62
  256
370
   -1
100
AcDbLine
 10
3342.218499769721
 20
4547.231227582601
 11
3220.458473409185
 21
4540.470961439927
  0
LINE
  5
3C3
100
AcDbEntity
  8
laser
  6
ByBlock
 62
  256
370
   -1
100
AcDbLine
 10
3220.458473409185
 20
4540.470961439927
 11
3225.547630789635
 21
4448.809490764221
  0
LINE
  5
3C4
100
AcDbEntity
  8
laser
  6
ByBlock
 62
  256
370
   -1
100
AcDbLine
 10
3225.547630789635
 20
4448.809490764221
 11
3345.612818128049
 21
4455.47565736371
  0
LINE
  5
3C5
100
AcDbEntity
  8
laser
  6
ByBlock
 62
  256
370
   -1
100
AcDbLine
 10
3345.612818128049
 20
4455.47565736371
 11
3345.70525333347
 21
4452.976939186346
  0
LINE
  5
3C6
100
AcDbEntity
  8
laser
  6
ByBlock
 62
  256
370
   -1
100
AcDbLine
 10
3345.70525333347
 20
4452.976939186346
 11
3225.68622041448
 21
4446.313335136884
  0
LINE
  5
3C7
100
AcDbEntity
  8
laser
  6
ByBlock
 62
  256
370
   -1
100
AcDbLine
 10
3225.68622041448
 20
4446.313335136884
 11
3231.390004486593
 21
4343.581743758926
  0
LINE
  5
3C8
100
AcDbEntity
  8
laser
  6
ByBlock
 62
  256
370
   -1
100
AcDbLine
 10
3231.390004486593
 20
4343.581743758926
 11
3349.509509625934
 21
4350.139883694099
  0
LINE
  5
3C9
100
AcDbEntity
  8
laser
  6
ByBlock
 62
  256
370
   -1
100
AcDbLine
 10
3349.509509625934
 20
4350.139883694099
 11
3349.601944831355
 21
4347.641165516734
  0
LINE
  5
3CA
100
AcDbEntity
  8
laser
  6
ByBlock
 62
  256
370
   -1
100
AcDbLine
 10
3349.601944831355
 20
4347.641165516734
 11
3231.528594111437
 21
4341.085588131589
  0
LINE
  5
3CB
100
AcDbEntity
  8
laser
  6
ByBlock
 62
  256
370
   -1
100
AcDbLine
 10
3231.528594111437
 20
4341.085588131589
 11
3236.617751491887
 21
4249.424117455883
  0
LINE
  5
3CC
100
AcDbEntity
  8
laser
  6
ByBlock
 62
  256
370
   -1
100
AcDbLine
 10
3236.617751491887
 20
4249.424117455883
 11
3352.996263189683
 21
4255.885595297845
  0
LINE
  5
3CD
100
AcDbEntity
  8
laser
  6
ByBlock
 62
  256
370
   -1
100
AcDbLine
 10
3352.996263189683
 20
4255.885595297845
 11
3353.088698395104
 21
4253.38687712048
  0
LINE
  5
3CE
100
AcDbEntity
  8
laser
  6
ByBlock
 62
  256
370
   -1
100
AcDbLine
 10
3353.088698395104
 20
4253.38687712048
 11
3236.756341116732
 21
4246.927961828547
  0
LINE
  5
3CF
100
AcDbEntity
  8
laser
  6
ByBlock
 62
  256
370
   -1
100
AcDbLine
 10
3236.756341116732
 20
4246.927961828547
 11
3242.460125188845
 21
4144.196370450589
  0
LINE
  5
3D0
100
AcDbEntity
  8
laser
  6
ByBlock
 62
  256
370
   -1
100
AcDbLine
 10
3242.460125188845
 20
4144.196370450589
 11
3356.892954687567
 21
4150.549821628234
  0
LINE
  5
3D1
100
AcDbEntity
  8
laser
  6
ByBlock
 62
  256
370
   -1
100
AcDbLine
 10
3356.892954687567
 20
4150.549821628234
 11
3356.985389892988
 21
4148.051103450869
  0
LINE
  5
3D2
100
AcDbEntity
  8
laser
  6
ByBlock
 62
  256
370
   -1
100
AcDbLine
 10
3356.985389892988
 20
4148.051103450869
 11
3242.598714813689
 21
4141.700214823252
  0
LINE
  5
3D3
100
AcDbEntity
  8
laser
  6
ByBlock
 62
  256
370
   -1
100
AcDbLine
 10
3242.598714813689
 20
4141.700214823252
 11
3247.687872194139
 21
4050.038744147546
  0
LINE
  5
3D4
100
AcDbEntity
  8
laser
  6
ByBlock
 62
  256
370
   -1
100
AcDbLine
 10
3247.687872194139
 20
4050.038744147546
 11
3360.379708251317
 21
4056.29553323198
  0
LINE
  5
3D5
100
AcDbEntity
  8
laser
  6
ByBlock
 62
  256
370
   -1
100
AcDbLine
 10
3805.083158170905
 20
4033.601444158262
 11
3910.42240651762
 21
4023.616106836083
  0
LINE
  5
3D6
100
AcDbEntity
  8
laser
  6
ByBlock
 62
  256
370
   -1
100
AcDbLine
 10
3910.42240651762
 20
4023.616106836083
 11
3920.471838103374
 21
4129.631510762784
  0
LINE
  5
3D7
100
AcDbEntity
  8
laser
  6
ByBlock
 62
  256
370
   -1
100
AcDbLine
 10
3920.471838103374
 20
4129.631510762784
 11
3811.791653468887
 21
4139.933542729446
  0
LINE
  5
3D8
100
AcDbEntity
  8
laser
  6
ByBlock
 62
  256
370
   -1
100
AcDbLine
 10
3811.791653468887
 20
4139.933542729446
 11
3811.949143721999
 21
4142.429820713409
  0
LINE
  5
3D9
100
AcDbEntity
  8
laser
  6
ByBlock
 62
  256
370
   -1
100
AcDbLine
 10
3811.949143721999
 20
4142.429820713409
 11
3920.707760982316
 21
4132.120353946915
  0
LINE
  5
3DA
100
AcDbEntity
  8
laser
  6
ByBlock
 62
  256
370
   -1
100
AcDbLine
 10
3920.707760982316
 20
4132.120353946915
 11
3928.976085214205
 21
4219.346156298087
  0
LINE
  5
3DB
100
AcDbEntity
  8
laser
  6
ByBlock
 62
  256
370
   -1
100
AcDbLine
 10
3928.976085214205
 20
4219.346156298087
 11
3817.468661294559
 21
4229.916188448878
  0
LINE
  5
3DC
100
AcDbEntity
  8
laser
  6
ByBlock
 62
  256
370
   -1
100
AcDbLine
 10
3817.468661294559
 20
4229.916188448878
 11
3817.626151547671
 21
4232.412466432841
  0
LINE
  5
3DD
100
AcDbEntity
  8
laser
  6
ByBlock
 62
  256
370
   -1
100
AcDbLine
 10
3817.626151547671
 20
4232.412466432841
 11
3929.212008093147
 21
4221.834999482218
  0
LINE
  5
3DE
100
AcDbEntity
  8
laser
  6
ByBlock
 62
  256
370
   -1
100
AcDbLine
 10
3929.212008093147
 20
4221.834999482218
 11
3939.261439678902
 21
4327.850403408918
  0
LINE
  5
3DF
100
AcDbEntity
  8
laser
  6
ByBlock
 62
  256
370
   -1
100
AcDbLine
 10
3939.261439678902
 20
4327.850403408918
 11
3824.334646845653
 21
4338.744565004024
  0
LINE
  5
3E0
100
AcDbEntity
  8
laser
  6
ByBlock
 62
  256
370
   -1
100
AcDbLine
 10
3824.334646845653
 20
4338.744565004024
 11
3824.492137098764
 21
4341.240842987987
  0
LINE
  5
3E1
100
AcDbEntity
  8
laser
  6
ByBlock
 62
  256
370
   -1
100
AcDbLine
 10
3824.492137098764
 20
4341.240842987987
 11
3939.497362557844
 21
4330.339246593049
  0
LINE
  5
3E2
100
AcDbEntity
  8
laser
  6
ByBlock
 62
  256
370
   -1
100
AcDbLine
 10
3939.497362557844
 20
4330.339246593049
 11
3947.765686789733
 21
4417.565048944223
  0
LINE
  5
3E3
100
AcDbEntity
  8
laser
  6
ByBlock
 62
  256
370
   -1
100
AcDbLine
 10
3947.765686789733
 20
4417.565048944223
 11
3830.011654671325
 21
4428.727210723457
  0
LINE
  5
3E4
100
AcDbEntity
  8
laser
  6
ByBlock
 62
  256
370
   -1
100
AcDbLine
 10
3830.011654671325
 20
4428.727210723457
 11
3830.169144924436
 21
4431.22348870742
  0
LINE
  5
3E5
100
AcDbEntity
  8
laser
  6
ByBlock
 62
  256
370
   -1
100
AcDbLine
 10
3830.169144924436
 20
4431.22348870742
 11
3948.001609668675
 21
4420.053892128353
  0
LINE
  5
3E6
100
AcDbEntity
  8
laser
  6
ByBlock
 62
  256
370
   -1
100
AcDbLine
 10
3948.001609668675
 20
4420.053892128353
 11
3958.051041254429
 21
4526.069296055053
  0
LINE
  5
3E7
100
AcDbEntity
  8
laser
  6
ByBlock
 62
  256
370
   -1
100
AcDbLine
 10
3958.051041254429
 20
4526.069296055053
 11
3836.877640222418
 21
4537.555587278604
  0
LINE
  5
3E8
100
AcDbEntity
  8
laser
  6
ByBlock
 62
  256
370
   -1
100
AcDbLine
 10
3836.877640222418
 20
4537.555587278604
 11
3837.03513047553
 21
4540.051865262566
  0
LINE
  5
3E9
100
AcDbEntity
  8
laser
  6
ByBlock
 62
  256
370
   -1
100
AcDbLine
 10
3837.03513047553
 20
4540.051865262566
 11
3958.286964133372
 21
4528.558139239184
  0
LINE
  5
3EA
100
AcDbEntity
  8
laser
  6
ByBlock
 62
  256
370
   -1
100
AcDbLine
 10
3958.286964133372
 20
4528.558139239184
 11
3967.48795641211
 21
4625.623023420265
  0
LINE
  5
3EB
100
AcDbEntity
  8
laser
  6
ByBlock
 62
  256
370
   -1
100
AcDbLine
 10
3967.48795641211
 20
4625.623023420265
 11
3843.177250346885
 21
4637.406706637121
  0
LINE
  5
3EC
100
AcDbEntity
  8
laser
  6
ByBlock
 62
  256
370
   -1
100
AcDbLine
 10
3843.177250346885
 20
4637.406706637121
 11
3843.334740599997
 21
4639.902984621083
  0
LINE
  5
3ED
100
AcDbEntity
  8
laser
  6
ByBlock
 62
  256
370
   -1
100
AcDbLine
 10
3843.334740599997
 20
4639.902984621083
 11
3967.723879291052
 21
4628.111866604395
  0
LINE
  5
3EE
100
AcDbEntity
  8
laser
  6
ByBlock
 62
  256
370
   -1
100
AcDbLine
 10
3967.723879291052
 20
4628.111866604395
 11
3970.436992398885
 21
4656.733563221893
  0
LINE
  5
3EF
100
AcDbEntity
  8
laser
  6
ByBlock
 62
  256
370
   -1
100
AcDbLine
 10
3717.452633123874
 20
4651.835624408284
 11
3717.373731436298
 21
4649.331896842624
  0
LINE
  5
3F0
100
AcDbEntity
  8
laser
  6
ByBlock
 62
  256
370
   -1
100
AcDbLine
 10
3717.373731436298
 20
4649.331896842624
 11
3840.687171618815
 21
4637.642746635971
  0
LINE
  5
3F1
100
AcDbEntity
  8
laser
  6
ByBlock
 62
  256
370
   -1
100
AcDbLine
 10
3840.687171618815
 20
4637.642746635971
 11
3840.844661871926
 21
4640.139024619933
  0
LINE
  5
3F2
100
AcDbEntity
  8
laser
  6
ByBlock
 62
  256
370
   -1
100
AcDbLine
 10
3840.844661871926
 20
4640.139024619933
 11
3717.452633123874
 21
4651.835624408284
  0
LINE
  5
3F3
100
AcDbEntity
  8
laser
  6
ByBlock
 62
  256
370
   -1
100
AcDbLine
 10
3714.296565620855
 20
4551.686521781854
 11
3714.21766393328
 21
4549.182794216194
  0
LINE
  5
3F4
100
AcDbEntity
  8
laser
  6
ByBlock
 62
  256
370
   -1
100
AcDbLine
 10
3714.21766393328
 20
4549.182794216194
 11
3834.387561494348
 21
4537.791627277453
  0
LINE
  5
3F5
100
AcDbEntity
  8
laser
  6
ByBlock
 62
  256
370
   -1
100
AcDbLine
 10
3834.387561494348
 20
4537.791627277453
 11
3834.54505174746
 21
4540.287905261415
  0
LINE
  5
3F6
100
AcDbEntity
  8
laser
  6
ByBlock
 62
  256
370
   -1
100
AcDbLine
 10
3834.54505174746
 20
4540.287905261415
 11
3714.296565620865
 21
4551.686521781854
  0
LINE
  5
3F7
100
AcDbEntity
  8
laser
  6
ByBlock
 62
  256
370
   -1
100
AcDbLine
 10
3710.856747370859
 20
4442.5333713484
 11
3710.777845683284
 21
4440.029643782738
  0
LINE
  5
3F8
100
AcDbEntity
  8
laser
  6
ByBlock
 62
  256
370
   -1
100
AcDbLine
 10
3710.777845683284
 20
4440.029643782738
 11
3827.521575943255
 21
4428.963250722307
  0
LINE
  5
3F9
100
AcDbEntity
  8
laser
  6
ByBlock
 62
  256
370
   -1
100
AcDbLine
 10
3827.521575943255
 20
4428.963250722307
 11
3827.679066196367
 21
4431.459528706269
  0
LINE
  5
3FA
100
AcDbEntity
  8
laser
  6
ByBlock
 62
  256
370
   -1
100
AcDbLine
 10
3827.679066196367
 20
4431.459528706269
 11
3710.856747370864
 21
4442.533371348399
  0
LINE
  5
3FB
100
AcDbEntity
  8
laser
  6
ByBlock
 62
  256
370
   -1
100
AcDbLine
 10
3708.012599946021
 20
4352.282192607012
 11
3707.933698258445
 21
4349.778465041352
  0
LINE
  5
3FC
100
AcDbEntity
  8
laser
  6
ByBlock
 62
  256
370
   -1
100
AcDbLine
 10
3707.933698258445
 20
4349.778465041352
 11
3821.844568117583
 21
4338.980605002874
  0
LINE
  5
3FD
100
AcDbEntity
  8
laser
  6
ByBlock
 62
  256
370
   -1
100
AcDbLine
 10
3821.844568117583
 20
4338.980605002874
 11
3822.002058370694
 21
4341.476882986837
  0
LINE
  5
3FE
100
AcDbEntity
  8
laser
  6
ByBlock
 62
  256
370
   -1
100
AcDbLine
 10
3822.002058370694
 20
4341.476882986837
 11
3708.012599946021
 21
4352.282192607012
  0
LINE
  5
3FF
100
AcDbEntity
  8
laser
  6
ByBlock
 62
  256
370
   -1
100
AcDbLine
 10
3704.572781696025
 20
4243.129042173557
 11
3704.49388000845
 21
4240.625314607896
  0
LINE
  5
400
100
AcDbEntity
  8
laser
  6
ByBlock
 62
  256
370
   -1
100
AcDbLine
 10
3704.49388000845
 20
4240.625314607896
 11
3814.978582566489
 21
4230.152228447727
  0
LINE
  5
401
100
AcDbEntity
  8
laser
  6
ByBlock
 62
  256
370
   -1
100
AcDbLine
 10
3814.978582566489
 20
4230.152228447727
 11
3815.1360728196
 21
4232.64850643169
  0
LINE
  5
402
100
AcDbEntity
  8
laser
  6
ByBlock
 62
  256
370
   -1
100
AcDbLine
 10
3815.1360728196
 20
4232.64850643169
 11
3704.572781696025
 21
4243.129042173557
  0
LINE
  5
403
100
AcDbEntity
  8
laser
  6
ByBlock
 62
  256
370
   -1
100
AcDbLine
 10
3701.728634271187
 20
4152.877863432172
 11
3701.649732583612
 21
4150.37413586651
  0
LINE
  5
404
100
AcDbEntity
  8
laser
  6
ByBlock
 62
  256
370
   -1
100
AcDbLine
 10
3701.649732583612
 20
4150.37413586651
 11
3809.301574740817
 21
4140.169582728297
  0
LINE
  5
405
100
AcDbEntity
  8
laser
  6
ByBlock
 62
  256
370
   -1
100
AcDbLine
 10
3809.301574740817
 20
4140.169582728297
 11
3809.459064993928
 21
4142.665860712259
  0
LINE
  5
406
100
AcDbEntity
  8
laser
  6
ByBlock
 62
  256
370
   -1
100
AcDbLine
 10
3809.459064993928
 20
4142.665860712259
 11
3701.728634271189
 21
4152.877863432171
  0
LINE
  5
407
100
AcDbEntity
  8
laser
  6
ByBlock
 62
  256
370
   -1
100
AcDbLine
 10
3802.593079442835
 20
4033.837484157111
 11
3698.288816021191
 21
4043.724712998715
  0
LINE
  5
408
100
AcDbEntity
  8
laser
  6
ByBlock
 62
  256
370
   -1
100
AcDbLine
 10
3473.200746473535
 20
4262.559495779232
 11
3473.246995689498
 21
4260.058213299032
  0
LINE
  5
409
100
AcDbEntity
  8
laser
  6
ByBlock
 62
  256
370
   -1
100
AcDbLine
 10
3473.246995689498
 20
4260.058213299032
 11
3489.331503311768
 21
4260.951244908424
  0
LINE
  5
40A
100
AcDbEntity
  8
laser
  6
ByBlock
 62
  256
370
   -1
100
AcDbLine
 10
3489.331503311768
 20
4260.951244908424
 11
3538.052444489654
 21
4212.230303730538
  0
LINE
  5
40B
100
AcDbEntity
  8
laser
  6
ByBlock
 62
  256
370
   -1
100
AcDbLine
 10
3538.052444489654
 20
4212.230303730538
 11
3539.820211442619
 21
4213.998070683505
  0
LINE
  5
40C
100
AcDbEntity
  8
laser
  6
ByBlock
 62
  256
370
   -1
100
AcDbLine
 10
3539.820211442619
 20
4213.998070683505
 11
3493.160185215635
 21
4260.65809691049
  0
LINE
  5
40D
100
AcDbEntity
  8
laser
  6
ByBlock
 62
  256
370
   -1
100
AcDbLine
 10
3493.160185215635
 20
4260.65809691049
 11
3702.000088507596
 21
4240.861706548583
  0
LINE
  5
40E
100
AcDbEntity
  8
laser
  6
ByBlock
 62
  256
370
   -1
100
AcDbLine
 10
3702.000088507596
 20
4240.861706548583
 11
3702.078990195171
 21
4243.365434114244
  0
LINE
  5
40F
100
AcDbEntity
  8
laser
  6
ByBlock
 62
  256
370
   -1
100
AcDbLine
 10
3702.078990195171
 20
4243.365434114244
 11
3492.581804385956
 21
4263.224129720908
  0
LINE
  5
410
100
AcDbEntity
  8
laser
  6
ByBlock
 62
  256
370
   -1
100
AcDbLine
 10
3492.581804385956
 20
4263.224129720908
 11
3539.820211442619
 21
4310.462536777572
  0
LINE
  5
411
100
AcDbEntity
  8
laser
  6
ByBlock
 62
  256
370
   -1
100
AcDbLine
 10
3539.820211442619
 20
4310.462536777572
 11
3538.052444489654
 21
4312.230303730537
  0
LINE
  5
412
100
AcDbEntity
  8
laser
  6
ByBlock
 62
  256
370
   -1
100
AcDbLine
 10
3538.052444489654
 20
4312.230303730537
 11
3489.274045852301
 21
4263.451905093185
  0
LINE
  5
413
100
AcDbEntity
  8
laser
  6
ByBlock
 62
  256
370
   -1
100
AcDbLine
 10
3489.274045852301
 20
4263.451905093185
 11
3473.200746473535
 21
4262.559495779232
  0
LINE
  5
414
100
AcDbEntity
  8
laser
  6
ByBlock
 62
  256
370
   -1
100
AcDbLine
 10
3473.200746473535
 20
4262.559495779232
 11
3473.246995689498
 21
4260.058213299032
  0
LINE
  5
415
100
AcDbEntity
  8
laser
  6
ByBlock
 62
  256
370
   -1
100
AcDbLine
 10
3475.150424908357
 20
4157.115621554101
 11
3475.196674124321
 21
4154.614339073902
  0
LINE
  5
416
100
AcDbEntity
  8
laser
  6
ByBlock
 62
  256
370
   -1
100
AcDbLine
 10
3475.196674124321
 20
4154.614339073902
 11
3586.623006605302
 21
4160.800865846186
  0
LINE
  5
417
100
AcDbEntity
  8
laser
  6
ByBlock
 62
  256
370
   -1
100
AcDbLine
 10
3586.623006605301
 20
4160.800865846186
 11
3539.82021144262
 21
4113.998070683504
  0
LINE
  5
418
100
AcDbEntity
  8
laser
  6
ByBlock
 62
  256
370
   -1
100
AcDbLine
 10
3539.82021144262
 20
4113.998070683504
 11
3541.587978395586
 21
4112.230303730537
  0
LINE
  5
419
100
AcDbEntity
  8
laser
  6
ByBlock
 62
  256
370
   -1
100
AcDbLine
 10
3541.587978395586
 20
4112.230303730537
 11
3590.288029487368
 21
4160.93035482232
  0
LINE
  5
41A
100
AcDbEntity
  8
laser
  6
ByBlock
 62
  256
370
   -1
100
AcDbLine
 10
3699.234842770334
 20
4153.114255372859
 11
3590.386008079583
 21
4163.432274046541
  0
LINE
  5
41B
100
AcDbEntity
  8
laser
  6
ByBlock
 62
  256
370
   -1
100
AcDbLine
 10
3590.386008079583
 20
4163.432274046541
 11
3541.587978395586
 21
4212.230303730537
  0
LINE
  5
41C
100
AcDbEntity
  8
laser
  6
ByBlock
 62
  256
370
   -1
100
AcDbLine
 10
3541.587978395586
 20
4212.230303730537
 11
3539.82021144262
 21
4210.462536777572
  0
LINE
  5
41D
100
AcDbEntity
  8
laser
  6
ByBlock
 62
  256
370
   -1
100
AcDbLine
 10
3538.052444489654
 20
4112.230303730537
 11
3539.820211442619
 21
4110.462536777572
  0
LINE
  5
41E
100
AcDbEntity
  8
laser
  6
ByBlock
 62
  256
370
   -1
100
AcDbLine
 10
3539.820211442619
 20
4110.462536777572
 11
3492.581804385956
 21
4063.224129720908
  0
LINE
  5
41F
100
AcDbEntity
  8
laser
  6
ByBlock
 62
  256
370
   -1
100
AcDbLine
 10
3492.581804385956
 20
4063.224129720908
 11
3695.795024520337
 21
4043.961104939402
  0
LINE
  5
420
100
AcDbEntity
  8
laser
  6
ByBlock
 62
  256
370
   -1
100
AcDbLine
 10
3476.89499417551
 20
4062.764604946902
 11
3489.274045852301
 21
4063.451905093185
  0
LINE
  5
421
100
AcDbEntity
  8
laser
  6
ByBlock
 62
  256
370
   -1
100
AcDbLine
 10
3489.274045852301
 20
4063.451905093185
 11
3538.052444489654
 21
4112.230303730537
  0
LINE
  5
422
100
AcDbEntity
  8
laser
  6
ByBlock
 62
  256
370
   -1
100
AcDbLine
 10
3538.052444489654
 20
4112.230303730537
 11
3539.820211442619
 21
4110.462536777572
  0
LINE
  5
423
100
AcDbEntity
  8
laser
  6
ByBlock
 62
  256
370
   -1
100
AcDbLine
 10
3471.456177206383
 20
4356.910512386432
 11
3471.502426422346
 21
4354.409229906232
  0
LINE
  5
424
100
AcDbEntity
  8
laser
  6
ByBlock
 62
  256
370
   -1
100
AcDbLine
 10
3471.502426422346
 20
4354.409229906232
 11
3586.623006605302
 21
4360.800865846186
  0
LINE
  5
425
100
AcDbEntity
  8
laser
  6
ByBlock
 62
  256
370
   -1
100
AcDbLine
 10
3586.623006605302
 20
4360.800865846186
 11
3539.82021144262
 21
4313.998070683504
  0
LINE
  5
426
100
AcDbEntity
  8
laser
  6
ByBlock
 62
  256
370
   -1
100
AcDbLine
 10
3539.82021144262
 20
4313.998070683504
 11
3541.587978395586
 21
4312.230303730537
  0
LINE
  5
427
100
AcDbEntity
  8
laser
  6
ByBlock
 62
  256
370
   -1
100
AcDbLine
 10
3541.587978395586
 20
4312.230303730537
 11
3590.288029487368
 21
4360.93035482232
  0
LINE
  5
428
100
AcDbEntity
  8
laser
  6
ByBlock
 62
  256
370
   -1
100
AcDbLine
 10
3590.288029487368
 20
4360.93035482232
 11
3705.439906757592
 21
4350.014856982039
  0
LINE
  5
429
100
AcDbEntity
  8
laser
  6
ByBlock
 62
  256
370
   -1
100
AcDbLine
 10
3705.439906757592
 20
4350.014856982039
 11
3705.518808445167
 21
4352.518584547699
  0
LINE
  5
42A
100
AcDbEntity
  8
laser
  6
ByBlock
 62
  256
370
   -1
100
AcDbLine
 10
3705.518808445167
 20
4352.518584547699
 11
3590.386008079583
 21
4363.432274046541
  0
LINE
  5
42B
100
AcDbEntity
  8
laser
  6
ByBlock
 62
  256
370
   -1
100
AcDbLine
 10
3590.386008079583
 20
4363.432274046541
 11
3541.587978395586
 21
4412.230303730537
  0
LINE
  5
42C
100
AcDbEntity
  8
laser
  6
ByBlock
 62
  256
370
   -1
100
AcDbLine
 10
3541.587978395586
 20
4412.230303730537
 11
3539.82021144262
 21
4410.462536777572
  0
LINE
  5
42D
100
AcDbEntity
  8
laser
  6
ByBlock
 62
  256
370
   -1
100
AcDbLine
 10
3539.82021144262
 20
4410.462536777572
 11
3586.959357467753
 21
4363.323390752439
  0
LINE
  5
42E
100
AcDbEntity
  8
laser
  6
ByBlock
 62
  256
370
   -1
100
AcDbLine
 10
3586.959357467753
 20
4363.323390752439
 11
3471.456177206383
 21
4356.910512386432
  0
LINE
  5
42F
100
AcDbEntity
  8
laser
  6
ByBlock
 62
  256
370
   -1
100
AcDbLine
 10
3469.50649877156
 20
4462.354386611561
 11
3469.552747987523
 21
4459.853104131362
  0
LINE
  5
430
100
AcDbEntity
  8
laser
  6
ByBlock
 62
  256
370
   -1
100
AcDbLine
 10
3469.552747987523
 20
4459.853104131362
 11
3489.331503311767
 21
4460.951244908425
  0
LINE
  5
431
100
AcDbEntity
  8
laser
  6
ByBlock
 62
  256
370
   -1
100
AcDbLine
 10
3489.331503311767
 20
4460.951244908425
 11
3538.052444489654
 21
4412.230303730538
  0
LINE
  5
432
100
AcDbEntity
  8
laser
  6
ByBlock
 62
  256
370
   -1
100
AcDbLine
 10
3538.052444489654
 20
4412.230303730538
 11
3539.820211442619
 21
4413.998070683505
  0
LINE
  5
433
100
AcDbEntity
  8
laser
  6
ByBlock
 62
  256
370
   -1
100
AcDbLine
 10
3539.820211442619
 20
4413.998070683505
 11
3493.160185215635
 21
4460.65809691049
  0
LINE
  5
434
100
AcDbEntity
  8
laser
  6
ByBlock
 62
  256
370
   -1
100
AcDbLine
 10
3493.160185215635
 20
4460.65809691049
 11
3708.28405418243
 21
4440.266035723425
  0
LINE
  5
435
100
AcDbEntity
  8
laser
  6
ByBlock
 62
  256
370
   -1
100
AcDbLine
 10
3708.28405418243
 20
4440.266035723425
 11
3708.362955870005
 21
4442.769763289087
  0
LINE
  5
436
100
AcDbEntity
  8
laser
  6
ByBlock
 62
  256
370
   -1
100
AcDbLine
 10
3708.362955870005
 20
4442.769763289087
 11
3492.581804385956
 21
4463.224129720908
  0
LINE
  5
437
100
AcDbEntity
  8
laser
  6
ByBlock
 62
  256
370
   -1
100
AcDbLine
 10
3492.581804385956
 20
4463.224129720908
 11
3539.82021144262
 21
4510.462536777572
  0
LINE
  5
438
100
AcDbEntity
  8
laser
  6
ByBlock
 62
  256
370
   -1
100
AcDbLine
 10
3539.82021144262
 20
4510.462536777572
 11
3538.052444489654
 21
4512.230303730537
  0
LINE
  5
439
100
AcDbEntity
  8
laser
  6
ByBlock
 62
  256
370
   -1
100
AcDbLine
 10
3538.052444489654
 20
4512.230303730537
 11
3489.2740458523
 21
4463.451905093185
  0
LINE
  5
43A
100
AcDbEntity
  8
laser
  6
ByBlock
 62
  256
370
   -1
100
AcDbLine
 10
3489.2740458523
 20
4463.451905093185
 11
3469.50649877156
 21
4462.354386611561
  0
LINE
  5
43B
100
AcDbEntity
  8
laser
  6
ByBlock
 62
  256
370
   -1
100
AcDbLine
 10
3469.50649877156
 20
4462.354386611561
 11
3469.552747987523
 21
4459.853104131362
  0
LINE
  5
43C
100
AcDbEntity
  8
laser
  6
ByBlock
 62
  256
370
   -1
100
AcDbLine
 10
3467.761929504407
 20
4556.705403218763
 11
3467.80817872037
 21
4554.204120738563
  0
LINE
  5
43D
100
AcDbEntity
  8
laser
  6
ByBlock
 62
  256
370
   -1
100
AcDbLine
 10
3467.80817872037
 20
4554.204120738563
 11
3586.623006605302
 21
4560.800865846186
  0
LINE
  5
43E
100
AcDbEntity
  8
laser
  6
ByBlock
 62
  256
370
   -1
100
AcDbLine
 10
3586.623006605302
 20
4560.800865846186
 11
3539.82021144262
 21
4513.998070683504
  0
LINE
  5
43F
100
AcDbEntity
  8
laser
  6
ByBlock
 62
  256
370
   -1
100
AcDbLine
 10
3539.82021144262
 20
4513.998070683504
 11
3541.587978395586
 21
4512.230303730537
  0
LINE
  5
440
100
AcDbEntity
  8
laser
  6
ByBlock
 62
  256
370
   -1
100
AcDbLine
 10
3541.587978395586
 20
4512.230303730537
 11
3590.288029487368
 21
4560.930354822319
  0
LINE
  5
441
100
AcDbEntity
  8
laser
  6
ByBlock
 62
  256
370
   -1
100
AcDbLine
 10
3590.288029487368
 20
4560.930354822319
 11
3711.723872432426
 21
4549.419186156881
  0
LINE
  5
442
100
AcDbEntity
  8
laser
  6
ByBlock
 62
  256
370
   -1
100
AcDbLine
 10
3711.723872432426
 20
4549.419186156881
 11
3711.802774120001
 21
4551.922913722541
  0
LINE
  5
443
100
AcDbEntity
  8
laser
  6
ByBlock
 62
  256
370
   -1
100
AcDbLine
 10
3591.182594474153
 20
4563.356763883132
 11
3595.665129174051
 21
4610.644784381608
  0
LINE
  5
444
100
AcDbEntity
  8
laser
  6
ByBlock
 62
  256
370
   -1
100
AcDbLine
 10
3595.665129174051
 20
4610.644784381608
 11
3593.176285989921
 21
4610.88070726055
  0
LINE
  5
445
100
AcDbEntity
  8
laser
  6
ByBlock
 62
  256
370
   -1
100
AcDbLine
 10
3593.176285989921
 20
4610.88070726055
 11
3588.832868137572
 21
4565.060285069518
  0
LINE
  5
446
100
AcDbEntity
  8
laser
  6
ByBlock
 62
  256
370
   -1
100
AcDbLine
 10
3588.832868137572
 20
4565.060285069518
 11
3577.872289564346
 21
4576.457402831771
  0
LINE
  5
447
100
AcDbEntity
  8
laser
  6
ByBlock
 62
  256
370
   -1
100
AcDbLine
 10
3576.070350001166
 20
4574.724482230403
 11
3587.030928574397
 21
4563.327364468145
  0
LINE
  5
448
100
AcDbEntity
  8
laser
  6
ByBlock
 62
  256
370
   -1
100
AcDbLine
 10
3587.030928574397
 20
4563.327364468145
 11
3467.761929504407
 21
4556.705403218763
  0
LINE
  5
449
100
AcDbEntity
  8
laser
  6
ByBlock
 62
  256
370
   -1
100
AcDbLine
 10
3467.761929504407
 20
4556.705403218763
 11
3467.808178720374
 21
4554.204120738563
  0
LINE
  5
44A
100
AcDbEntity
  8
laser
  6
ByBlock
 62
  256
370
   -1
100
AcDbLine
 10
3539.82021144262
 20
4210.462536777572
 11
3586.959357467753
 21
4163.323390752439
  0
LINE
  5
44B
100
AcDbEntity
  8
laser
  6
ByBlock
 62
  256
370
   -1
100
AcDbLine
 10
3586.959357467753
 20
4163.323390752439
 11
3475.150424908363
 21
4157.115621554102
  0
LINE
  5
44C
100
AcDbEntity
  8
laser
  6
ByBlock
 62
  256
370
   -1
100
AcDbLine
 10
3474.397131155447
 20
4062.625920525518
 11
3362.876290544436
 21
4056.434146545832
  0
LINE
  5
44D
100
AcDbEntity
  8
laser
  6
ByBlock
 62
  256
370
   -1
100
AcDbLine
 10
3359.389536980687
 20
4150.688434942085
 11
3359.481972186108
 21
4148.189716764721
  0
LINE
  5
44E
100
AcDbEntity
  8
laser
  6
ByBlock
 62
  256
370
   -1
100
AcDbLine
 10
3359.481972186108
 20
4148.189716764721
 11
3472.698811104258
 21
4154.475654652519
  0
LINE
  5
44F
100
AcDbEntity
  8
laser
  6
ByBlock
 62
  256
370
   -1
100
AcDbLine
 10
3472.698811104258
 20
4154.475654652519
 11
3472.652561888295
 21
4156.976937132717
  0
LINE
  5
450
100
AcDbEntity
  8
laser
  6
ByBlock
 62
  256
370
   -1
100
AcDbLine
 10
3472.652561888295
 20
4156.976937132717
 11
3359.389536980687
 21
4150.688434942085
  0
LINE
  5
451
100
AcDbEntity
  8
laser
  6
ByBlock
 62
  256
370
   -1
100
AcDbLine
 10
3355.492845482802
 20
4256.024208611697
 11
3355.585280688224
 21
4253.525490434333
  0
LINE
  5
452
100
AcDbEntity
  8
laser
  6
ByBlock
 62
  256
370
   -1
100
AcDbLine
 10
3355.585280688224
 20
4253.525490434333
 11
3470.749132669435
 21
4259.919528877648
  0
LINE
  5
453
100
AcDbEntity
  8
laser
  6
ByBlock
 62
  256
370
   -1
100
AcDbLine
 10
3470.749132669435
 20
4259.919528877648
 11
3470.702883453472
 21
4262.420811357848
  0
LINE
  5
454
100
AcDbEntity
  8
laser
  6
ByBlock
 62
  256
370
   -1
100
AcDbLine
 10
3470.702883453472
 20
4262.420811357848
 11
3355.492845482802
 21
4256.024208611697
  0
LINE
  5
455
100
AcDbEntity
  8
laser
  6
ByBlock
 62
  256
370
   -1
100
AcDbLine
 10
3352.006091919053
 20
4350.278497007951
 11
3352.098527124474
 21
4347.779778830586
  0
LINE
  5
456
100
AcDbEntity
  8
laser
  6
ByBlock
 62
  256
370
   -1
100
AcDbLine
 10
3352.098527124474
 20
4347.779778830586
 11
3469.004563402283
 21
4354.270545484847
  0
LINE
  5
457
100
AcDbEntity
  8
laser
  6
ByBlock
 62
  256
370
   -1
100
AcDbLine
 10
3469.004563402283
 20
4354.270545484847
 11
3468.95831418632
 21
4356.771827965047
  0
LINE
  5
458
100
AcDbEntity
  8
laser
  6
ByBlock
 62
  256
370
   -1
100
AcDbLine
 10
3468.95831418632
 20
4356.771827965047
 11
3352.006091919053
 21
4350.278497007951
  0
LINE
  5
459
100
AcDbEntity
  8
laser
  6
ByBlock
 62
  256
370
   -1
100
AcDbLine
 10
3348.109400421169
 20
4455.614270677563
 11
3348.20183562659
 21
4453.115552500198
  0
LINE
  5
45A
100
AcDbEntity
  8
laser
  6
ByBlock
 62
  256
370
   -1
100
AcDbLine
 10
3348.20183562659
 20
4453.115552500198
 11
3467.05488496746
 21
4459.714419709977
  0
LINE
  5
45B
100
AcDbEntity
  8
laser
  6
ByBlock
 62
  256
370
   -1
100
AcDbLine
 10
3467.05488496746
 20
4459.714419709977
 11
3467.008635751497
 21
4462.215702190177
  0
LINE
  5
45C
100
AcDbEntity
  8
laser
  6
ByBlock
 62
  256
370
   -1
100
AcDbLine
 10
3467.008635751497
 20
4462.215702190177
 11
3348.109400421174
 21
4455.614270677562
  0
LINE
  5
45D
100
AcDbEntity
  8
laser
  6
ByBlock
 62
  256
370
   -1
100
AcDbLine
 10
3344.62264685742
 20
4549.868559073817
 11
3344.71508206284
 21
4547.369840896452
  0
LINE
  5
45E
100
AcDbEntity
  8
laser
  6
ByBlock
 62
  256
370
   -1
100
AcDbLine
 10
3344.71508206284
 20
4547.369840896452
 11
3465.310315700307
 21
4554.065436317178
  0
LINE
  5
45F
100
AcDbEntity
  8
laser
  6
ByBlock
 62
  256
370
   -1
100
AcDbLine
 10
3465.310315700307
 20
4554.065436317178
 11
3465.264066484344
 21
4556.566718797378
  0
LINE
  5
460
100
AcDbEntity
  8
laser
  6
ByBlock
 62
  256
370
   -1
100
AcDbLine
 10
3465.264066484344
 20
4556.566718797378
 11
3344.62264685742
 21
4549.868559073817
  0
LINE
  5
461
100
AcDbEntity
  8
laser
  6
ByBlock
 62
  256
370
   -1
100
AcDbLine
 10
3344.622646857428
 20
4549.868559073817
 11
3344.71508206284
 21
4547.369840896452
  0
LINE
  5
462
100
AcDbEntity
  8
laser
  6
ByBlock
 62
  256
370
   -1
100
AcDbLine
 10
3699.234842770334
 20
4153.114255372859
 11
3699.155941082758
 21
4150.610527807197
  0
LINE
  5
463
100
AcDbEntity
  8
laser
  6
ByBlock
 62
  256
370
   -1
100
AcDbLine
 10
3699.155941082758
 20
4150.610527807197
 11
3590.288029487368
 21
4160.93035482232
  0
LINE
  5
464
100
AcDbEntity
  8
laser
  6
ByBlock
 62
  256
370
   -1
100
AcDbLine
 10
3574.337429399798
 20
4576.526421793583
 11
3576.070350001166
 21
4574.724482230403
  0
LINE
  5
465
100
AcDbEntity
  8
laser
  6
ByBlock
 62
  256
370
   -1
100
AcDbLine
 10
3577.872289564346
 20
4576.457402831771
 11
3576.139368962978
 21
4578.259342394951
  0
LINE
  5
466
100
AcDbEntity
  8
laser
  6
ByBlock
 62
  256
370
   -1
100
AcDbLine
 10
3805.083158170905
 20
4033.601444158262
 11
3802.593079442835
 21
4033.837484157111
  0
LINE
  5
467
100
AcDbEntity
  8
laser
  6
ByBlock
 62
  256
370
   -1
100
AcDbLine
 10
3695.795024520337
 20
4043.961104939402
 11
3698.288816021191
 21
4043.724712998715
  0
LINE
  5
468
100
AcDbEntity
  8
laser
  6
ByBlock
 62
  256
370
   -1
100
AcDbLine
 10
3476.89499417551
 20
4062.764604946902
 11
3474.397131155447
 21
4062.625920525518
  0
LINE
  5
469
100
AcDbEntity
  8
laser
  6
ByBlock
 62
  256
370
   -1
100
AcDbLine
 10
3362.876290544436
 20
4056.434146545832
 11
3360.379708251317
 21
4056.29553323198
  0
LINE
  5
46A
100
AcDbEntity
  8
laser
  6
ByBlock
 62
  256
370
   -1
100
AcDbLine
 10
3711.802774120001
 20
4551.922913722541
 11
3591.182594474153
 21
4563.356763883132
  0
LINE
  5
46B
100
AcDbEntity
  8
laser
  6
ByBlock
 62
  256
370
   -1
100
AcDbLine
 10
3392.973053441447
 20
3547.626893230357
 11
3280.327371803693
 21
3541.372666695951
  0
LINE
  5
46C
100
AcDbEntity
  8
laser
  6
ByBlock
 62
  256
370
   -1
100
AcDbLine
 10
3280.327371803693
 20
3541.372666695951
 11
3286.031155875806
 21
3438.641075317993
  0
LINE
  5
46D
100
AcDbEntity
  8
laser
  6
ByBlock
 62
  256
370
   -1
100
AcDbLine
 10
3286.031155875806
 20
3438.641075317993
 11
3396.77730973391
 21
3444.78983773811
  0
LINE
  5
46E
100
AcDbEntity
  8
laser
  6
ByBlock
 62
  256
370
   -1
100
AcDbLine
 10
3396.77730973391
 20
3444.78983773811
 11
3396.869744939331
 21
3442.291119560745
  0
LINE
  5
46F
100
AcDbEntity
  8
laser
  6
ByBlock
 62
  256
370
   -1
100
AcDbLine
 10
3396.869744939331
 20
3442.291119560745
 11
3286.169745500651
 21
3436.144919690656
  0
LINE
  5
470
100
AcDbEntity
  8
laser
  6
ByBlock
 62
  256
370
   -1
100
AcDbLine
 10
3286.169745500651
 20
3436.144919690656
 11
3291.258902881101
 21
3344.48344901495
  0
LINE
  5
471
100
AcDbEntity
  8
laser
  6
ByBlock
 62
  256
370
   -1
100
AcDbLine
 10
3291.258902881101
 20
3344.48344901495
 11
3400.26406329766
 21
3350.535549341856
  0
LINE
  5
472
100
AcDbEntity
  8
laser
  6
ByBlock
 62
  256
370
   -1
100
AcDbLine
 10
3400.26406329766
 20
3350.535549341856
 11
3400.356498503081
 21
3348.036831164492
  0
LINE
  5
473
100
AcDbEntity
  8
laser
  6
ByBlock
 62
  256
370
   -1
100
AcDbLine
 10
3400.356498503081
 20
3348.036831164492
 11
3291.397492505945
 21
3341.987293387614
  0
LINE
  5
474
100
AcDbEntity
  8
laser
  6
ByBlock
 62
  256
370
   -1
100
AcDbLine
 10
3291.397492505945
 20
3341.987293387614
 11
3297.101276578058
 21
3239.255702009656
  0
LINE
  5
475
100
AcDbEntity
  8
laser
  6
ByBlock
 62
  256
370
   -1
100
AcDbLine
 10
3297.101276578058
 20
3239.255702009656
 11
3404.160754795544
 21
3245.199775672245
  0
LINE
  5
476
100
AcDbEntity
  8
laser
  6
ByBlock
 62
  256
370
   -1
100
AcDbLine
 10
3404.160754795544
 20
3245.199775672245
 11
3404.253190000965
 21
3242.70105749488
  0
LINE
  5
477
100
AcDbEntity
  8
laser
  6
ByBlock
 62
  256
370
   -1
100
AcDbLine
 10
3404.253190000965
 20
3242.70105749488
 11
3297.239866202903
 21
3236.759546382319
  0
LINE
  5
478
100
AcDbEntity
  8
laser
  6
ByBlock
 62
  256
370
   -1
100
AcDbLine
 10
3297.239866202903
 20
3236.759546382319
 11
3302.329023583353
 21
3145.098075706613
  0
LINE
  5
479
100
AcDbEntity
  8
laser
  6
ByBlock
 62
  256
370
   -1
100
AcDbLine
 10
3302.329023583353
 20
3145.098075706613
 11
3407.647508359293
 21
3150.945487275991
  0
LINE
  5
47A
100
AcDbEntity
  8
laser
  6
ByBlock
 62
  256
370
   -1
100
AcDbLine
 10
3407.647508359293
 20
3150.945487275991
 11
3407.739943564714
 21
3148.446769098627
  0
LINE
  5
47B
100
AcDbEntity
  8
laser
  6
ByBlock
 62
  256
370
   -1
100
AcDbLine
 10
3407.739943564714
 20
3148.446769098627
 11
3302.467613208197
 21
3142.601920079276
  0
LINE
  5
47C
100
AcDbEntity
  8
laser
  6
ByBlock
 62
  256
370
   -1
100
AcDbLine
 10
3302.467613208197
 20
3142.601920079276
 11
3308.17139728031
 21
3039.870328701318
  0
LINE
  5
47D
100
AcDbEntity
  8
laser
  6
ByBlock
 62
  256
370
   -1
100
AcDbLine
 10
3308.17139728031
 20
3039.870328701318
 11
3411.544199857177
 21
3045.60971360638
  0
LINE
  5
47E
100
AcDbEntity
  8
laser
  6
ByBlock
 62
  256
370
   -1
100
AcDbLine
 10
3806.821073576411
 20
3039.826832065414
 11
3896.839866240443
 21
3031.293754184252
  0
LINE
  5
47F
100
AcDbEntity
  8
laser
  6
ByBlock
 62
  256
370
   -1
100
AcDbLine
 10
3896.839866240443
 20
3031.293754184252
 11
3905.108190472332
 21
3118.519556535426
  0
LINE
  5
480
100
AcDbEntity
  8
laser
  6
ByBlock
 62
  256
370
   -1
100
AcDbLine
 10
3905.108190472332
 20
3118.519556535426
 11
3812.340591148972
 21
3127.313199800883
  0
LINE
  5
481
100
AcDbEntity
  8
laser
  6
ByBlock
 62
  256
370
   -1
100
AcDbLine
 10
3812.340591148972
 20
3127.313199800883
 11
3812.498081402083
 21
3129.809477784846
  0
LINE
  5
482
100
AcDbEntity
  8
laser
  6
ByBlock
 62
  256
370
   -1
100
AcDbLine
 10
3812.498081402083
 20
3129.809477784846
 11
3905.344113351274
 21
3121.008399719556
  0
LINE
  5
483
100
AcDbEntity
  8
laser
  6
ByBlock
 62
  256
370
   -1
100
AcDbLine
 10
3905.344113351274
 20
3121.008399719556
 11
3915.393544937029
 21
3227.023803646257
  0
LINE
  5
484
100
AcDbEntity
  8
laser
  6
ByBlock
 62
  256
370
   -1
100
AcDbLine
 10
3915.393544937029
 20
3227.023803646257
 11
3819.206576700065
 21
3236.14157635603
  0
LINE
  5
485
100
AcDbEntity
  8
laser
  6
ByBlock
 62
  256
370
   -1
100
AcDbLine
 10
3819.206576700065
 20
3236.14157635603
 11
3819.364066953176
 21
3238.637854339992
  0
LINE
  5
486
100
AcDbEntity
  8
laser
  6
ByBlock
 62
  256
370
   -1
100
AcDbLine
 10
3819.364066953176
 20
3238.637854339992
 11
3915.629467815971
 21
3229.512646830387
  0
LINE
  5
487
100
AcDbEntity
  8
laser
  6
ByBlock
 62
  256
370
   -1
100
AcDbLine
 10
3915.629467815971
 20
3229.512646830387
 11
3923.89779204786
 21
3316.73844918156
  0
LINE
  5
488
100
AcDbEntity
  8
laser
  6
ByBlock
 62
  256
370
   -1
100
AcDbLine
 10
3923.89779204786
 20
3316.73844918156
 11
3824.883584525737
 21
3326.124222075462
  0
LINE
  5
489
100
AcDbEntity
  8
laser
  6
ByBlock
 62
  256
370
   -1
100
AcDbLine
 10
3824.883584525737
 20
3326.124222075462
 11
3825.041074778849
 21
3328.620500059425
  0
LINE
  5
48A
100
AcDbEntity
  8
laser
  6
ByBlock
 62
  256
370
   -1
100
AcDbLine
 10
3825.041074778849
 20
3328.620500059425
 11
3924.133714926802
 21
3319.22729236569
  0
LINE
  5
48B
100
AcDbEntity
  8
laser
  6
ByBlock
 62
  256
370
   -1
100
AcDbLine
 10
3924.133714926802
 20
3319.22729236569
 11
3934.183146512556
 21
3425.242696292391
  0
LINE
  5
48C
100
AcDbEntity
  8
laser
  6
ByBlock
 62
  256
370
   -1
100
AcDbLine
 10
3934.183146512556
 20
3425.242696292391
 11
3831.74957007683
 21
3434.952598630608
  0
LINE
  5
48D
100
AcDbEntity
  8
laser
  6
ByBlock
 62
  256
370
   -1
100
AcDbLine
 10
3831.74957007683
 20
3434.952598630608
 11
3831.907060329942
 21
3437.448876614571
  0
LINE
  5
48E
100
AcDbEntity
  8
laser
  6
ByBlock
 62
  256
370
   -1
100
AcDbLine
 10
3831.907060329942
 20
3437.448876614571
 11
3934.419069391498
 21
3427.731539476521
  0
LINE
  5
48F
100
AcDbEntity
  8
laser
  6
ByBlock
 62
  256
370
   -1
100
AcDbLine
 10
3934.419069391498
 20
3427.731539476521
 11
3942.687393623388
 21
3514.957341827695
  0
LINE
  5
490
100
AcDbEntity
  8
laser
  6
ByBlock
 62
  256
370
   -1
100
AcDbLine
 10
3942.687393623388
 20
3514.957341827695
 11
3837.426577902503
 21
3524.935244350041
  0
LINE
  5
491
100
AcDbEntity
  8
laser
  6
ByBlock
 62
  256
370
   -1
100
AcDbLine
 10
3730.710824318325
 20
3535.051063608796
 11
3834.936499174433
 21
3525.17128434889
  0
LINE
  5
492
100
AcDbEntity
  8
laser
  6
ByBlock
 62
  256
370
   -1
100
AcDbLine
 10
3829.416981601872
 20
3437.684916613421
 11
3829.259491348761
 21
3435.188638629458
  0
LINE
  5
493
100
AcDbEntity
  8
laser
  6
ByBlock
 62
  256
370
   -1
100
AcDbLine
 10
3829.259491348761
 20
3435.188638629458
 11
3727.866676893487
 21
3444.799884867409
  0
LINE
  5
494
100
AcDbEntity
  8
laser
  6
ByBlock
 62
  256
370
   -1
100
AcDbLine
 10
3727.866676893487
 20
3444.799884867409
 11
3727.945578581062
 21
3447.30361243307
  0
LINE
  5
495
100
AcDbEntity
  8
laser
  6
ByBlock
 62
  256
370
   -1
100
AcDbLine
 10
3727.945578581062
 20
3447.30361243307
 11
3829.41698160187
 21
3437.684916613422
  0
LINE
  5
496
100
AcDbEntity
  8
laser
  6
ByBlock
 62
  256
370
   -1
100
AcDbLine
 10
3724.505760331066
 20
3338.150461999614
 11
3822.550996050779
 21
3328.856540058273
  0
LINE
  5
497
100
AcDbEntity
  8
laser
  6
ByBlock
 62
  256
370
   -1
100
AcDbLine
 10
3822.550996050779
 20
3328.856540058273
 11
3822.393505797667
 21
3326.360262074311
  0
LINE
  5
498
100
AcDbEntity
  8
laser
  6
ByBlock
 62
  256
370
   -1
100
AcDbLine
 10
3822.393505797667
 20
3326.360262074311
 11
3724.426858643491
 21
3335.646734433953
  0
LINE
  5
499
100
AcDbEntity
  8
laser
  6
ByBlock
 62
  256
370
   -1
100
AcDbLine
 10
3724.426858643491
 20
3335.646734433953
 11
3724.505760331066
 21
3338.150461999614
  0
LINE
  5
49A
100
AcDbEntity
  8
laser
  6
ByBlock
 62
  256
370
   -1
100
AcDbLine
 10
3721.661612906228
 20
3247.899283258228
 11
3816.873988225107
 21
3238.873894338842
  0
LINE
  5
49B
100
AcDbEntity
  8
laser
  6
ByBlock
 62
  256
370
   -1
100
AcDbLine
 10
3816.873988225107
 20
3238.873894338842
 11
3816.716497971995
 21
3236.37761635488
  0
LINE
  5
49C
100
AcDbEntity
  8
laser
  6
ByBlock
 62
  256
370
   -1
100
AcDbLine
 10
3816.716497971995
 20
3236.37761635488
 11
3721.582711218653
 21
3245.395555692568
  0
LINE
  5
49D
100
AcDbEntity
  8
laser
  6
ByBlock
 62
  256
370
   -1
100
AcDbLine
 10
3721.582711218653
 20
3245.395555692568
 11
3721.661612906228
 21
3247.899283258228
  0
LINE
  5
49E
100
AcDbEntity
  8
laser
  6
ByBlock
 62
  256
370
   -1
100
AcDbLine
 10
3718.221794656232
 20
3138.746132824772
 11
3810.008002674013
 21
3130.045517783695
  0
LINE
  5
49F
100
AcDbEntity
  8
laser
  6
ByBlock
 62
  256
370
   -1
100
AcDbLine
 10
3810.008002674013
 20
3130.045517783695
 11
3809.850512420901
 21
3127.549239799732
  0
LINE
  5
4A0
100
AcDbEntity
  8
laser
  6
ByBlock
 62
  256
370
   -1
100
AcDbLine
 10
3809.850512420901
 20
3127.549239799732
 11
3718.142892968657
 21
3136.242405259111
  0
LINE
  5
4A1
100
AcDbEntity
  8
laser
  6
ByBlock
 62
  256
370
   -1
100
AcDbLine
 10
3718.142892968657
 20
3136.242405259111
 11
3718.221794656232
 21
3138.746132824772
  0
LINE
  5
4A2
100
AcDbEntity
  8
laser
  6
ByBlock
 62
  256
370
   -1
100
AcDbLine
 10
3715.377647231394
 20
3048.494954083386
 11
3804.330994848341
 21
3040.062872064264
  0
LINE
  5
4A3
100
AcDbEntity
  8
laser
  6
ByBlock
 62
  256
370
   -1
100
AcDbLine
 10
3712.883855730541
 20
3048.731346024073
 11
3622.886918064293
 21
3057.262352222283
  0
LINE
  5
4A4
100
AcDbEntity
  8
laser
  6
ByBlock
 62
  256
370
   -1
100
AcDbLine
 10
3622.886918064293
 20
3057.262352222283
 11
3574.088888380296
 21
3106.060381906279
  0
LINE
  5
4A5
100
AcDbEntity
  8
laser
  6
ByBlock
 62
  256
370
   -1
100
AcDbLine
 10
3574.088888380296
 20
3106.060381906279
 11
3572.32112142733
 21
3104.292614953313
  0
LINE
  5
4A6
100
AcDbEntity
  8
laser
  6
ByBlock
 62
  256
370
   -1
100
AcDbLine
 10
3572.32112142733
 20
3104.292614953313
 11
3619.460267452461
 21
3057.153468928181
  0
LINE
  5
4A7
100
AcDbEntity
  8
laser
  6
ByBlock
 62
  256
370
   -1
100
AcDbLine
 10
3619.460267452461
 20
3057.153468928181
 11
3518.734077998993
 21
3051.561027232854
  0
LINE
  5
4A8
100
AcDbEntity
  8
laser
  6
ByBlock
 62
  256
370
   -1
100
AcDbLine
 10
3572.32112142733
 20
3107.828148859246
 11
3525.661095200345
 21
3154.488175086231
  0
LINE
  5
4A9
100
AcDbEntity
  8
laser
  6
ByBlock
 62
  256
370
   -1
100
AcDbLine
 10
3525.661095200345
 20
3154.488175086231
 11
3715.649101467803
 21
3136.478797199798
  0
LINE
  5
4AA
100
AcDbEntity
  8
laser
  6
ByBlock
 62
  256
370
   -1
100
AcDbLine
 10
3715.649101467803
 20
3136.478797199798
 11
3715.728003155378
 21
3138.982524765459
  0
LINE
  5
4AB
100
AcDbEntity
  8
laser
  6
ByBlock
 62
  256
370
   -1
100
AcDbLine
 10
3715.728003155378
 20
3138.982524765459
 11
3525.082714370665
 21
3157.054207896649
  0
LINE
  5
4AC
100
AcDbEntity
  8
laser
  6
ByBlock
 62
  256
370
   -1
100
AcDbLine
 10
3525.082714370665
 20
3157.054207896649
 11
3572.321121427329
 21
3204.292614953313
  0
LINE
  5
4AD
100
AcDbEntity
  8
laser
  6
ByBlock
 62
  256
370
   -1
100
AcDbLine
 10
3572.321121427329
 20
3204.292614953313
 11
3570.553354474363
 21
3206.060381906279
  0
LINE
  5
4AE
100
AcDbEntity
  8
laser
  6
ByBlock
 62
  256
370
   -1
100
AcDbLine
 10
3570.553354474363
 20
3206.060381906279
 11
3521.774955837011
 21
3157.281983268927
  0
LINE
  5
4AF
100
AcDbEntity
  8
laser
  6
ByBlock
 62
  256
370
   -1
100
AcDbLine
 10
3410.144090652413
 20
3151.084100589843
 11
3410.236525857834
 21
3148.585382412479
  0
LINE
  5
4B0
100
AcDbEntity
  8
laser
  6
ByBlock
 62
  256
370
   -1
100
AcDbLine
 10
3521.832413296475
 20
3154.781323084167
 11
3570.553354474363
 21
3106.060381906279
  0
LINE
  5
4B1
100
AcDbEntity
  8
laser
  6
ByBlock
 62
  256
370
   -1
100
AcDbLine
 10
3570.553354474363
 20
3106.060381906279
 11
3572.32112142733
 21
3107.828148859246
  0
LINE
  5
4B2
100
AcDbEntity
  8
laser
  6
ByBlock
 62
  256
370
   -1
100
AcDbLine
 10
3572.32112142733
 20
3207.828148859246
 11
3574.088888380296
 21
3206.06038190628
  0
LINE
  5
4B3
100
AcDbEntity
  8
laser
  6
ByBlock
 62
  256
370
   -1
100
AcDbLine
 10
3574.088888380296
 20
3206.06038190628
 11
3622.788939472077
 21
3254.760432998061
  0
LINE
  5
4B4
100
AcDbEntity
  8
laser
  6
ByBlock
 62
  256
370
   -1
100
AcDbLine
 10
3622.788939472077
 20
3254.760432998061
 11
3719.088919717799
 21
3245.631947633255
  0
LINE
  5
4B5
100
AcDbEntity
  8
laser
  6
ByBlock
 62
  256
370
   -1
100
AcDbLine
 10
3719.088919717799
 20
3245.631947633255
 11
3719.167821405375
 21
3248.135675198915
  0
LINE
  5
4B6
100
AcDbEntity
  8
laser
  6
ByBlock
 62
  256
370
   -1
100
AcDbLine
 10
3719.167821405375
 20
3248.135675198915
 11
3622.886918064292
 21
3257.262352222283
  0
LINE
  5
4B7
100
AcDbEntity
  8
laser
  6
ByBlock
 62
  256
370
   -1
100
AcDbLine
 10
3622.886918064292
 20
3257.262352222283
 11
3574.088888380296
 21
3306.060381906279
  0
LINE
  5
4B8
100
AcDbEntity
  8
laser
  6
ByBlock
 62
  256
370
   -1
100
AcDbLine
 10
3574.088888380296
 20
3306.060381906279
 11
3572.32112142733
 21
3304.292614953313
  0
LINE
  5
4B9
100
AcDbEntity
  8
laser
  6
ByBlock
 62
  256
370
   -1
100
AcDbLine
 10
3572.32112142733
 20
3304.292614953313
 11
3619.460267452462
 21
3257.153468928181
  0
LINE
  5
4BA
100
AcDbEntity
  8
laser
  6
ByBlock
 62
  256
370
   -1
100
AcDbLine
 10
3619.460267452462
 20
3257.153468928181
 11
3515.039830297017
 21
3251.355918065184
  0
LINE
  5
4BB
100
AcDbEntity
  8
laser
  6
ByBlock
 62
  256
370
   -1
100
AcDbLine
 10
3515.039830297017
 20
3251.355918065184
 11
3515.086079512981
 21
3248.854635584985
  0
LINE
  5
4BC
100
AcDbEntity
  8
laser
  6
ByBlock
 62
  256
370
   -1
100
AcDbLine
 10
3515.086079512981
 20
3248.854635584985
 11
3619.123916590012
 21
3254.630944021927
  0
LINE
  5
4BD
100
AcDbEntity
  8
laser
  6
ByBlock
 62
  256
370
   -1
100
AcDbLine
 10
3619.123916590012
 20
3254.630944021927
 11
3572.32112142733
 21
3207.828148859246
  0
LINE
  5
4BE
100
AcDbEntity
  8
laser
  6
ByBlock
 62
  256
370
   -1
100
AcDbLine
 10
3570.553354474363
 20
3306.06038190628
 11
3572.321121427329
 21
3307.828148859246
  0
LINE
  5
4BF
100
AcDbEntity
  8
laser
  6
ByBlock
 62
  256
370
   -1
100
AcDbLine
 10
3572.321121427329
 20
3307.828148859246
 11
3525.661095200344
 21
3354.488175086231
  0
LINE
  5
4C0
100
AcDbEntity
  8
laser
  6
ByBlock
 62
  256
370
   -1
100
AcDbLine
 10
3525.661095200344
 20
3354.488175086231
 11
3721.933067142637
 21
3335.883126374641
  0
LINE
  5
4C1
100
AcDbEntity
  8
laser
  6
ByBlock
 62
  256
370
   -1
100
AcDbLine
 10
3721.933067142637
 20
3335.883126374641
 11
3722.011968830212
 21
3338.386853940302
  0
LINE
  5
4C2
100
AcDbEntity
  8
laser
  6
ByBlock
 62
  256
370
   -1
100
AcDbLine
 10
3722.011968830212
 20
3338.386853940302
 11
3525.082714370665
 21
3357.054207896649
  0
LINE
  5
4C3
100
AcDbEntity
  8
laser
  6
ByBlock
 62
  256
370
   -1
100
AcDbLine
 10
3525.082714370665
 20
3357.054207896649
 11
3572.32112142733
 21
3404.292614953313
  0
LINE
  5
4C4
100
AcDbEntity
  8
laser
  6
ByBlock
 62
  256
370
   -1
100
AcDbLine
 10
3572.32112142733
 20
3404.292614953313
 11
3570.553354474363
 21
3406.060381906279
  0
LINE
  5
4C5
100
AcDbEntity
  8
laser
  6
ByBlock
 62
  256
370
   -1
100
AcDbLine
 10
3570.553354474363
 20
3406.060381906279
 11
3521.774955837011
 21
3357.281983268927
  0
LINE
  5
4C6
100
AcDbEntity
  8
laser
  6
ByBlock
 62
  256
370
   -1
100
AcDbLine
 10
3402.760645590779
 20
3350.674162655709
 11
3402.8530807962
 21
3348.175444478344
  0
LINE
  5
4C7
100
AcDbEntity
  8
laser
  6
ByBlock
 62
  256
370
   -1
100
AcDbLine
 10
3521.832413296476
 20
3354.781323084167
 11
3570.553354474363
 21
3306.06038190628
  0
LINE
  5
4C8
100
AcDbEntity
  8
laser
  6
ByBlock
 62
  256
370
   -1
100
AcDbLine
 10
3572.32112142733
 20
3407.828148859246
 11
3574.088888380295
 21
3406.060381906279
  0
LINE
  5
4C9
100
AcDbEntity
  8
laser
  6
ByBlock
 62
  256
370
   -1
100
AcDbLine
 10
3574.088888380295
 20
3406.060381906279
 11
3622.788939472077
 21
3454.76043299806
  0
LINE
  5
4CA
100
AcDbEntity
  8
laser
  6
ByBlock
 62
  256
370
   -1
100
AcDbLine
 10
3622.788939472077
 20
3454.76043299806
 11
3725.372885392633
 21
3445.036276808096
  0
LINE
  5
4CB
100
AcDbEntity
  8
laser
  6
ByBlock
 62
  256
370
   -1
100
AcDbLine
 10
3725.372885392633
 20
3445.036276808096
 11
3725.451787080208
 21
3447.540004373757
  0
LINE
  5
4CC
100
AcDbEntity
  8
laser
  6
ByBlock
 62
  256
370
   -1
100
AcDbLine
 10
3725.451787080208
 20
3447.540004373757
 11
3622.886918064292
 21
3457.262352222283
  0
LINE
  5
4CD
100
AcDbEntity
  8
laser
  6
ByBlock
 62
  256
370
   -1
100
AcDbLine
 10
3622.886918064292
 20
3457.262352222283
 11
3574.088888380295
 21
3506.060381906279
  0
LINE
  5
4CE
100
AcDbEntity
  8
laser
  6
ByBlock
 62
  256
370
   -1
100
AcDbLine
 10
3574.088888380295
 20
3506.060381906279
 11
3572.32112142733
 21
3504.292614953313
  0
LINE
  5
4CF
100
AcDbEntity
  8
laser
  6
ByBlock
 62
  256
370
   -1
100
AcDbLine
 10
3572.32112142733
 20
3504.292614953313
 11
3619.460267452461
 21
3457.153468928181
  0
LINE
  5
4D0
100
AcDbEntity
  8
laser
  6
ByBlock
 62
  256
370
   -1
100
AcDbLine
 10
3619.460267452461
 20
3457.153468928181
 11
3511.345582595042
 21
3451.150808897514
  0
LINE
  5
4D1
100
AcDbEntity
  8
laser
  6
ByBlock
 62
  256
370
   -1
100
AcDbLine
 10
3511.345582595042
 20
3451.150808897514
 11
3511.391831811005
 21
3448.649526417314
  0
LINE
  5
4D2
100
AcDbEntity
  8
laser
  6
ByBlock
 62
  256
370
   -1
100
AcDbLine
 10
3511.391831811005
 20
3448.649526417314
 11
3619.123916590011
 21
3454.630944021927
  0
LINE
  5
4D3
100
AcDbEntity
  8
laser
  6
ByBlock
 62
  256
370
   -1
100
AcDbLine
 10
3619.123916590011
 20
3454.630944021927
 11
3521.774955837011
 21
3357.281983268927
  0
LINE
  5
4D4
100
AcDbEntity
  8
laser
  6
ByBlock
 62
  256
370
   -1
100
AcDbLine
 10
3728.217032817471
 20
3535.287455549483
 11
3525.661095200344
 21
3554.488175086231
  0
LINE
  5
4D5
100
AcDbEntity
  8
laser
  6
ByBlock
 62
  256
370
   -1
100
AcDbLine
 10
3525.661095200344
 20
3554.488175086231
 11
3572.32112142733
 21
3507.828148859246
  0
LINE
  5
4D6
100
AcDbEntity
  8
laser
  6
ByBlock
 62
  256
370
   -1
100
AcDbLine
 10
3572.32112142733
 20
3507.828148859246
 11
3570.553354474363
 21
3506.060381906279
  0
LINE
  5
4D7
100
AcDbEntity
  8
laser
  6
ByBlock
 62
  256
370
   -1
100
AcDbLine
 10
3570.553354474363
 20
3506.060381906279
 11
3521.832413296476
 21
3554.781323084167
  0
LINE
  5
4D8
100
AcDbEntity
  8
laser
  6
ByBlock
 62
  256
370
   -1
100
AcDbLine
 10
3521.832413296476
 20
3554.781323084167
 11
3509.442153376182
 21
3554.093400642444
  0
LINE
  5
4D9
100
AcDbEntity
  8
laser
  6
ByBlock
 62
  256
370
   -1
100
AcDbLine
 10
3521.774955837011
 20
3157.281983268927
 11
3516.78439956417
 21
3157.004901457984
  0
LINE
  5
4DA
100
AcDbEntity
  8
laser
  6
ByBlock
 62
  256
370
   -1
100
AcDbLine
 10
3516.78439956417
 20
3157.004901457984
 11
3516.830648780133
 21
3154.503618977785
  0
LINE
  5
4DB
100
AcDbEntity
  8
laser
  6
ByBlock
 62
  256
370
   -1
100
AcDbLine
 10
3516.830648780133
 20
3154.503618977785
 11
3521.832413296475
 21
3154.781323084167
  0
LINE
  5
4DC
100
AcDbEntity
  8
laser
  6
ByBlock
 62
  256
370
   -1
100
AcDbLine
 10
3521.774955837011
 20
3357.281983268927
 11
3513.090151862195
 21
3356.799792290314
  0
LINE
  5
4DD
100
AcDbEntity
  8
laser
  6
ByBlock
 62
  256
370
   -1
100
AcDbLine
 10
3513.090151862195
 20
3356.799792290314
 11
3513.136401078158
 21
3354.298509810114
  0
LINE
  5
4DE
100
AcDbEntity
  8
laser
  6
ByBlock
 62
  256
370
   -1
100
AcDbLine
 10
3513.136401078158
 20
3354.298509810114
 11
3521.832413296476
 21
3354.781323084167
  0
LINE
  5
4DF
100
AcDbEntity
  8
laser
  6
ByBlock
 62
  256
370
   -1
100
AcDbLine
 10
3516.23621497893
 20
3051.42234281147
 11
3414.0407821503
 21
3045.748326920233
  0
LINE
  5
4E0
100
AcDbEntity
  8
laser
  6
ByBlock
 62
  256
370
   -1
100
AcDbLine
 10
3410.144090652413
 20
3151.084100589843
 11
3410.236525857834
 21
3148.585382412479
  0
LINE
  5
4E1
100
AcDbEntity
  8
laser
  6
ByBlock
 62
  256
370
   -1
100
AcDbLine
 10
3410.236525857834
 20
3148.585382412479
 11
3514.332785760071
 21
3154.3649345564
  0
LINE
  5
4E2
100
AcDbEntity
  8
laser
  6
ByBlock
 62
  256
370
   -1
100
AcDbLine
 10
3514.332785760071
 20
3154.3649345564
 11
3514.286536544107
 21
3156.866217036599
  0
LINE
  5
4E3
100
AcDbEntity
  8
laser
  6
ByBlock
 62
  256
370
   -1
100
AcDbLine
 10
3514.286536544107
 20
3156.866217036599
 11
3410.144090652413
 21
3151.084100589843
  0
LINE
  5
4E4
100
AcDbEntity
  8
laser
  6
ByBlock
 62
  256
370
   -1
100
AcDbLine
 10
3406.657337088664
 20
3245.338388986097
 11
3406.749772294084
 21
3242.839670808733
  0
LINE
  5
4E5
100
AcDbEntity
  8
laser
  6
ByBlock
 62
  256
370
   -1
100
AcDbLine
 10
3406.749772294084
 20
3242.839670808733
 11
3512.588216492918
 21
3248.7159511636
  0
LINE
  5
4E6
100
AcDbEntity
  8
laser
  6
ByBlock
 62
  256
370
   -1
100
AcDbLine
 10
3512.588216492918
 20
3248.7159511636
 11
3512.541967276954
 21
3251.217233643799
  0
LINE
  5
4E7
100
AcDbEntity
  8
laser
  6
ByBlock
 62
  256
370
   -1
100
AcDbLine
 10
3512.541967276954
 20
3251.217233643799
 11
3406.657337088664
 21
3245.338388986097
  0
LINE
  5
4E8
100
AcDbEntity
  8
laser
  6
ByBlock
 62
  256
370
   -1
100
AcDbLine
 10
3402.760645590779
 20
3350.674162655709
 11
3402.8530807962
 21
3348.175444478344
  0
LINE
  5
4E9
100
AcDbEntity
  8
laser
  6
ByBlock
 62
  256
370
   -1
100
AcDbLine
 10
3402.8530807962
 20
3348.175444478344
 11
3510.638538058095
 21
3354.15982538873
  0
LINE
  5
4EA
100
AcDbEntity
  8
laser
  6
ByBlock
 62
  256
370
   -1
100
AcDbLine
 10
3510.638538058095
 20
3354.15982538873
 11
3510.592288842132
 21
3356.66110786893
  0
LINE
  5
4EB
100
AcDbEntity
  8
laser
  6
ByBlock
 62
  256
370
   -1
100
AcDbLine
 10
3510.592288842132
 20
3356.66110786893
 11
3402.760645590779
 21
3350.674162655709
  0
LINE
  5
4EC
100
AcDbEntity
  8
laser
  6
ByBlock
 62
  256
370
   -1
100
AcDbLine
 10
3399.273892027029
 20
3444.928451051962
 11
3399.366327232451
 21
3442.429732874597
  0
LINE
  5
4ED
100
AcDbEntity
  8
laser
  6
ByBlock
 62
  256
370
   -1
100
AcDbLine
 10
3399.366327232451
 20
3442.429732874597
 11
3508.893968790942
 21
3448.510841995929
  0
LINE
  5
4EE
100
AcDbEntity
  8
laser
  6
ByBlock
 62
  256
370
   -1
100
AcDbLine
 10
3508.893968790942
 20
3448.510841995929
 11
3508.847719574979
 21
3451.012124476129
  0
LINE
  5
4EF
100
AcDbEntity
  8
laser
  6
ByBlock
 62
  256
370
   -1
100
AcDbLine
 10
3508.847719574979
 20
3451.012124476129
 11
3399.273892027032
 21
3444.928451051962
  0
LINE
  5
4F0
100
AcDbEntity
  8
laser
  6
ByBlock
 62
  256
370
   -1
100
AcDbLine
 10
3395.469635734567
 20
3547.76550654421
 11
3506.94429035612
 21
3553.95471622106
  0
LINE
  5
4F1
100
AcDbEntity
  8
laser
  6
ByBlock
 62
  256
370
   -1
100
AcDbLine
 10
3411.544199857177
 20
3045.60971360638
 11
3414.0407821503
 21
3045.748326920233
  0
LINE
  5
4F2
100
AcDbEntity
  8
laser
  6
ByBlock
 62
  256
370
   -1
100
AcDbLine
 10
3715.377647231394
 20
3048.494954083386
 11
3712.883855730541
 21
3048.731346024073
  0
LINE
  5
4F3
100
AcDbEntity
  8
laser
  6
ByBlock
 62
  256
370
   -1
100
AcDbLine
 10
3806.821073576411
 20
3039.826832065414
 11
3804.330994848341
 21
3040.062872064264
  0
LINE
  5
4F4
100
AcDbEntity
  8
laser
  6
ByBlock
 62
  256
370
   -1
100
AcDbLine
 10
3834.936499174433
 20
3525.17128434889
 11
3837.426577902503
 21
3524.935244350041
  0
LINE
  5
4F5
100
AcDbEntity
  8
laser
  6
ByBlock
 62
  256
370
   -1
100
AcDbLine
 10
3730.710824318325
 20
3535.051063608796
 11
3728.217032817471
 21
3535.287455549483
  0
LINE
  5
4F6
100
AcDbEntity
  8
laser
  6
ByBlock
 62
  256
370
   -1
100
AcDbLine
 10
3506.94429035612
 20
3553.95471622106
 11
3509.442153376182
 21
3554.093400642444
  0
LINE
  5
4F7
100
AcDbEntity
  8
laser
  6
ByBlock
 62
  256
370
   -1
100
AcDbLine
 10
3392.973053441447
 20
3547.626893230357
 11
3395.469635734567
 21
3547.76550654421
  0
LINE
  5
4F8
100
AcDbEntity
  8
laser
  6
ByBlock
 62
  256
370
   -1
100
AcDbLine
 10
3518.734077998993
 20
3051.561027232854
 11
3516.23621497893
 21
3051.42234281147
  0
LINE
  5
4F9
100
AcDbEntity
  8
laser
  6
ByBlock
 62
  256
370
   -1
100
AcDbLine
 10
3457.000959967329
 20
2652.238630092103
 11
3353.674311809885
 21
2646.501807737069
  0
LINE
  5
4FA
100
AcDbEntity
  8
laser
  6
ByBlock
 62
  256
370
   -1
100
AcDbLine
 10
3358.763469190335
 20
2554.840337061363
 11
3460.395278325657
 21
2560.483059873213
  0
LINE
  5
4FB
100
AcDbEntity
  8
laser
  6
ByBlock
 62
  256
370
   -1
100
AcDbLine
 10
3460.395278325657
 20
2560.483059873213
 11
3460.487713531078
 21
2557.984341695849
  0
LINE
  5
4FC
100
AcDbEntity
  8
laser
  6
ByBlock
 62
  256
370
   -1
100
AcDbLine
 10
3460.487713531078
 20
2557.984341695849
 11
3358.90205881518
 21
2552.344181434026
  0
LINE
  5
4FD
100
AcDbEntity
  8
laser
  6
ByBlock
 62
  256
370
   -1
100
AcDbLine
 10
3364.605842887293
 20
2449.612590056068
 11
3464.291969823541
 21
2455.147286203602
  0
LINE
  5
4FE
100
AcDbEntity
  8
laser
  6
ByBlock
 62
  256
370
   -1
100
AcDbLine
 10
3464.291969823541
 20
2455.147286203602
 11
3464.384405028963
 21
2452.648568026238
  0
LINE
  5
4FF
100
AcDbEntity
  8
laser
  6
ByBlock
 62
  256
370
   -1
100
AcDbLine
 10
3464.384405028963
 20
2452.648568026238
 11
3364.744432512137
 21
2447.116434428731
  0
LINE
  5
500
100
AcDbEntity
  8
laser
  6
ByBlock
 62
  256
370
   -1
100
AcDbLine
 10
3364.744432512137
 20
2447.116434428731
 11
3369.833589892587
 21
2355.454963753025
  0
LINE
  5
501
100
AcDbEntity
  8
laser
  6
ByBlock
 62
  256
370
   -1
100
AcDbLine
 10
3369.833589892587
 20
2355.454963753025
 11
3467.77872338729
 21
2360.892997807348
  0
LINE
  5
502
100
AcDbEntity
  8
laser
  6
ByBlock
 62
  256
370
   -1
100
AcDbLine
 10
3467.77872338729
 20
2360.892997807348
 11
3467.871158592712
 21
2358.394279629984
  0
LINE
  5
503
100
AcDbEntity
  8
laser
  6
ByBlock
 62
  256
370
   -1
100
AcDbLine
 10
3467.871158592712
 20
2358.394279629984
 11
3369.972179517431
 21
2352.958808125689
  0
LINE
  5
504
100
AcDbEntity
  8
laser
  6
ByBlock
 62
  256
370
   -1
100
AcDbLine
 10
3369.972179517431
 20
2352.958808125689
 11
3375.675963589545
 21
2250.22721674773
  0
LINE
  5
505
100
AcDbEntity
  8
laser
  6
ByBlock
 62
  256
370
   -1
100
AcDbLine
 10
3375.675963589545
 20
2250.22721674773
 11
3471.675414885175
 21
2255.557224137736
  0
LINE
  5
506
100
AcDbEntity
  8
laser
  6
ByBlock
 62
  256
370
   -1
100
AcDbLine
 10
3471.675414885175
 20
2255.557224137736
 11
3471.767850090596
 21
2253.058505960372
  0
LINE
  5
507
100
AcDbEntity
  8
laser
  6
ByBlock
 62
  256
370
   -1
100
AcDbLine
 10
3471.767850090596
 20
2253.058505960372
 11
3375.814553214389
 21
2247.731061120394
  0
LINE
  5
508
100
AcDbEntity
  8
laser
  6
ByBlock
 62
  256
370
   -1
100
AcDbLine
 10
3375.814553214389
 20
2247.731061120394
 11
3380.903710594839
 21
2156.069590444688
  0
LINE
  5
509
100
AcDbEntity
  8
laser
  6
ByBlock
 62
  256
370
   -1
100
AcDbLine
 10
3380.903710594839
 20
2156.069590444688
 11
3475.162168448924
 21
2161.302935741483
  0
LINE
  5
50A
100
AcDbEntity
  8
laser
  6
ByBlock
 62
  256
370
   -1
100
AcDbLine
 10
3475.162168448924
 20
2161.302935741483
 11
3475.254603654345
 21
2158.804217564119
  0
LINE
  5
50B
100
AcDbEntity
  8
laser
  6
ByBlock
 62
  256
370
   -1
100
AcDbLine
 10
3475.254603654345
 20
2158.804217564119
 11
3381.042300219684
 21
2153.573434817351
  0
LINE
  5
50C
100
AcDbEntity
  8
laser
  6
ByBlock
 62
  256
370
   -1
100
AcDbLine
 10
3381.042300219684
 20
2153.573434817351
 11
3386.447295588608
 21
2056.223365351213
  0
LINE
  5
50D
100
AcDbEntity
  8
laser
  6
ByBlock
 62
  256
370
   -1
100
AcDbLine
 10
3386.447295588608
 20
2056.223365351213
 11
3478.85957666577
 21
2061.354208646888
  0
LINE
  5
50E
100
AcDbEntity
  8
laser
  6
ByBlock
 62
  256
370
   -1
100
AcDbLine
 10
3478.85957666577
 20
2061.354208646888
 11
3478.952011871192
 21
2058.855490469523
  0
LINE
  5
50F
100
AcDbEntity
  8
laser
  6
ByBlock
 62
  256
370
   -1
100
AcDbLine
 10
3478.952011871192
 20
2058.855490469523
 11
3386.585885213452
 21
2053.727209723877
  0
LINE
  5
510
100
AcDbEntity
  8
laser
  6
ByBlock
 62
  256
370
   -1
100
AcDbLine
 10
3386.585885213452
 20
2053.727209723877
 11
3388.17966589916
 21
2025.021420009502
  0
LINE
  5
511
100
AcDbEntity
  8
laser
  6
ByBlock
 62
  256
370
   -1
100
AcDbLine
 10
3604.845974352001
 20
2037.050999445979
 11
3603.252193666292
 21
2065.756789160353
  0
LINE
  5
512
100
AcDbEntity
  8
laser
  6
ByBlock
 62
  256
370
   -1
100
AcDbLine
 10
3603.252193666292
 20
2065.756789160353
 11
3574.546403951918
 21
2064.163008474645
  0
LINE
  5
513
100
AcDbEntity
  8
laser
  6
ByBlock
 62
  256
370
   -1
100
AcDbLine
 10
3574.546403951918
 20
2064.163008474645
 11
3575.239352076139
 21
2051.682230337961
  0
LINE
  5
514
100
AcDbEntity
  8
laser
  6
ByBlock
 62
  256
370
   -1
100
AcDbLine
 10
3575.239352076139
 20
2051.682230337961
 11
3572.861068489075
 21
2051.550185113499
  0
LINE
  5
515
100
AcDbEntity
  8
laser
  6
ByBlock
 62
  256
370
   -1
100
AcDbLine
 10
3572.861068489075
 20
2051.550185113499
 11
3572.743196448802
 21
2051.543640713116
  0
LINE
  5
516
100
AcDbEntity
  8
laser
  6
ByBlock
 62
  256
370
   -1
100
AcDbLine
 10
3572.743196448802
 20
2051.543640713116
 11
3572.050248324581
 21
2064.024418849801
  0
LINE
  5
517
100
AcDbEntity
  8
laser
  6
ByBlock
 62
  256
370
   -1
100
AcDbLine
 10
3572.050248324581
 20
2064.024418849801
 11
3481.448594164311
 21
2058.994103783375
  0
LINE
  5
518
100
AcDbEntity
  8
laser
  6
ByBlock
 62
  256
370
   -1
100
AcDbLine
 10
3481.448594164311
 20
2058.994103783375
 11
3481.35615895889
 21
2061.49282196074
  0
LINE
  5
519
100
AcDbEntity
  8
laser
  6
ByBlock
 62
  256
370
   -1
100
AcDbLine
 10
3481.35615895889
 20
2061.49282196074
 11
3571.911658699737
 21
2066.520574477138
  0
LINE
  5
51A
100
AcDbEntity
  8
laser
  6
ByBlock
 62
  256
370
   -1
100
AcDbLine
 10
3571.911658699737
 20
2066.520574477138
 11
3570.119433591677
 21
2098.800572305028
  0
LINE
  5
51B
100
AcDbEntity
  8
laser
  6
ByBlock
 62
  256
370
   -1
100
AcDbLine
 10
3570.119433591677
 20
2098.800572305028
 11
3572.615589219014
 21
2098.939161929873
  0
LINE
  5
51C
100
AcDbEntity
  8
laser
  6
ByBlock
 62
  256
370
   -1
100
AcDbLine
 10
3572.615589219014
 20
2098.939161929873
 11
3574.407814327074
 21
2066.659164101982
  0
LINE
  5
51D
100
AcDbEntity
  8
laser
  6
ByBlock
 62
  256
370
   -1
100
AcDbLine
 10
3574.407814327074
 20
2066.659164101982
 11
3603.113604041449
 21
2068.25294478769
  0
LINE
  5
51E
100
AcDbEntity
  8
laser
  6
ByBlock
 62
  256
370
   -1
100
AcDbLine
 10
3603.113604041449
 20
2068.25294478769
 11
3599.678831227016
 21
2130.117081435781
  0
LINE
  5
51F
100
AcDbEntity
  8
laser
  6
ByBlock
 62
  256
370
   -1
100
AcDbLine
 10
3599.678831227016
 20
2130.117081435781
 11
3583.594500961252
 21
2146.84202026462
  0
LINE
  5
520
100
AcDbEntity
  8
laser
  6
ByBlock
 62
  256
370
   -1
100
AcDbLine
 10
3585.396440524431
 20
2148.574940865989
 11
3601.480770790195
 21
2131.85000203715
  0
LINE
  5
521
100
AcDbEntity
  8
laser
  6
ByBlock
 62
  256
370
   -1
100
AcDbLine
 10
3601.480770790195
 20
2131.85000203715
 11
3891.390597542647
 21
2104.368816642611
  0
LINE
  5
522
100
AcDbEntity
  8
laser
  6
ByBlock
 62
  256
370
   -1
100
AcDbLine
 10
3891.390597542647
 20
2104.368816642611
 11
3894.10371065048
 21
2132.990513260108
  0
LINE
  5
523
100
AcDbEntity
  8
laser
  6
ByBlock
 62
  256
370
   -1
100
AcDbLine
 10
3894.10371065048
 20
2132.990513260108
 11
3820.075935923404
 21
2140.007767640233
  0
LINE
  5
524
100
AcDbEntity
  8
laser
  6
ByBlock
 62
  256
370
   -1
100
AcDbLine
 10
3820.075935923404
 20
2140.007767640233
 11
3820.233426176516
 21
2142.504045624197
  0
LINE
  5
525
100
AcDbEntity
  8
laser
  6
ByBlock
 62
  256
370
   -1
100
AcDbLine
 10
3820.233426176516
 20
2142.504045624197
 11
3894.339633529423
 21
2135.479356444239
  0
LINE
  5
526
100
AcDbEntity
  8
laser
  6
ByBlock
 62
  256
370
   -1
100
AcDbLine
 10
3894.339633529423
 20
2135.479356444239
 11
3904.389065115177
 21
2241.49476037094
  0
LINE
  5
527
100
AcDbEntity
  8
laser
  6
ByBlock
 62
  256
370
   -1
100
AcDbLine
 10
3904.389065115177
 20
2241.49476037094
 11
3826.941921474498
 21
2248.836144195381
  0
LINE
  5
528
100
AcDbEntity
  8
laser
  6
ByBlock
 62
  256
370
   -1
100
AcDbLine
 10
3826.941921474498
 20
2248.836144195381
 11
3827.09941172761
 21
2251.332422179344
  0
LINE
  5
529
100
AcDbEntity
  8
laser
  6
ByBlock
 62
  256
370
   -1
100
AcDbLine
 10
3827.09941172761
 20
2251.332422179344
 11
3904.624987994119
 21
2243.98360355507
  0
LINE
  5
52A
100
AcDbEntity
  8
laser
  6
ByBlock
 62
  256
370
   -1
100
AcDbLine
 10
3904.624987994119
 20
2243.98360355507
 11
3912.893312226008
 21
2331.209405906243
  0
LINE
  5
52B
100
AcDbEntity
  8
laser
  6
ByBlock
 62
  256
370
   -1
100
AcDbLine
 10
3912.893312226008
 20
2331.209405906243
 11
3832.61892930017
 21
2338.818789914813
  0
LINE
  5
52C
100
AcDbEntity
  8
laser
  6
ByBlock
 62
  256
370
   -1
100
AcDbLine
 10
3832.61892930017
 20
2338.818789914813
 11
3832.776419553282
 21
2341.315067898775
  0
LINE
  5
52D
100
AcDbEntity
  8
laser
  6
ByBlock
 62
  256
370
   -1
100
AcDbLine
 10
3832.776419553282
 20
2341.315067898775
 11
3913.12923510495
 21
2333.698249090373
  0
LINE
  5
52E
100
AcDbEntity
  8
laser
  6
ByBlock
 62
  256
370
   -1
100
AcDbLine
 10
3913.12923510495
 20
2333.698249090373
 11
3923.178666690704
 21
2439.713653017074
  0
LINE
  5
52F
100
AcDbEntity
  8
laser
  6
ByBlock
 62
  256
370
   -1
100
AcDbLine
 10
3923.178666690704
 20
2439.713653017074
 11
3839.484914851264
 21
2447.64716646996
  0
LINE
  5
530
100
AcDbEntity
  8
laser
  6
ByBlock
 62
  256
370
   -1
100
AcDbLine
 10
3839.484914851264
 20
2447.64716646996
 11
3839.642405104375
 21
2450.143444453922
  0
LINE
  5
531
100
AcDbEntity
  8
laser
  6
ByBlock
 62
  256
370
   -1
100
AcDbLine
 10
3839.642405104375
 20
2450.143444453922
 11
3923.414589569647
 21
2442.202496201204
  0
LINE
  5
532
100
AcDbEntity
  8
laser
  6
ByBlock
 62
  256
370
   -1
100
AcDbLine
 10
3923.414589569647
 20
2442.202496201204
 11
3931.682913801536
 21
2529.428298552377
  0
LINE
  5
533
100
AcDbEntity
  8
laser
  6
ByBlock
 62
  256
370
   -1
100
AcDbLine
 10
3931.682913801536
 20
2529.428298552377
 11
3845.161922676936
 21
2537.629812189391
  0
LINE
  5
534
100
AcDbEntity
  8
laser
  6
ByBlock
 62
  256
370
   -1
100
AcDbLine
 10
3845.161922676936
 20
2537.629812189391
 11
3845.319412930048
 21
2540.126090173354
  0
LINE
  5
535
100
AcDbEntity
  8
laser
  6
ByBlock
 62
  256
370
   -1
100
AcDbLine
 10
3845.319412930048
 20
2540.126090173354
 11
3931.918836680477
 21
2531.917141736508
  0
LINE
  5
536
100
AcDbEntity
  8
laser
  6
ByBlock
 62
  256
370
   -1
100
AcDbLine
 10
3931.918836680477
 20
2531.917141736508
 11
3941.968268266232
 21
2637.932545663209
  0
LINE
  5
537
100
AcDbEntity
  8
laser
  6
ByBlock
 62
  256
370
   -1
100
AcDbLine
 10
3941.968268266232
 20
2637.932545663209
 11
3852.027908228029
 21
2646.458188744539
  0
LINE
  5
538
100
AcDbEntity
  8
laser
  6
ByBlock
 62
  256
370
   -1
100
AcDbLine
 10
3849.53782949996
 20
2646.694228743389
 11
3760.663070448549
 21
2655.118861180812
  0
LINE
  5
539
100
AcDbEntity
  8
laser
  6
ByBlock
 62
  256
370
   -1
100
AcDbLine
 10
3757.302153886129
 20
2548.469438313017
 11
3842.829334201978
 21
2540.362130172203
  0
LINE
  5
53A
100
AcDbEntity
  8
laser
  6
ByBlock
 62
  256
370
   -1
100
AcDbLine
 10
3842.829334201978
 20
2540.362130172203
 11
3842.671843948866
 21
2537.865852188241
  0
LINE
  5
53B
100
AcDbEntity
  8
laser
  6
ByBlock
 62
  256
370
   -1
100
AcDbLine
 10
3842.671843948866
 20
2537.865852188241
 11
3757.223252198553
 21
2545.965710747356
  0
LINE
  5
53C
100
AcDbEntity
  8
laser
  6
ByBlock
 62
  256
370
   -1
100
AcDbLine
 10
3757.223252198553
 20
2545.965710747356
 11
3757.302153886129
 21
2548.469438313017
  0
LINE
  5
53D
100
AcDbEntity
  8
laser
  6
ByBlock
 62
  256
370
   -1
100
AcDbLine
 10
3754.45800646129
 20
2458.218259571631
 11
3837.152326376306
 21
2450.379484452772
  0
LINE
  5
53E
100
AcDbEntity
  8
laser
  6
ByBlock
 62
  256
370
   -1
100
AcDbLine
 10
3837.152326376306
 20
2450.379484452772
 11
3836.994836123194
 21
2447.883206468809
  0
LINE
  5
53F
100
AcDbEntity
  8
laser
  6
ByBlock
 62
  256
370
   -1
100
AcDbLine
 10
3836.994836123194
 20
2447.883206468809
 11
3754.379104773715
 21
2455.71453200597
  0
LINE
  5
540
100
AcDbEntity
  8
laser
  6
ByBlock
 62
  256
370
   -1
100
AcDbLine
 10
3754.379104773715
 20
2455.71453200597
 11
3754.45800646129
 21
2458.218259571631
  0
LINE
  5
541
100
AcDbEntity
  8
laser
  6
ByBlock
 62
  256
370
   -1
100
AcDbLine
 10
3751.018188211294
 20
2349.065109138175
 11
3830.286340825212
 21
2341.551107897625
  0
LINE
  5
542
100
AcDbEntity
  8
laser
  6
ByBlock
 62
  256
370
   -1
100
AcDbLine
 10
3830.286340825212
 20
2341.551107897625
 11
3830.1288505721
 21
2339.054829913662
  0
LINE
  5
543
100
AcDbEntity
  8
laser
  6
ByBlock
 62
  256
370
   -1
100
AcDbLine
 10
3830.1288505721
 20
2339.054829913662
 11
3750.939286523719
 21
2346.561381572515
  0
LINE
  5
544
100
AcDbEntity
  8
laser
  6
ByBlock
 62
  256
370
   -1
100
AcDbLine
 10
3750.939286523719
 20
2346.561381572515
 11
3751.018188211294
 21
2349.065109138175
  0
LINE
  5
545
100
AcDbEntity
  8
laser
  6
ByBlock
 62
  256
370
   -1
100
AcDbLine
 10
3748.174040786456
 20
2258.813930396789
 11
3824.60933299954
 21
2251.568462178193
  0
LINE
  5
546
100
AcDbEntity
  8
laser
  6
ByBlock
 62
  256
370
   -1
100
AcDbLine
 10
3824.60933299954
 20
2251.568462178193
 11
3824.451842746428
 21
2249.07218419423
  0
LINE
  5
547
100
AcDbEntity
  8
laser
  6
ByBlock
 62
  256
370
   -1
100
AcDbLine
 10
3824.451842746428
 20
2249.07218419423
 11
3748.095139098881
 21
2256.310202831129
  0
LINE
  5
548
100
AcDbEntity
  8
laser
  6
ByBlock
 62
  256
370
   -1
100
AcDbLine
 10
3748.095139098881
 20
2256.310202831129
 11
3748.174040786456
 21
2258.813930396789
  0
LINE
  5
549
100
AcDbEntity
  8
laser
  6
ByBlock
 62
  256
370
   -1
100
AcDbLine
 10
3744.73422253646
 20
2149.660779963334
 11
3817.743347448446
 21
2142.740085623047
  0
LINE
  5
54A
100
AcDbEntity
  8
laser
  6
ByBlock
 62
  256
370
   -1
100
AcDbLine
 10
3817.743347448446
 20
2142.740085623047
 11
3817.585857195335
 21
2140.243807639083
  0
LINE
  5
54B
100
AcDbEntity
  8
laser
  6
ByBlock
 62
  256
370
   -1
100
AcDbLine
 10
3817.585857195335
 20
2140.243807639083
 11
3744.655320848885
 21
2147.157052397672
  0
LINE
  5
54C
100
AcDbEntity
  8
laser
  6
ByBlock
 62
  256
370
   -1
100
AcDbLine
 10
3744.655320848885
 20
2147.157052397672
 11
3744.73422253646
 21
2149.660779963334
  0
LINE
  5
54D
100
AcDbEntity
  8
laser
  6
ByBlock
 62
  256
370
   -1
100
AcDbLine
 10
3569.980843966833
 20
2101.296727932366
 11
3572.47699959417
 21
2101.43531755721
  0
LINE
  5
54E
100
AcDbEntity
  8
laser
  6
ByBlock
 62
  256
370
   -1
100
AcDbLine
 10
3572.47699959417
 20
2101.43531755721
 11
3569.120333349328
 21
2161.892666695519
  0
LINE
  5
54F
100
AcDbEntity
  8
laser
  6
ByBlock
 62
  256
370
   -1
100
AcDbLine
 10
3569.120333349328
 20
2161.892666695519
 11
3581.861580359883
 21
2148.6439598278
  0
LINE
  5
550
100
AcDbEntity
  8
laser
  6
ByBlock
 62
  256
370
   -1
100
AcDbLine
 10
3583.663519923063
 20
2150.376880429169
 11
3570.922272912508
 21
2163.625587296887
  0
LINE
  5
551
100
AcDbEntity
  8
laser
  6
ByBlock
 62
  256
370
   -1
100
AcDbLine
 10
3570.922272912508
 20
2163.625587296887
 11
3742.161529348031
 21
2147.39344433836
  0
LINE
  5
552
100
AcDbEntity
  8
laser
  6
ByBlock
 62
  256
370
   -1
100
AcDbLine
 10
3742.161529348031
 20
2147.39344433836
 11
3742.240431035606
 21
2149.897171904021
  0
LINE
  5
553
100
AcDbEntity
  8
laser
  6
ByBlock
 62
  256
370
   -1
100
AcDbLine
 10
3742.240431035606
 20
2149.897171904021
 11
3570.447039275396
 21
2166.181842559737
  0
LINE
  5
554
100
AcDbEntity
  8
laser
  6
ByBlock
 62
  256
370
   -1
100
AcDbLine
 10
3570.447039275396
 20
2166.181842559737
 11
3617.68544633206
 21
2213.4202496164
  0
LINE
  5
555
100
AcDbEntity
  8
laser
  6
ByBlock
 62
  256
370
   -1
100
AcDbLine
 10
3617.68544633206
 20
2213.4202496164
 11
3615.917679379093
 21
2215.188016569366
  0
LINE
  5
556
100
AcDbEntity
  8
laser
  6
ByBlock
 62
  256
370
   -1
100
AcDbLine
 10
3615.917679379093
 20
2215.188016569366
 11
3567.139280741741
 21
2166.409617932014
  0
LINE
  5
557
100
AcDbEntity
  8
laser
  6
ByBlock
 62
  256
370
   -1
100
AcDbLine
 10
3567.139280741741
 20
2166.409617932014
 11
3477.658750742044
 21
2161.441549055336
  0
LINE
  5
558
100
AcDbEntity
  8
laser
  6
ByBlock
 62
  256
370
   -1
100
AcDbLine
 10
3477.658750742044
 20
2161.441549055336
 11
3477.751185947465
 21
2158.942830877971
  0
LINE
  5
559
100
AcDbEntity
  8
laser
  6
ByBlock
 62
  256
370
   -1
100
AcDbLine
 10
3477.751185947465
 20
2158.942830877971
 11
3566.506663330813
 21
2163.870643943276
  0
LINE
  5
55A
100
AcDbEntity
  8
laser
  6
ByBlock
 62
  256
370
   -1
100
AcDbLine
 10
3566.506663330813
 20
2163.870643943276
 11
3569.980843966833
 21
2101.296727932366
  0
LINE
  5
55B
100
AcDbEntity
  8
laser
  6
ByBlock
 62
  256
370
   -1
100
AcDbLine
 10
3569.980843966833
 20
2101.296727932366
 11
3572.47699959417
 21
2101.43531755721
  0
LINE
  5
55C
100
AcDbEntity
  8
laser
  6
ByBlock
 62
  256
370
   -1
100
AcDbLine
 10
3617.68544633206
 20
2216.955783522333
 11
3619.453213285026
 21
2215.188016569366
  0
LINE
  5
55D
100
AcDbEntity
  8
laser
  6
ByBlock
 62
  256
370
   -1
100
AcDbLine
 10
3619.453213285026
 20
2215.188016569366
 11
3668.153264376808
 21
2263.888067661148
  0
LINE
  5
55E
100
AcDbEntity
  8
laser
  6
ByBlock
 62
  256
370
   -1
100
AcDbLine
 10
3668.153264376808
 20
2263.888067661148
 11
3745.601347598027
 21
2256.546594771816
  0
LINE
  5
55F
100
AcDbEntity
  8
laser
  6
ByBlock
 62
  256
370
   -1
100
AcDbLine
 10
3745.601347598027
 20
2256.546594771816
 11
3745.680249285602
 21
2259.050322337476
  0
LINE
  5
560
100
AcDbEntity
  8
laser
  6
ByBlock
 62
  256
370
   -1
100
AcDbLine
 10
3745.680249285602
 20
2259.050322337476
 11
3668.251242969023
 21
2266.38998688537
  0
LINE
  5
561
100
AcDbEntity
  8
laser
  6
ByBlock
 62
  256
370
   -1
100
AcDbLine
 10
3668.251242969023
 20
2266.38998688537
 11
3619.453213285026
 21
2315.188016569366
  0
LINE
  5
562
100
AcDbEntity
  8
laser
  6
ByBlock
 62
  256
370
   -1
100
AcDbLine
 10
3619.453213285026
 20
2315.188016569366
 11
3617.68544633206
 21
2313.4202496164
  0
LINE
  5
563
100
AcDbEntity
  8
laser
  6
ByBlock
 62
  256
370
   -1
100
AcDbLine
 10
3617.68544633206
 20
2313.4202496164
 11
3664.824592357192
 21
2266.281103591268
  0
LINE
  5
564
100
AcDbEntity
  8
laser
  6
ByBlock
 62
  256
370
   -1
100
AcDbLine
 10
3664.824592357192
 20
2266.281103591268
 11
3571.486898307674
 21
2261.098880231282
  0
LINE
  5
565
100
AcDbEntity
  8
laser
  6
ByBlock
 62
  256
370
   -1
100
AcDbLine
 10
3571.486898307674
 20
2261.098880231282
 11
3571.533147523637
 21
2258.597597751083
  0
LINE
  5
566
100
AcDbEntity
  8
laser
  6
ByBlock
 62
  256
370
   -1
100
AcDbLine
 10
3571.533147523637
 20
2258.597597751083
 11
3664.488241494741
 21
2263.758578685015
  0
LINE
  5
567
100
AcDbEntity
  8
laser
  6
ByBlock
 62
  256
370
   -1
100
AcDbLine
 10
3664.488241494741
 20
2263.758578685015
 11
3617.68544633206
 21
2216.955783522333
  0
LINE
  5
568
100
AcDbEntity
  8
laser
  6
ByBlock
 62
  256
370
   -1
100
AcDbLine
 10
3617.68544633206
 20
2216.955783522333
 11
3619.453213285026
 21
2215.188016569366
  0
LINE
  5
569
100
AcDbEntity
  8
laser
  6
ByBlock
 62
  256
370
   -1
100
AcDbLine
 10
3617.68544633206
 20
2316.955783522333
 11
3571.025420105074
 21
2363.615809749318
  0
LINE
  5
56A
100
AcDbEntity
  8
laser
  6
ByBlock
 62
  256
370
   -1
100
AcDbLine
 10
3571.025420105074
 20
2363.615809749318
 11
3748.445495022865
 21
2346.797773513202
  0
LINE
  5
56B
100
AcDbEntity
  8
laser
  6
ByBlock
 62
  256
370
   -1
100
AcDbLine
 10
3748.445495022865
 20
2346.797773513202
 11
3748.524396710441
 21
2349.301501078863
  0
LINE
  5
56C
100
AcDbEntity
  8
laser
  6
ByBlock
 62
  256
370
   -1
100
AcDbLine
 10
3748.524396710441
 20
2349.301501078863
 11
3570.447039275395
 21
2366.181842559735
  0
LINE
  5
56D
100
AcDbEntity
  8
laser
  6
ByBlock
 62
  256
370
   -1
100
AcDbLine
 10
3570.447039275395
 20
2366.181842559735
 11
3617.68544633206
 21
2413.4202496164
  0
LINE
  5
56E
100
AcDbEntity
  8
laser
  6
ByBlock
 62
  256
370
   -1
100
AcDbLine
 10
3617.68544633206
 20
2413.4202496164
 11
3615.917679379093
 21
2415.188016569366
  0
LINE
  5
56F
100
AcDbEntity
  8
laser
  6
ByBlock
 62
  256
370
   -1
100
AcDbLine
 10
3615.917679379093
 20
2415.188016569366
 11
3567.13928074174
 21
2366.409617932014
  0
LINE
  5
570
100
AcDbEntity
  8
laser
  6
ByBlock
 62
  256
370
   -1
100
AcDbLine
 10
3470.27530568041
 20
2361.031611121201
 11
3470.367740885831
 21
2358.532892943836
  0
LINE
  5
571
100
AcDbEntity
  8
laser
  6
ByBlock
 62
  256
370
   -1
100
AcDbLine
 10
3567.196738201206
 20
2363.908957747253
 11
3615.917679379093
 21
2315.188016569366
  0
LINE
  5
572
100
AcDbEntity
  8
laser
  6
ByBlock
 62
  256
370
   -1
100
AcDbLine
 10
3615.917679379093
 20
2315.188016569366
 11
3617.68544633206
 21
2316.955783522333
  0
LINE
  5
573
100
AcDbEntity
  8
laser
  6
ByBlock
 62
  256
370
   -1
100
AcDbLine
 10
3617.68544633206
 20
2416.955783522333
 11
3619.453213285026
 21
2415.188016569366
  0
LINE
  5
574
100
AcDbEntity
  8
laser
  6
ByBlock
 62
  256
370
   -1
100
AcDbLine
 10
3619.453213285026
 20
2415.188016569366
 11
3668.153264376807
 21
2463.888067661147
  0
LINE
  5
575
100
AcDbEntity
  8
laser
  6
ByBlock
 62
  256
370
   -1
100
AcDbLine
 10
3668.153264376807
 20
2463.888067661147
 11
3751.885313272861
 21
2455.950923946657
  0
LINE
  5
576
100
AcDbEntity
  8
laser
  6
ByBlock
 62
  256
370
   -1
100
AcDbLine
 10
3751.885313272861
 20
2455.950923946657
 11
3751.964214960436
 21
2458.454651512318
  0
LINE
  5
577
100
AcDbEntity
  8
laser
  6
ByBlock
 62
  256
370
   -1
100
AcDbLine
 10
3751.964214960436
 20
2458.454651512318
 11
3668.251242969023
 21
2466.38998688537
  0
LINE
  5
578
100
AcDbEntity
  8
laser
  6
ByBlock
 62
  256
370
   -1
100
AcDbLine
 10
3668.251242969023
 20
2466.38998688537
 11
3619.453213285027
 21
2515.188016569366
  0
LINE
  5
579
100
AcDbEntity
  8
laser
  6
ByBlock
 62
  256
370
   -1
100
AcDbLine
 10
3619.453213285027
 20
2515.188016569366
 11
3617.68544633206
 21
2513.4202496164
  0
LINE
  5
57A
100
AcDbEntity
  8
laser
  6
ByBlock
 62
  256
370
   -1
100
AcDbLine
 10
3617.68544633206
 20
2513.4202496164
 11
3664.824592357192
 21
2466.281103591268
  0
LINE
  5
57B
100
AcDbEntity
  8
laser
  6
ByBlock
 62
  256
370
   -1
100
AcDbLine
 10
3664.824592357192
 20
2466.281103591268
 11
3567.792650605698
 21
2460.893771063611
  0
LINE
  5
57C
100
AcDbEntity
  8
laser
  6
ByBlock
 62
  256
370
   -1
100
AcDbLine
 10
3567.792650605698
 20
2460.893771063611
 11
3567.838899821661
 21
2458.392488583412
  0
LINE
  5
57D
100
AcDbEntity
  8
laser
  6
ByBlock
 62
  256
370
   -1
100
AcDbLine
 10
3567.838899821661
 20
2458.392488583412
 11
3664.488241494741
 21
2463.758578685015
  0
LINE
  5
57E
100
AcDbEntity
  8
laser
  6
ByBlock
 62
  256
370
   -1
100
AcDbLine
 10
3664.488241494741
 20
2463.758578685015
 11
3617.68544633206
 21
2416.955783522333
  0
LINE
  5
57F
100
AcDbEntity
  8
laser
  6
ByBlock
 62
  256
370
   -1
100
AcDbLine
 10
3617.68544633206
 20
2416.955783522333
 11
3619.453213285026
 21
2415.188016569366
  0
LINE
  5
580
100
AcDbEntity
  8
laser
  6
ByBlock
 62
  256
370
   -1
100
AcDbLine
 10
3615.917679379093
 20
2515.188016569366
 11
3617.68544633206
 21
2516.955783522333
  0
LINE
  5
581
100
AcDbEntity
  8
laser
  6
ByBlock
 62
  256
370
   -1
100
AcDbLine
 10
3617.68544633206
 20
2516.955783522333
 11
3571.025420105075
 21
2563.615809749318
  0
LINE
  5
582
100
AcDbEntity
  8
laser
  6
ByBlock
 62
  256
370
   -1
100
AcDbLine
 10
3571.025420105075
 20
2563.615809749318
 11
3754.729460697699
 21
2546.202102688043
  0
LINE
  5
583
100
AcDbEntity
  8
laser
  6
ByBlock
 62
  256
370
   -1
100
AcDbLine
 10
3754.729460697699
 20
2546.202102688043
 11
3754.808362385274
 21
2548.705830253704
  0
LINE
  5
584
100
AcDbEntity
  8
laser
  6
ByBlock
 62
  256
370
   -1
100
AcDbLine
 10
3754.808362385274
 20
2548.705830253704
 11
3570.447039275396
 21
2566.181842559736
  0
LINE
  5
585
100
AcDbEntity
  8
laser
  6
ByBlock
 62
  256
370
   -1
100
AcDbLine
 10
3570.447039275396
 20
2566.181842559736
 11
3617.68544633206
 21
2613.4202496164
  0
LINE
  5
586
100
AcDbEntity
  8
laser
  6
ByBlock
 62
  256
370
   -1
100
AcDbLine
 10
3617.68544633206
 20
2613.4202496164
 11
3615.917679379093
 21
2615.188016569366
  0
LINE
  5
587
100
AcDbEntity
  8
laser
  6
ByBlock
 62
  256
370
   -1
100
AcDbLine
 10
3615.917679379093
 20
2615.188016569366
 11
3567.139280741741
 21
2566.409617932014
  0
LINE
  5
588
100
AcDbEntity
  8
laser
  6
ByBlock
 62
  256
370
   -1
100
AcDbLine
 10
3462.891860618776
 20
2560.621673187065
 11
3462.984295824197
 21
2558.122955009701
  0
LINE
  5
589
100
AcDbEntity
  8
laser
  6
ByBlock
 62
  256
370
   -1
100
AcDbLine
 10
3567.196738201206
 20
2563.908957747253
 11
3615.917679379093
 21
2515.188016569366
  0
LINE
  5
58A
100
AcDbEntity
  8
laser
  6
ByBlock
 62
  256
370
   -1
100
AcDbLine
 10
3615.917679379093
 20
2515.188016569366
 11
3617.68544633206
 21
2516.955783522333
  0
LINE
  5
58B
100
AcDbEntity
  8
laser
  6
ByBlock
 62
  256
370
   -1
100
AcDbLine
 10
3619.453213285026
 20
2615.188016569366
 11
3668.153264376808
 21
2663.888067661148
  0
LINE
  5
58C
100
AcDbEntity
  8
laser
  6
ByBlock
 62
  256
370
   -1
100
AcDbLine
 10
3668.153264376808
 20
2663.888067661148
 11
3758.169278947695
 21
2655.3552531215
  0
LINE
  5
58D
100
AcDbEntity
  8
laser
  6
ByBlock
 62
  256
370
   -1
100
AcDbLine
 10
3564.144652119686
 20
2658.187379415742
 11
3664.488241494741
 21
2663.758578685015
  0
LINE
  5
58E
100
AcDbEntity
  8
laser
  6
ByBlock
 62
  256
370
   -1
100
AcDbLine
 10
3664.488241494741
 20
2663.758578685015
 11
3617.68544633206
 21
2616.955783522333
  0
LINE
  5
58F
100
AcDbEntity
  8
laser
  6
ByBlock
 62
  256
370
   -1
100
AcDbLine
 10
3617.68544633206
 20
2616.955783522333
 11
3619.453213285026
 21
2615.188016569366
  0
LINE
  5
590
100
AcDbEntity
  8
laser
  6
ByBlock
 62
  256
370
   -1
100
AcDbLine
 10
3470.367740885831
 20
2358.532892943836
 11
3567.196738201206
 21
2363.908957747253
  0
LINE
  5
591
100
AcDbEntity
  8
laser
  6
ByBlock
 62
  256
370
   -1
100
AcDbLine
 10
3567.13928074174
 20
2366.409617932014
 11
3470.27530568041
 21
2361.031611121201
  0
LINE
  5
592
100
AcDbEntity
  8
laser
  6
ByBlock
 62
  256
370
   -1
100
AcDbLine
 10
3567.196738201206
 20
2563.908957747253
 11
3462.984295824197
 21
2558.122955009701
  0
LINE
  5
593
100
AcDbEntity
  8
laser
  6
ByBlock
 62
  256
370
   -1
100
AcDbLine
 10
3462.891860618776
 20
2560.621673187065
 11
3567.139280741741
 21
2566.409617932014
  0
LINE
  5
594
100
AcDbEntity
  8
laser
  6
ByBlock
 62
  256
370
   -1
100
AcDbLine
 10
3474.171997178294
 20
2255.695837451588
 11
3474.264432383716
 21
2253.197119274224
  0
LINE
  5
595
100
AcDbEntity
  8
laser
  6
ByBlock
 62
  256
370
   -1
100
AcDbLine
 10
3474.264432383716
 20
2253.197119274224
 11
3569.035284503574
 21
2258.458913329698
  0
LINE
  5
596
100
AcDbEntity
  8
laser
  6
ByBlock
 62
  256
370
   -1
100
AcDbLine
 10
3569.035284503574
 20
2258.458913329698
 11
3568.989035287611
 21
2260.960195809897
  0
LINE
  5
597
100
AcDbEntity
  8
laser
  6
ByBlock
 62
  256
370
   -1
100
AcDbLine
 10
3568.989035287611
 20
2260.960195809897
 11
3474.171997178294
 21
2255.695837451588
  0
LINE
  5
598
100
AcDbEntity
  8
laser
  6
ByBlock
 62
  256
370
   -1
100
AcDbLine
 10
3466.788552116661
 20
2455.285899517454
 11
3466.880987322082
 21
2452.78718134009
  0
LINE
  5
599
100
AcDbEntity
  8
laser
  6
ByBlock
 62
  256
370
   -1
100
AcDbLine
 10
3565.294787585635
 20
2460.755086642227
 11
3466.788552116665
 21
2455.285899517454
  0
LINE
  5
59A
100
AcDbEntity
  8
laser
  6
ByBlock
 62
  256
370
   -1
100
AcDbLine
 10
3459.497542260448
 20
2652.377243405955
 11
3561.646789099623
 21
2658.048694994357
  0
LINE
  5
59B
100
AcDbEntity
  8
laser
  6
ByBlock
 62
  256
370
   -1
100
AcDbLine
 10
3565.294787585635
 20
2460.755086642227
 11
3565.341036801598
 21
2458.253804162028
  0
LINE
  5
59C
100
AcDbEntity
  8
laser
  6
ByBlock
 62
  256
370
   -1
100
AcDbLine
 10
3565.341036801598
 20
2458.253804162028
 11
3466.880987322085
 21
2452.78718134009
  0
LINE
  5
59D
100
AcDbEntity
  8
laser
  6
ByBlock
 62
  256
370
   -1
100
AcDbLine
 10
3604.845974352001
 20
2037.050999445979
 11
3575.659551412899
 21
2035.430533413583
  0
LINE
  5
59E
100
AcDbEntity
  8
laser
  6
ByBlock
 62
  256
370
   -1
100
AcDbLine
 10
3575.659551412899
 20
2035.430533413583
 11
3575.377941700984
 21
2049.186074710624
  0
LINE
  5
59F
100
AcDbEntity
  8
laser
  6
ByBlock
 62
  256
370
   -1
100
AcDbLine
 10
3575.377941700984
 20
2049.186074710624
 11
3572.881786073647
 21
2049.047485085779
  0
LINE
  5
5A0
100
AcDbEntity
  8
laser
  6
ByBlock
 62
  256
370
   -1
100
AcDbLine
 10
3572.881786073647
 20
2049.047485085779
 11
3573.161688392837
 21
2035.291848992198
  0
LINE
  5
5A1
100
AcDbEntity
  8
laser
  6
ByBlock
 62
  256
370
   -1
100
AcDbLine
 10
3573.161688392837
 20
2035.291848992198
 11
3388.17966589916
 21
2025.021420009502
  0
LINE
  5
5A2
100
AcDbEntity
  8
laser
  6
ByBlock
 62
  256
370
   -1
100
AcDbLine
 10
3585.396440524432
 20
2148.574940865989
 11
3583.663519923063
 21
2150.376880429169
  0
LINE
  5
5A3
100
AcDbEntity
  8
laser
  6
ByBlock
 62
  256
370
   -1
100
AcDbLine
 10
3581.861580359883
 20
2148.6439598278
 11
3583.594500961252
 21
2146.84202026462
  0
LINE
  5
5A4
100
AcDbEntity
  8
laser
  6
ByBlock
 62
  256
370
   -1
100
AcDbLine
 10
3459.497542260448
 20
2652.377243405955
 11
3457.000959967329
 21
2652.238630092103
  0
LINE
  5
5A5
100
AcDbEntity
  8
laser
  6
ByBlock
 62
  256
370
   -1
100
AcDbLine
 10
3561.646789099623
 20
2658.048694994357
 11
3564.144652119686
 21
2658.187379415742
  0
LINE
  5
5A6
100
AcDbEntity
  8
laser
  6
ByBlock
 62
  256
370
   -1
100
AcDbLine
 10
3758.169278947695
 20
2655.3552531215
 11
3760.663070448549
 21
2655.118861180812
  0
LINE
  5
5A7
100
AcDbEntity
  8
laser
  6
ByBlock
 62
  256
370
   -1
100
AcDbLine
 10
3849.53782949996
 20
2646.694228743389
 11
3852.027908228029
 21
2646.458188744539
  0
LINE
  5
5A8
100
AcDbEntity
  8
laser
  6
ByBlock
 62
  256
370
   -1
100
AcDbLine
 10
3353.674311809885
 20
2646.501807737069
 11
3358.763469190335
 21
2554.840337061363
  0
LINE
  5
5A9
100
AcDbEntity
  8
laser
  6
ByBlock
 62
  256
370
   -1
100
AcDbLine
 10
3358.90205881518
 20
2552.344181434026
 11
3364.605842887293
 21
2449.612590056068
  0
LWPOLYLINE
  5
5AA
100
AcDbEntity
  8
laser
  6
ByBlock
 62
  256
370
   -1
100
AcDbPolyline
 90
    4
 70
    1
 43
0
 10
3082.43094266329
 20
3591.725844074371
 10
3142.43094266329
 20
3591.725844074371
 10
3142.43094266329
 20
3666.725844074371
 10
3082.43094266329
 20
3666.725844074371
  0
LWPOLYLINE
  5
5AB
100
AcDbEntity
  8
laser
  6
ByBlock
 62
  256
370
   -1
100
AcDbPolyline
 90
    4
 70
    1
 43
0
 10
3082.43094266329
 20
3516.725844074371
 10
3142.43094266329
 20
3516.725844074371
 10
3142.43094266329
 20
3591.725844074371
 10
3082.43094266329
 20
3591.725844074371
  0
LWPOLYLINE
  5
5AC
100
AcDbEntity
  8
laser
  6
ByBlock
 62
  256
370
   -1
100
AcDbPolyline
 90
    4
 70
    1
 43
0
 10
3082.43094266329
 20
3441.725844074371
 10
3142.43094266329
 20
3441.725844074371
 10
3142.43094266329
 20
3516.725844074371
 10
3082.43094266329
 20
3516.725844074371
  0
LWPOLYLINE
  5
5AD
100
AcDbEntity
  8
laser
  6
ByBlock
 62
  256
370
   -1
100
AcDbPolyline
 90
    4
 70
    1
 43
0
 10
3082.43094266329
 20
3366.725844074371
 10
3142.43094266329
 20
3366.725844074371
 10
3142.43094266329
 20
3441.725844074371
 10
3082.43094266329
 20
3441.725844074371
  0
LWPOLYLINE
  5
5AE
100
AcDbEntity
  8
laser
  6
ByBlock
 62
  256
370
   -1
100
AcDbPolyline
 90
    4
 70
    1
 43
0
 10
3082.43094266329
 20
3291.725844074371
 10
3142.43094266329
 20
3291.725844074371
 10
3142.43094266329
 20
3366.725844074371
 10
3082.43094266329
 20
3366.725844074371
  0
LWPOLYLINE
  5
5AF
100
AcDbEntity
  8
laser
  6
ByBlock
 62
  256
370
   -1
100
AcDbPolyline
 90
    4
 70
    1
 43
0
 10
3082.43094266329
 20
3216.725844074371
 10
3142.43094266329
 20
3216.725844074371
 10
3142.43094266329
 20
3291.725844074371
 10
3082.43094266329
 20
3291.725844074371
  0
LWPOLYLINE
  5
5B0
100
AcDbEntity
  8
laser
  6
ByBlock
 62
  256
370
   -1
100
AcDbPolyline
 90
    4
 70
    1
 43
0
 10
3082.43094266329
 20
3141.725844074371
 10
3142.43094266329
 20
3141.725844074371
 10
3142.43094266329
 20
3216.725844074371
 10
3082.43094266329
 20
3216.725844074371
  0
LWPOLYLINE
  5
5B1
100
AcDbEntity
  8
laser
  6
ByBlock
 62
  256
370
   -1
100
AcDbPolyline
 90
    4
 70
    1
 43
0
 10
3082.43094266329
 20
3066.725844074371
 10
3142.43094266329
 20
3066.725844074371
 10
3142.43094266329
 20
3141.725844074371
 10
3082.43094266329
 20
3141.725844074371
  0
LWPOLYLINE
  5
5B2
100
AcDbEntity
  8
laser
  6
ByBlock
 62
  256
370
   -1
100
AcDbPolyline
 90
    4
 70
    1
 43
0
 10
3142.43094266329
 20
3591.725844074371
 10
3202.43094266329
 20
3591.725844074371
 10
3202.43094266329
 20
3666.725844074371
 10
3142.43094266329
 20
3666.725844074371
  0
LWPOLYLINE
  5
5B3
100
AcDbEntity
  8
laser
  6
ByBlock
 62
  256
370
   -1
100
AcDbPolyline
 90
    4
 70
    1
 43
0
 10
3142.43094266329
 20
3516.725844074371
 10
3202.43094266329
 20
3516.725844074371
 10
3202.43094266329
 20
3591.725844074371
 10
3142.43094266329
 20
3591.725844074371
  0
LWPOLYLINE
  5
5B4
100
AcDbEntity
  8
laser
  6
ByBlock
 62
  256
370
   -1
100
AcDbPolyline
 90
    4
 70
    1
 43
0
 10
3142.43094266329
 20
3441.725844074371
 10
3202.43094266329
 20
3441.725844074371
 10
3202.43094266329
 20
3516.725844074371
 10
3142.43094266329
 20
3516.725844074371
  0
LWPOLYLINE
  5
5B5
100
AcDbEntity
  8
laser
  6
ByBlock
 62
  256
370
   -1
100
AcDbPolyline
 90
    4
 70
    1
 43
0
 10
3142.43094266329
 20
3366.725844074371
 10
3202.43094266329
 20
3366.725844074371
 10
3202.43094266329
 20
3441.725844074371
 10
3142.43094266329
 20
3441.725844074371
  0
LWPOLYLINE
  5
5B6
100
AcDbEntity
  8
laser
  6
ByBlock
 62
  256
370
   -1
100
AcDbPolyline
 90
    4
 70
    1
 43
0
 10
3142.43094266329
 20
3291.725844074371
 10
3202.43094266329
 20
3291.725844074371
 10
3202.43094266329
 20
3366.725844074371
 10
3142.43094266329
 20
3366.725844074371
  0
LWPOLYLINE
  5
5B7
100
AcDbEntity
  8
laser
  6
ByBlock
 62
  256
370
   -1
100
AcDbPolyline
 90
    4
 70
    1
 43
0
 10
3142.43094266329
 20
3216.725844074371
 10
3202.43094266329
 20
3216.725844074371
 10
3202.43094266329
 20
3291.725844074371
 10
3142.43094266329
 20
3291.725844074371
  0
LWPOLYLINE
  5
5B8
100
AcDbEntity
  8
laser
  6
ByBlock
 62
  256
370
   -1
100
AcDbPolyline
 90
    4
 70
    1
 43
0
 10
3142.43094266329
 20
3141.725844074371
 10
3202.43094266329
 20
3141.725844074371
 10
3202.43094266329
 20
3216.725844074371
 10
3142.43094266329
 20
3216.725844074371
  0
LWPOLYLINE
  5
5B9
100
AcDbEntity
  8
laser
  6
ByBlock
 62
  256
370
   -1
100
AcDbPolyline
 90
    4
 70
    1
 43
0
 10
3142.43094266329
 20
3066.725844074371
 10
3202.43094266329
 20
3066.725844074371
 10
3202.43094266329
 20
3141.725844074371
 10
3142.43094266329
 20
3141.725844074371
  0
MTEXT
  5
5BA
100
AcDbEntity
  8
label
  6
ByLayer
 62
  256
370
   -1
100
AcDbMText
 10
3717.121006093279
 20
4107.959232684742
 30
0
 40
10
 41
117.7777777777798
 71
    5
 72
    1
  1
cam03-B-FEUILLE1\P
  7
standard
210
0
220
0
230
1
 50
0
 73
    2
 44
1
  0
MTEXT
  5
5BB
100
AcDbEntity
  8
label
  6
ByLayer
 62
  256
370
   -1
100
AcDbMText
 10
3736.52432230704
 20
3085.127277987934
 30
0
 40
10
 41
120.000000000002
 71
    5
 72
    1
  1
cam03-B-FEUILLE2\P
  7
standard
210
0
220
0
230
1
 50
0
 73
    2
 44
1
  0
MTEXT
  5
5BC
100
AcDbEntity
  8
label
  6
ByLayer
 62
  256
370
   -1
100
AcDbMText
 10
3761.471443153303
 20
2195.346634471198
 30
0
 40
10
 41
120.0000000000026
 71
    5
 72
    1
  1
cam03-B-FEUILLE3\P
  7
standard
210
0
220
0
230
1
 50
0
 73
    2
 44
1
  0
ENDSEC
  0
SECTION
  2
OBJECTS
  0
DICTIONARY
  5
C
330
0
100
AcDbDictionary
281
    1
  3
ACAD_GROUP
350
D
  0
DICTIONARY
  5
D
330
C
100
AcDbDictionary
281
    1
  0
PLOTSETTINGS
  5
5BD
100
AcDbPlotSettings
  6
1x1
 40
0
 41
0
 42
0
 43
0
  0
ENDSEC
  0
EOF
