999
dxfrw 0.6.3
  0
SECTION
  2
HEADER
  9
$ACADVER
  1
AC1021
  9
$DWGCODEPAGE
  3
ANSI_1252
  9
$INSBASE
 10
0
 20
0
 30
0
  9
$EXTMIN
 10
-2255.331088167589
 20
-455.0196651853228
 30
0
  9
$EXTMAX
 10
3000
 20
3632.106192013988
 30
0
  9
$LIMMIN
 10
0
 20
0
  9
$LIMMAX
 10
420
 20
297
  9
$ORTHOMODE
 70
    0
  9
$REGENMODE
 70
    1
  9
$FILLMODE
 70
    1
  9
$QTEXTMODE
 70
    0
  9
$MIRRTEXT
 70
    0
  9
$LTSCALE
 40
1
  9
$ATTMODE
 70
    0
  9
$TEXTSIZE
 40
2.5
  9
$TRACEWID
 40
15.68
  9
$TEXTSTYLE
  7
STANDARD
  9
$CLAYER
  8
0
  9
$CELTYPE
  6
BYLAYER
  9
$CECOLOR
 62
  256
  9
$CELTSCALE
 40
1
  9
$DISPSILH
 70
    0
  9
$DIMSCALE
 40
2.5
  9
$DIMASZ
 40
2.5
  9
$DIMEXO
 40
0.625
  9
$DIMDLI
 40
3.75
  9
$DIMRND
 40
0
  9
$DIMDLE
 40
0
  9
$DIMEXE
 40
1.25
  9
$DIMTP
 40
0
  9
$DIMTM
 40
0
  9
$DIMTXT
 40
2.5
  9
$DIMCEN
 40
2.5
  9
$DIMTSZ
 40
0
  9
$DIMTOL
 70
    0
  9
$DIMLIM
 70
    0
  9
$DIMTIH
 70
    0
  9
$DIMTOH
 70
    0
  9
$DIMSE1
 70
    0
  9
$DIMSE2
 70
    0
  9
$DIMTAD
 70
    1
  9
$DIMZIN
 70
    8
  9
$DIMBLK
  1

  9
$DIMASO
 70
    1
  9
$DIMSHO
 70
    1
  9
$DIMPOST
  1

  9
$DIMAPOST
  1

  9
$DIMALT
 70
    0
  9
$DIMALTD
 70
    3
  9
$DIMALTF
 40
0.03937
  9
$DIMLFAC
 40
1
  9
$DIMTOFL
 70
    1
  9
$DIMTVP
 40
0
  9
$DIMTIX
 70
    0
  9
$DIMSOXD
 70
    0
  9
$DIMSAH
 70
    0
  9
$DIMBLK1
  1

  9
$DIMBLK2
  1

  9
$DIMSTYLE
  2
STANDARD
  9
$DIMCLRD
 70
    0
  9
$DIMCLRE
 70
    0
  9
$DIMCLRT
 70
    0
  9
$DIMTFAC
 40
1
  9
$DIMGAP
 40
0.625
  9
$DIMJUST
 70
    0
  9
$DIMSD1
 70
    0
  9
$DIMSD2
 70
    0
  9
$DIMTOLJ
 70
    0
  9
$DIMTZIN
 70
    8
  9
$DIMALTZ
 70
    0
  9
$DIMALTTZ
 70
    0
  9
$DIMUPT
 70
    0
  9
$DIMDEC
 70
    2
  9
$DIMTDEC
 70
    2
  9
$DIMALTU
 70
    2
  9
$DIMALTTD
 70
    3
  9
$DIMTXSTY
  7
STANDARD
  9
$DIMAUNIT
 70
    0
  9
$DIMADEC
 70
    0
  9
$DIMALTRND
 40
0
  9
$DIMAZIN
 70
    0
  9
$DIMDSEP
 70
   44
  9
$DIMATFIT
 70
    3
  9
$DIMFRAC
 70
    0
  9
$DIMLDRBLK
  1
STANDARD
  9
$DIMLUNIT
 70
    2
  9
$DIMLWD
 70
   -2
  9
$DIMLWE
 70
   -2
  9
$DIMTMOVE
 70
    0
  9
$DIMFXL
 40
1
  9
$DIMFXLON
 70
    0
  9
$DIMJOGANG
 40
0.7854
  9
$DIMTFILL
 70
    0
  9
$DIMTFILLCLR
 70
    0
  9
$DIMARCSYM
 70
    0
  9
$DIMLTYPE
  6

  9
$DIMLTEX1
  6

  9
$DIMLTEX2
  6

  9
$LUNITS
 70
    2
  9
$LUPREC
 70
    4
  9
$SKETCHINC
 40
1
  9
$FILLETRAD
 40
0
  9
$AUNITS
 70
    0
  9
$AUPREC
 70
    2
  9
$MENU
  1
.
  9
$ELEVATION
 40
0
  9
$PELEVATION
 40
0
  9
$THICKNESS
 40
0
  9
$LIMCHECK
 70
    0
  9
$CHAMFERA
 40
0
  9
$CHAMFERB
 40
0
  9
$CHAMFERC
 40
0
  9
$CHAMFERD
 40
0
  9
$SKPOLY
 70
    0
  9
$USRTIMER
 70
    1
  9
$ANGBASE
 50
0
  9
$ANGDIR
 70
    0
  9
$PDMODE
 70
   34
  9
$PDSIZE
 40
0
  9
$PLINEWID
 40
0
  9
$SPLFRAME
 70
    0
  9
$SPLINETYPE
 70
    2
  9
$SPLINESEGS
 70
    8
  9
$HANDSEED
  5
20000
  9
$SURFTAB1
 70
    6
  9
$SURFTAB2
 70
    6
  9
$SURFTYPE
 70
    6
  9
$SURFU
 70
    6
  9
$SURFV
 70
    6
  9
$UCSBASE
  2

  9
$UCSNAME
  2

  9
$UCSORG
 10
0
 20
0
 30
0
  9
$UCSXDIR
 10
1
 20
0
 30
0
  9
$UCSYDIR
 10
0
 20
1
 30
0
  9
$UCSORTHOREF
  2

  9
$UCSORTHOVIEW
 70
    0
  9
$UCSORGTOP
 10
0
 20
0
 30
0
  9
$UCSORGBOTTOM
 10
0
 20
0
 30
0
  9
$UCSORGLEFT
 10
0
 20
0
 30
0
  9
$UCSORGRIGHT
 10
0
 20
0
 30
0
  9
$UCSORGFRONT
 10
0
 20
0
 30
0
  9
$UCSORGBACK
 10
0
 20
0
 30
0
  9
$PUCSBASE
  2

  9
$PUCSNAME
  2

  9
$PUCSORG
 10
0
 20
0
 30
0
  9
$PUCSXDIR
 10
1
 20
0
 30
0
  9
$PUCSYDIR
 10
0
 20
1
 30
0
  9
$PUCSORTHOREF
  2

  9
$PUCSORTHOVIEW
 70
    0
  9
$PUCSORGTOP
 10
0
 20
0
 30
0
  9
$PUCSORGBOTTOM
 10
0
 20
0
 30
0
  9
$PUCSORGLEFT
 10
0
 20
0
 30
0
  9
$PUCSORGRIGHT
 10
0
 20
0
 30
0
  9
$PUCSORGFRONT
 10
0
 20
0
 30
0
  9
$PUCSORGBACK
 10
0
 20
0
 30
0
  9
$USERI1
 70
    0
  9
$USERI2
 70
    0
  9
$USERI3
 70
    0
  9
$USERI4
 70
    0
  9
$USERI5
 70
    0
  9
$USERR1
 40
0
  9
$USERR2
 40
0
  9
$USERR3
 40
0
  9
$USERR4
 40
0
  9
$USERR5
 40
0
  9
$WORLDVIEW
 70
    1
  9
$SHADEDGE
 70
    3
  9
$SHADEDIF
 70
   70
  9
$TILEMODE
 70
    1
  9
$MAXACTVP
 70
   64
  9
$PINSBASE
 10
179.9416160161925
 20
41.41331808359585
 30
0
  9
$PLIMCHECK
 70
    0
  9
$PEXTMIN
 10
0
 20
0
 30
0
  9
$PEXTMAX
 10
0
 20
0
 30
0
  9
$GRIDMODE
 70
    1
  9
$SNAPSTYLE
 70
    0
  9
$PLIMMIN
 10
0
 20
0
  9
$PLIMMAX
 10
297
 20
210
  9
$UNITMODE
 70
    0
  9
$VISRETAIN
 70
    1
  9
$PLINEGEN
 70
    0
  9
$PSLTSCALE
 70
    1
  9
$TREEDEPTH
 70
 3020
  9
$CMLSTYLE
  2
Standard
  9
$CMLJUST
 70
    0
  9
$CMLSCALE
 40
20
  9
$PROXYGRAPHICS
 70
    1
  9
$MEASUREMENT
 70
    1
  9
$CELWEIGHT
370
   -1
  9
$ENDCAPS
280
    0
  9
$JOINSTYLE
280
    0
  9
$LWDISPLAY
290
    0
  9
$INSUNITS
 70
    4
  9
$HYPERLINKBASE
  1

  9
$STYLESHEET
  1

  9
$XEDIT
290
    1
  9
$CEPSNTYPE
380
    0
  9
$PSTYLEMODE
290
    1
  9
$EXTNAMES
290
    1
  9
$PSVPSCALE
 40
0.07741675763135689
  9
$OLESTARTUP
290
    0
  9
$SORTENTS
280
  127
  9
$INDEXCTL
280
    0
  9
$HIDETEXT
280
    1
  9
$XCLIPFRAME
290
    0
  9
$HALOGAP
280
    0
  9
$OBSCOLOR
 70
  257
  9
$OBSLTYPE
280
    0
  9
$INTERSECTIONDISPLAY
280
    0
  9
$INTERSECTIONCOLOR
 70
  257
  9
$DIMASSOC
280
    1
  9
$PROJECTNAME
  1

  9
$CAMERADISPLAY
290
    0
  9
$LENSLENGTH
 40
50
  9
$CAMERAHEIGHT
 40
0
  9
$STEPSPERSEC
 40
2
  9
$STEPSIZE
 40
50
  9
$3DDWFPREC
 40
2
  9
$PSOLWIDTH
 40
5
  9
$PSOLHEIGHT
 40
80
  9
$LOFTANG1
 40
1.570796326794897
  9
$LOFTANG2
 40
1.570796326794897
  9
$LOFTMAG1
 40
0
  9
$LOFTMAG2
 40
0
  9
$LOFTPARAM
 70
    7
  9
$LOFTNORMALS
280
    1
  9
$LATITUDE
 40
1
  9
$LONGITUDE
 40
1
  9
$NORTHDIRECTION
 40
0
  9
$TIMEZONE
 70
-8000
  9
$LIGHTGLYPHDISPLAY
280
    1
  9
$TILEMODELIGHTSYNCH
280
    1
  9
$SOLIDHIST
280
    1
  9
$SHOWHIST
280
    1
  9
$DWFFRAME
280
    2
  9
$DGNFRAME
280
    0
  9
$REALWORLDSCALE
290
    1
  9
$INTERFERECOLOR
 62
    1
  9
$CSHADOW
280
    0
  9
$SHADOWPLANELOCATION
 40
0
  0
ENDSEC
  0
SECTION
  2
CLASSES
  0
ENDSEC
  0
SECTION
  2
TABLES
  0
TABLE
  2
VPORT
  5
8
330
0
100
AcDbSymbolTable
 70
    1
  0
VPORT
  5
31
330
2
100
AcDbSymbolTableRecord
100
AcDbViewportTableRecord
  2
*ACTIVE
 70
    0
 10
0
 20
0
 11
1
 21
1
 12
4399.288208788603
 22
3162.311877140984
 13
0
 23
0
 14
10
 24
10
 15
10
 25
10
 16
0
 26
0
 36
1
 17
0
 27
0
 37
0
 40
7960.123841313965
 41
1.794538361508452
 42
50
 43
0
 44
0
 50
0
 51
0
 71
    0
 72
  100
 73
    1
 74
    3
 75
    0
 76
    1
 77
    0
 78
    0
281
    0
 65
    1
110
0
120
0
130
0
111
1
121
0
131
0
112
0
122
1
132
0
 79
    0
146
0
348
10020
 60
    7
 61
    5
292
1
282
    1
141
0
142
0
 63
  250
421
3358443
  0
ENDTAB
  0
TABLE
  2
LTYPE
  5
5
330
0
100
AcDbSymbolTable
 70
    4
  0
LTYPE
  5
14
330
5
100
AcDbSymbolTableRecord
100
AcDbLinetypeTableRecord
  2
ByBlock
 70
    0
  3

 72
   65
 73
    0
 40
0
  0
LTYPE
  5
15
330
5
100
AcDbSymbolTableRecord
100
AcDbLinetypeTableRecord
  2
ByLayer
 70
    0
  3

 72
   65
 73
    0
 40
0
  0
LTYPE
  5
16
330
5
100
AcDbSymbolTableRecord
100
AcDbLinetypeTableRecord
  2
Continuous
 70
    0
  3
Solid line
 72
   65
 73
    0
 40
0
  0
LTYPE
  5
32
330
5
100
AcDbSymbolTableRecord
100
AcDbLinetypeTableRecord
  2
DOT
 70
    0
  3
Dot . . . . . . . . . . . . . . . . . . . . . .
 72
   65
 73
    2
 40
6.35
 49
0
 74
    0
 49
-6.35
 74
    0
  0
LTYPE
  5
33
330
5
100
AcDbSymbolTableRecord
100
AcDbLinetypeTableRecord
  2
DOTTINY
 70
    0
  3
Dot (.15x) .....................................
 72
   65
 73
    2
 40
0.9525
 49
0
 74
    0
 49
-0.9525
 74
    0
  0
LTYPE
  5
34
330
5
100
AcDbSymbolTableRecord
100
AcDbLinetypeTableRecord
  2
DOT2
 70
    0
  3
Dot (.5x) .....................................
 72
   65
 73
    2
 40
3.175
 49
0
 74
    0
 49
-3.175
 74
    0
  0
LTYPE
  5
35
330
5
100
AcDbSymbolTableRecord
100
AcDbLinetypeTableRecord
  2
DOTX2
 70
    0
  3
Dot (2x) .  .  .  .  .  .  .  .  .  .  .  .  .
 72
   65
 73
    2
 40
12.7
 49
0
 74
    0
 49
-12.7
 74
    0
  0
LTYPE
  5
36
330
5
100
AcDbSymbolTableRecord
100
AcDbLinetypeTableRecord
  2
DASHED
 70
    0
  3
Dashed _ _ _ _ _ _ _ _ _ _ _ _ _ _ _ _ _
 72
   65
 73
    2
 40
19.05
 49
12.7
 74
    0
 49
-6.35
 74
    0
  0
LTYPE
  5
37
330
5
100
AcDbSymbolTableRecord
100
AcDbLinetypeTableRecord
  2
DASHEDTINY
 70
    0
  3
Dashed (.15x) _ _ _ _ _ _ _ _ _ _ _ _ _ _ _ _ _
 72
   65
 73
    2
 40
2.8575
 49
1.905
 74
    0
 49
-0.9525
 74
    0
  0
LTYPE
  5
38
330
5
100
AcDbSymbolTableRecord
100
AcDbLinetypeTableRecord
  2
DASHED2
 70
    0
  3
Dashed (.5x) _ _ _ _ _ _ _ _ _ _ _ _ _ _ _ _ _
 72
   65
 73
    2
 40
9.524999999999999
 49
6.35
 74
    0
 49
-3.175
 74
    0
  0
LTYPE
  5
39
330
5
100
AcDbSymbolTableRecord
100
AcDbLinetypeTableRecord
  2
DASHEDX2
 70
    0
  3
Dashed (2x) ____  ____  ____  ____  ____  ___
 72
   65
 73
    2
 40
38.09999999999999
 49
25.4
 74
    0
 49
-12.7
 74
    0
  0
LTYPE
  5
3A
330
5
100
AcDbSymbolTableRecord
100
AcDbLinetypeTableRecord
  2
DASHDOT
 70
    0
  3
Dash dot __ . __ . __ . __ . __ . __ . __ . __
 72
   65
 73
    4
 40
25.4
 49
12.7
 74
    0
 49
-6.35
 74
    0
 49
0
 74
    0
 49
-6.35
 74
    0
  0
LTYPE
  5
3B
330
5
100
AcDbSymbolTableRecord
100
AcDbLinetypeTableRecord
  2
DASHDOTTINY
 70
    0
  3
Dash dot (.15x) _._._._._._._._._._._._._._._.
 72
   65
 73
    4
 40
3.81
 49
1.905
 74
    0
 49
-0.9525
 74
    0
 49
0
 74
    0
 49
-0.9525
 74
    0
  0
LTYPE
  5
3C
330
5
100
AcDbSymbolTableRecord
100
AcDbLinetypeTableRecord
  2
DASHDOT2
 70
    0
  3
Dash dot (.5x) _._._._._._._._._._._._._._._.
 72
   65
 73
    4
 40
12.7
 49
6.35
 74
    0
 49
-3.175
 74
    0
 49
0
 74
    0
 49
-3.175
 74
    0
  0
LTYPE
  5
3D
330
5
100
AcDbSymbolTableRecord
100
AcDbLinetypeTableRecord
  2
DASHDOTX2
 70
    0
  3
Dash dot (2x) ____  .  ____  .  ____  .  ___
 72
   65
 73
    4
 40
50.8
 49
25.4
 74
    0
 49
-12.7
 74
    0
 49
0
 74
    0
 49
-12.7
 74
    0
  0
LTYPE
  5
3E
330
5
100
AcDbSymbolTableRecord
100
AcDbLinetypeTableRecord
  2
DIVIDE
 70
    0
  3
Divide ____ . . ____ . . ____ . . ____ . . ____
 72
   65
 73
    6
 40
31.75
 49
12.7
 74
    0
 49
-6.35
 74
    0
 49
0
 74
    0
 49
-6.35
 74
    0
 49
0
 74
    0
 49
-6.35
 74
    0
  0
LTYPE
  5
3F
330
5
100
AcDbSymbolTableRecord
100
AcDbLinetypeTableRecord
  2
DIVIDETINY
 70
    0
  3
Divide (.15x) __..__..__..__..__..__..__..__.._
 72
   65
 73
    6
 40
4.7625
 49
1.905
 74
    0
 49
-0.9525
 74
    0
 49
0
 74
    0
 49
-0.9525
 74
    0
 49
0
 74
    0
 49
-0.9525
 74
    0
  0
LTYPE
  5
40
330
5
100
AcDbSymbolTableRecord
100
AcDbLinetypeTableRecord
  2
DIVIDE2
 70
    0
  3
Divide (.5x) __..__..__..__..__..__..__..__.._
 72
   65
 73
    6
 40
15.875
 49
6.35
 74
    0
 49
-3.175
 74
    0
 49
0
 74
    0
 49
-3.175
 74
    0
 49
0
 74
    0
 49
-3.175
 74
    0
  0
LTYPE
  5
41
330
5
100
AcDbSymbolTableRecord
100
AcDbLinetypeTableRecord
  2
DIVIDEX2
 70
    0
  3
Divide (2x) ________  .  .  ________  .  .  _
 72
   65
 73
    6
 40
63.5
 49
25.4
 74
    0
 49
-12.7
 74
    0
 49
0
 74
    0
 49
-12.7
 74
    0
 49
0
 74
    0
 49
-12.7
 74
    0
  0
LTYPE
  5
42
330
5
100
AcDbSymbolTableRecord
100
AcDbLinetypeTableRecord
  2
BORDER
 70
    0
  3
Border __ __ . __ __ . __ __ . __ __ . __ __ .
 72
   65
 73
    6
 40
44.45
 49
12.7
 74
    0
 49
-6.35
 74
    0
 49
12.7
 74
    0
 49
-6.35
 74
    0
 49
0
 74
    0
 49
-6.35
 74
    0
  0
LTYPE
  5
43
330
5
100
AcDbSymbolTableRecord
100
AcDbLinetypeTableRecord
  2
BORDERTINY
 70
    0
  3
Border (.15x) __.__.__.__.__.__.__.__.__.__.__.
 72
   65
 73
    6
 40
6.6675
 49
1.905
 74
    0
 49
-0.9525
 74
    0
 49
1.905
 74
    0
 49
-0.9525
 74
    0
 49
0
 74
    0
 49
-0.9525
 74
    0
  0
LTYPE
  5
44
330
5
100
AcDbSymbolTableRecord
100
AcDbLinetypeTableRecord
  2
BORDER2
 70
    0
  3
Border (.5x) __.__.__.__.__.__.__.__.__.__.__.
 72
   65
 73
    6
 40
22.225
 49
6.35
 74
    0
 49
-3.175
 74
    0
 49
6.35
 74
    0
 49
-3.175
 74
    0
 49
0
 74
    0
 49
-3.175
 74
    0
  0
LTYPE
  5
45
330
5
100
AcDbSymbolTableRecord
100
AcDbLinetypeTableRecord
  2
BORDERX2
 70
    0
  3
Border (2x) ____  ____  .  ____  ____  .  ___
 72
   65
 73
    6
 40
88.89999999999999
 49
25.4
 74
    0
 49
-12.7
 74
    0
 49
25.4
 74
    0
 49
-12.7
 74
    0
 49
0
 74
    0
 49
-12.7
 74
    0
  0
LTYPE
  5
46
330
5
100
AcDbSymbolTableRecord
100
AcDbLinetypeTableRecord
  2
CENTER
 70
    0
  3
Center ____ _ ____ _ ____ _ ____ _ ____ _ ____
 72
   65
 73
    4
 40
50.8
 49
31.75
 74
    0
 49
-6.35
 74
    0
 49
6.35
 74
    0
 49
-6.35
 74
    0
  0
LTYPE
  5
47
330
5
100
AcDbSymbolTableRecord
100
AcDbLinetypeTableRecord
  2
CENTERTINY
 70
    0
  3
Center (.15x) ___ _ ___ _ ___ _ ___ _ ___ _ ___
 72
   65
 73
    4
 40
7.619999999999999
 49
4.7625
 74
    0
 49
-0.9525
 74
    0
 49
0.9525
 74
    0
 49
-0.9525
 74
    0
  0
LTYPE
  5
48
330
5
100
AcDbSymbolTableRecord
100
AcDbLinetypeTableRecord
  2
CENTER2
 70
    0
  3
Center (.5x) ___ _ ___ _ ___ _ ___ _ ___ _ ___
 72
   65
 73
    4
 40
28.575
 49
19.05
 74
    0
 49
-3.175
 74
    0
 49
3.175
 74
    0
 49
-3.175
 74
    0
  0
LTYPE
  5
49
330
5
100
AcDbSymbolTableRecord
100
AcDbLinetypeTableRecord
  2
CENTERX2
 70
    0
  3
Center (2x) ________  __  ________  __  _____
 72
   65
 73
    4
 40
101.6
 49
63.5
 74
    0
 49
-12.7
 74
    0
 49
12.7
 74
    0
 49
-12.7
 74
    0
  0
ENDTAB
  0
TABLE
  2
LAYER
  5
2
330
0
100
AcDbSymbolTable
 70
    1
  0
LAYER
  5
10
330
2
100
AcDbSymbolTableRecord
100
AcDbLayerTableRecord
  2
0
 70
    0
 62
    7
  6
CONTINUOUS
370
    0
390
F
  0
LAYER
  5
4A
330
2
100
AcDbSymbolTableRecord
100
AcDbLayerTableRecord
  2
label
 70
    0
 62
    4
  6
CONTINUOUS
370
    0
390
F
  0
LAYER
  5
4B
330
2
100
AcDbSymbolTableRecord
100
AcDbLayerTableRecord
  2
laser
 70
    0
 62
    7
  6
CONTINUOUS
370
    0
390
F
  0
LAYER
  5
4C
330
2
100
AcDbSymbolTableRecord
100
AcDbLayerTableRecord
  2
sheet
 70
    0
 62
    6
  6
CONTINUOUS
370
    0
390
F
  0
ENDTAB
  0
TABLE
  2
STYLE
  5
3
330
0
100
AcDbSymbolTable
 70
    3
  0
STYLE
  5
4D
330
2
100
AcDbSymbolTableRecord
100
AcDbTextStyleTableRecord
  2
standard
 70
    0
 40
0
 41
1
 50
0
 71
    0
 42
1
  3
standard
  4

  0
ENDTAB
  0
TABLE
  2
VIEW
  5
6
330
0
100
AcDbSymbolTable
 70
    0
  0
ENDTAB
  0
TABLE
  2
UCS
  5
7
330
0
100
AcDbSymbolTable
 70
    0
  0
ENDTAB
  0
TABLE
  2
APPID
  5
9
330
0
100
AcDbSymbolTable
 70
    1
  0
APPID
  5
12
330
9
100
AcDbSymbolTableRecord
100
AcDbRegAppTableRecord
  2
ACAD
 70
    0
  0
APPID
  5
4E
330
9
100
AcDbSymbolTableRecord
100
AcDbRegAppTableRecord
  2
LibreCad
 70
    0
  0
ENDTAB
  0
TABLE
  2
DIMSTYLE
  5
A
330
0
100
AcDbSymbolTable
 70
    1
100
AcDbDimStyleTable
 71
    1
  0
DIMSTYLE
105
4F
330
A
100
AcDbSymbolTableRecord
100
AcDbDimStyleTableRecord
  2
Standard
 70
    0
 40
2.5
 41
2.5
 42
0.625
 43
0.38
 44
1.25
 45
0
 46
0
 47
0
 48
0
 49
1
140
2.5
141
0.09
142
0
143
25.4
144
1
145
0
146
1
147
0.625
148
0
 71
    0
 72
    0
 73
    0
 74
    1
 75
    0
 76
    0
 77
    0
 78
    8
 79
    0
170
    0
171
    2
172
    0
173
    0
174
    0
175
    0
176
    0
177
    0
178
    0
179
    0
271
    2
272
    4
273
    2
274
    2
275
    0
276
    0
277
    2
278
   44
279
    0
280
    0
281
    0
282
    0
283
    1
284
    0
285
    0
286
    0
288
    0
289
    3
340
STANDARD
341

371
   -2
372
   -2
  0
ENDTAB
  0
TABLE
  2
BLOCK_RECORD
  5
1
330
0
100
AcDbSymbolTable
 70
    2
  0
BLOCK_RECORD
  5
1F
330
1
100
AcDbSymbolTableRecord
100
AcDbBlockTableRecord
  2
*Model_Space
 70
    0
280
    1
281
    0
  0
BLOCK_RECORD
  5
1E
330
1
100
AcDbSymbolTableRecord
100
AcDbBlockTableRecord
  2
*Paper_Space
 70
    0
280
    1
281
    0
  0
ENDTAB
  0
ENDSEC
  0
SECTION
  2
BLOCKS
  0
BLOCK
  5
20
330
1F
100
AcDbEntity
  8
0
100
AcDbBlockBegin
  2
*Model_Space
 70
    0
 10
0
 20
0
 30
0
  3
*Model_Space
  1

  0
ENDBLK
  5
21
330
1F
100
AcDbEntity
  8
0
100
AcDbBlockEnd
  0
BLOCK
  5
1C
330
1B
100
AcDbEntity
  8
0
100
AcDbBlockBegin
  2
*Paper_Space
 70
    0
 10
0
 20
0
 30
0
  3
*Paper_Space
  1

  0
ENDBLK
  5
1D
330
1F
100
AcDbEntity
  8
0
100
AcDbBlockEnd
  0
ENDSEC
  0
SECTION
  2
ENTITIES
  0
LINE
  5
50
100
AcDbEntity
  8
0
  6
ByLayer
 62
  256
370
   -1
100
AcDbLine
 10
0
 20
0
 11
100
 21
100
  0
LINE
  5
51
100
AcDbEntity
  8
0
  6
ByLayer
 62
  256
370
   -1
100
AcDbLine
 10
100
 20
100
 11
0
 21
200
  0
LINE
  5
52
100
AcDbEntity
  8
0
  6
ByLayer
 62
  256
370
   -1
100
AcDbLine
 10
0
 20
200
 11
100
 21
300
  0
LINE
  5
53
100
AcDbEntity
  8
0
  6
ByLayer
 62
  256
370
   -1
100
AcDbLine
 10
100
 20
300
 11
0
 21
400
  0
LINE
  5
54
100
AcDbEntity
  8
0
  6
ByLayer
 62
  256
370
   -1
100
AcDbLine
 10
0
 20
400
 11
100
 21
500
  0
LINE
  5
55
100
AcDbEntity
  8
0
  6
ByLayer
 62
  256
370
   -1
100
AcDbLine
 10
100
 20
500
 11
0
 21
600
  0
LINE
  5
56
100
AcDbEntity
  8
0
  6
ByLayer
 62
  256
370
   -1
100
AcDbLine
 10
0
 20
600
 11
100
 21
700
  0
LINE
  5
57
100
AcDbEntity
  8
0
  6
ByLayer
 62
  256
370
   -1
100
AcDbLine
 10
100
 20
700
 11
0
 21
800
  0
LINE
  5
58
100
AcDbEntity
  8
0
  6
ByLayer
 62
  256
370
   -1
100
AcDbLine
 10
0
 20
800
 11
100
 21
900
  0
LINE
  5
59
100
AcDbEntity
  8
0
  6
ByLayer
 62
  256
370
   -1
100
AcDbLine
 10
100
 20
900
 11
0
 21
1000
  0
LINE
  5
5A
100
AcDbEntity
  8
0
  6
ByLayer
 62
  256
370
   -1
100
AcDbLine
 10
0
 20
1000
 11
100
 21
1100
  0
LINE
  5
5B
100
AcDbEntity
  8
0
  6
ByLayer
 62
  256
370
   -1
100
AcDbLine
 10
100
 20
1100
 11
0
 21
1200
  0
LINE
  5
5C
100
AcDbEntity
  8
0
  6
ByLayer
 62
  256
370
   -1
100
AcDbLine
 10
0
 20
1200
 11
100
 21
1300
  0
LINE
  5
5D
100
AcDbEntity
  8
0
  6
ByLayer
 62
  256
370
   -1
100
AcDbLine
 10
100
 20
1300
 11
0
 21
1400
  0
LINE
  5
5E
100
AcDbEntity
  8
0
  6
ByLayer
 62
  256
370
   -1
100
AcDbLine
 10
0
 20
1400
 11
100
 21
1500
  0
LINE
  5
5F
100
AcDbEntity
  8
0
  6
ByLayer
 62
  256
370
   -1
100
AcDbLine
 10
598.1295152045
 20
1456.791365653033
 11
100
 21
1500
  0
LINE
  5
60
100
AcDbEntity
  8
0
  6
ByLayer
 62
  256
370
   -1
100
AcDbLine
 10
-359.9712208005257
 20
1376.62226899774
 11
0
 21
1400
  0
LINE
  5
61
100
AcDbEntity
  8
0
  6
ByLayer
 62
  256
370
   -1
100
AcDbLine
 10
580.9107183405777
 20
1258.284954518737
 11
100.0000000000018
 21
1300
  0
LINE
  5
62
100
AcDbEntity
  8
0
  6
ByLayer
 62
  256
370
   -1
100
AcDbLine
 10
100.0000000000018
 20
1300
 11
-353.0841708801331
 21
1270.575203638051
  0
LINE
  5
63
100
AcDbEntity
  8
0
  6
ByLayer
 62
  256
370
   -1
100
AcDbLine
 10
-347.0371055204438
 20
1177.462253558443
 11
0
 21
1200
  0
LINE
  5
64
100
AcDbEntity
  8
0
  6
ByLayer
 62
  256
370
   -1
100
AcDbLine
 10
0
 20
1200
 11
571.5545254757635
 21
1150.422350519628
  0
LINE
  5
65
100
AcDbEntity
  8
0
  6
ByLayer
 62
  256
370
   -1
100
AcDbLine
 10
563.6919214766531
 20
1059.778543384441
 11
100
 21
1100
  0
LINE
  5
66
100
AcDbEntity
  8
0
  6
ByLayer
 62
  256
370
   -1
100
AcDbLine
 10
100
 20
1100
 11
-340.1500556000512
 21
1071.415188198754
  0
LINE
  5
67
100
AcDbEntity
  8
0
  6
ByLayer
 62
  256
370
   -1
100
AcDbLine
 10
-334.102990240362
 20
978.3022381191466
 11
-1.818989403545856e-12
 21
1000
  0
LINE
  5
68
100
AcDbEntity
  8
0
  6
ByLayer
 62
  256
370
   -1
100
AcDbLine
 10
-1.818989403545856e-12
 20
1000
 11
554.3357286118444
 21
951.9159393853315
  0
LINE
  5
69
100
AcDbEntity
  8
0
  6
ByLayer
 62
  256
370
   -1
100
AcDbLine
 10
537.1169317479198
 20
753.4095282510357
 11
0
 21
800
  0
LINE
  5
6A
100
AcDbEntity
  8
0
  6
ByLayer
 62
  256
370
   -1
100
AcDbLine
 10
0
 20
800
 11
-321.1688749602802
 21
779.1422226798502
  0
LINE
  5
6B
100
AcDbEntity
  8
0
  6
ByLayer
 62
  256
370
   -1
100
AcDbLine
 10
-314.2818250398876
 20
673.0951573201609
 11
100
 21
700
  0
LINE
  5
6C
100
AcDbEntity
  8
0
  6
ByLayer
 62
  256
370
   -1
100
AcDbLine
 10
100
 20
700
 11
529.2543277488112
 21
662.7657211158487
  0
LINE
  5
6D
100
AcDbEntity
  8
0
  6
ByLayer
 62
  256
370
   -1
100
AcDbLine
 10
519.898134883997
 20
554.9031171167396
 11
1.818989403545856e-12
 21
600.0000000000001
  0
LINE
  5
6E
100
AcDbEntity
  8
0
  6
ByLayer
 62
  256
370
   -1
100
AcDbLine
 10
1.818989403545856e-12
 20
600.0000000000001
 11
-308.2347596801984
 21
579.9822072405535
  0
LINE
  5
6F
100
AcDbEntity
  8
0
  6
ByLayer
 62
  256
370
   -1
100
AcDbLine
 10
-301.3477097598058
 20
473.9351418808641
 11
100
 21
499.9999999999999
  0
LINE
  5
70
100
AcDbEntity
  8
0
  6
ByLayer
 62
  256
370
   -1
100
AcDbLine
 10
100
 20
499.9999999999999
 11
512.0355308848875
 21
464.2593099815527
  0
LINE
  5
71
100
AcDbEntity
  8
0
  6
ByLayer
 62
  256
370
   -1
100
AcDbLine
 10
502.6793380200752
 20
356.3967059824435
 11
0
 21
400
  0
LINE
  5
72
100
AcDbEntity
  8
0
  6
ByLayer
 62
  256
370
   -1
100
AcDbLine
 10
0
 20
400
 11
-295.3006444001165
 21
380.8221918012568
  0
LINE
  5
73
100
AcDbEntity
  8
0
  6
ByLayer
 62
  256
370
   -1
100
AcDbLine
 10
-288.413594479724
 20
274.7751264415675
 11
99.99999999999955
 21
299.9999999999999
  0
LINE
  5
74
100
AcDbEntity
  8
0
  6
ByLayer
 62
  256
370
   -1
100
AcDbLine
 10
99.99999999999955
 20
299.9999999999999
 11
494.8167340209652
 21
265.7528988472566
  0
LINE
  5
75
100
AcDbEntity
  8
0
  6
ByLayer
 62
  256
370
   -1
100
AcDbLine
 10
485.4605411561524
 20
157.8902948481474
 11
0
 21
200
  0
LINE
  5
76
100
AcDbEntity
  8
0
  6
ByLayer
 62
  256
370
   -1
100
AcDbLine
 10
-9.094947017729282e-13
 20
200.0000000000001
 11
-282.3665291200347
 21
181.6621763619601
  0
LINE
  5
77
100
AcDbEntity
  8
0
  6
ByLayer
 62
  256
370
   -1
100
AcDbLine
 10
100
 20
100
 11
477.5979371570431
 21
67.24648771296049
  0
LINE
  5
78
100
AcDbEntity
  8
0
  6
ByLayer
 62
  256
370
   -1
100
AcDbLine
 10
0
 20
0
 11
-269.4324138399529
 21
-17.49783907733653
  0
LINE
  5
79
100
AcDbEntity
  8
0
  6
ByLayer
 62
  256
370
   -1
100
AcDbLine
 10
546.473124612734
 20
861.272132250145
 11
100.0000000000018
 21
900
  0
LINE
  5
7A
100
AcDbEntity
  8
0
  6
ByLayer
 62
  256
370
   -1
100
AcDbLine
 10
100.0000000000018
 20
900
 11
-327.2159403199694
 21
872.2551727594574
  0
LINE
  5
7B
100
AcDbEntity
  8
0
  6
ByLayer
 62
  256
370
   -1
100
AcDbLine
 10
-261.0075283582725
 20
-147.2245568521287
 11
38.36182035278644
 21
-127.7825134328658
  0
LINE
  5
7C
100
AcDbEntity
  8
0
  6
ByLayer
 62
  256
370
   -1
100
AcDbLine
 10
38.36182035278644
 20
-127.7825134328658
 11
32.2002072945285
 21
-32.9057533885672
  0
LINE
  5
7D
100
AcDbEntity
  8
0
  6
ByLayer
 62
  256
370
   -1
100
AcDbLine
 10
32.2002072945285
 20
-32.9057533885672
 11
465.6492262314119
 21
-70.50388719841861
  0
LINE
  5
7E
100
AcDbEntity
  8
0
  6
ByLayer
 62
  256
370
   -1
100
AcDbLine
 10
-262.9517327001988
 20
-117.2876219810228
 11
36.41761601086016
 21
-97.84557856175998
  0
LINE
  5
7F
100
AcDbEntity
  8
0
  6
ByLayer
 62
  256
370
   -1
100
AcDbLine
 10
8.424885481680562
 20
-129.7267177747921
 11
0
 21
0
  0
LINE
  5
80
100
AcDbEntity
  8
0
  6
ByLayer
 62
  256
370
   -1
100
AcDbLine
 10
32.2002072945285
 20
-32.9057533885672
 11
0
 21
0
  0
LINE
  5
81
100
AcDbEntity
  8
0
  6
ByLayer
 62
  256
370
   -1
100
AcDbLine
 10
609.3637601347119
 20
1586.305039606204
 11
81.34647401794138
 21
1632.106192013988
  0
LINE
  5
82
100
AcDbEntity
  8
0
  6
ByLayer
 62
  256
370
   -1
100
AcDbLine
 10
81.34647401794138
 20
1632.106192013988
 11
72.33926319029842
 21
1528.266817529488
  0
LINE
  5
83
100
AcDbEntity
  8
0
  6
ByLayer
 62
  256
370
   -1
100
AcDbLine
 10
72.33926319029842
 20
1528.266817529488
 11
-367.9624905021411
 21
1499.672153948454
  0
LINE
  5
84
100
AcDbEntity
  8
0
  6
ByLayer
 62
  256
370
   -1
100
AcDbLine
 10
606.7712420738939
 20
1556.417268693933
 11
78.7539559571234
 21
1602.218421101718
  0
LINE
  5
85
100
AcDbEntity
  8
0
  6
ByLayer
 62
  256
370
   -1
100
AcDbLine
 10
111.2342449302113
 20
1629.51367395317
 11
99.99999999999999
 21
1500
  0
LINE
  5
86
100
AcDbEntity
  8
0
  6
ByLayer
 62
  256
370
   -1
100
AcDbLine
 10
100
 20
1500
 11
72.33926319029842
 21
1528.266817529488
  0
LINE
  5
87
100
AcDbEntity
  8
0
  6
ByLayer
 62
  256
370
   -1
100
AcDbLine
 10
936.4834885844584
 20
-81.23223257229756
 11
855.1958743140849
 21
34.49297542592103
  0
LINE
  5
88
100
AcDbEntity
  8
0
  6
ByLayer
 62
  256
370
   -1
100
AcDbLine
 10
855.1958743140849
 20
34.49297542592103
 11
970.9210823123035
 21
115.7805896962946
  0
LINE
  5
89
100
AcDbEntity
  8
0
  6
ByLayer
 62
  256
370
   -1
100
AcDbLine
 10
970.9210823123035
 20
115.7805896962946
 11
889.63346804193
 21
231.5057976945134
  0
LINE
  5
8A
100
AcDbEntity
  8
0
  6
ByLayer
 62
  256
370
   -1
100
AcDbLine
 10
889.63346804193
 20
231.5057976945134
 11
1005.358676040149
 21
312.7934119648867
  0
LINE
  5
8B
100
AcDbEntity
  8
0
  6
ByLayer
 62
  256
370
   -1
100
AcDbLine
 10
1005.358676040149
 20
312.7934119648867
 11
924.071061769775
 21
428.5186199631055
  0
LINE
  5
8C
100
AcDbEntity
  8
0
  6
ByLayer
 62
  256
370
   -1
100
AcDbLine
 10
924.071061769775
 20
428.5186199631055
 11
1039.796269767994
 21
509.8062342334788
  0
LINE
  5
8D
100
AcDbEntity
  8
0
  6
ByLayer
 62
  256
370
   -1
100
AcDbLine
 10
1039.796269767994
 20
509.8062342334788
 11
958.5086554976201
 21
625.5314422316974
  0
LINE
  5
8E
100
AcDbEntity
  8
0
  6
ByLayer
 62
  256
370
   -1
100
AcDbLine
 10
958.5086554976201
 20
625.5314422316974
 11
1074.233863495839
 21
706.8190565020709
  0
LINE
  5
8F
100
AcDbEntity
  8
0
  6
ByLayer
 62
  256
370
   -1
100
AcDbLine
 10
1074.233863495839
 20
706.8190565020709
 11
992.9462492254652
 21
822.5442645002895
  0
LINE
  5
90
100
AcDbEntity
  8
0
  6
ByLayer
 62
  256
370
   -1
100
AcDbLine
 10
992.9462492254652
 20
822.5442645002895
 11
1108.671457223684
 21
903.831878770663
  0
LINE
  5
91
100
AcDbEntity
  8
0
  6
ByLayer
 62
  256
370
   -1
100
AcDbLine
 10
1108.671457223684
 20
903.831878770663
 11
1027.38384295331
 21
1019.557086768882
  0
LINE
  5
92
100
AcDbEntity
  8
0
  6
ByLayer
 62
  256
370
   -1
100
AcDbLine
 10
1027.38384295331
 20
1019.557086768882
 11
1143.109050951529
 21
1100.844701039255
  0
LINE
  5
93
100
AcDbEntity
  8
0
  6
ByLayer
 62
  256
370
   -1
100
AcDbLine
 10
1143.109050951529
 20
1100.844701039255
 11
1061.821436681155
 21
1216.569909037474
  0
LINE
  5
94
100
AcDbEntity
  8
0
  6
ByLayer
 62
  256
370
   -1
100
AcDbLine
 10
1061.821436681155
 20
1216.569909037474
 11
1177.546644679374
 21
1297.857523307847
  0
LINE
  5
95
100
AcDbEntity
  8
0
  6
ByLayer
 62
  256
370
   -1
100
AcDbLine
 10
1177.546644679374
 20
1297.857523307847
 11
1096.259030409
 21
1413.582731306066
  0
LINE
  5
96
100
AcDbEntity
  8
0
  6
ByLayer
 62
  256
370
   -1
100
AcDbLine
 10
598.1295152045004
 20
1456.791365653033
 11
1096.259030409
 21
1413.582731306066
  0
LINE
  5
97
100
AcDbEntity
  8
0
  6
ByLayer
 62
  256
370
   -1
100
AcDbLine
 10
1096.259030409
 20
1413.582731306066
 11
1550.105688186599
 21
1303.527239738844
  0
LINE
  5
98
100
AcDbEntity
  8
0
  6
ByLayer
 62
  256
370
   -1
100
AcDbLine
 10
1528.116011393611
 20
1212.846246214667
 11
1177.546644679374
 21
1297.857523307847
  0
LINE
  5
99
100
AcDbEntity
  8
0
  6
ByLayer
 62
  256
370
   -1
100
AcDbLine
 10
580.9107183405777
 20
1258.284954518737
 11
1061.821436681154
 21
1216.569909037474
  0
LINE
  5
9A
100
AcDbEntity
  8
0
  6
ByLayer
 62
  256
370
   -1
100
AcDbLine
 10
1061.821436681154
 20
1216.569909037474
 11
1503.071796919569
 21
1109.568955151305
  0
LINE
  5
9B
100
AcDbEntity
  8
0
  6
ByLayer
 62
  256
370
   -1
100
AcDbLine
 10
1481.08212012658
 20
1018.887961627129
 11
1143.109050951529
 21
1100.844701039255
  0
LINE
  5
9C
100
AcDbEntity
  8
0
  6
ByLayer
 62
  256
370
   -1
100
AcDbLine
 10
1143.109050951529
 20
1100.844701039255
 11
571.5545254757653
 21
1150.422350519628
  0
LINE
  5
9D
100
AcDbEntity
  8
0
  6
ByLayer
 62
  256
370
   -1
100
AcDbLine
 10
563.6919214766572
 20
1059.778543384441
 11
1027.38384295331
 21
1019.557086768882
  0
LINE
  5
9E
100
AcDbEntity
  8
0
  6
ByLayer
 62
  256
370
   -1
100
AcDbLine
 10
1027.38384295331
 20
1019.557086768882
 11
1456.037905652538
 21
915.6106705637667
  0
LINE
  5
9F
100
AcDbEntity
  8
0
  6
ByLayer
 62
  256
370
   -1
100
AcDbLine
 10
1434.04822885955
 20
824.92967703959
 11
1108.671457223686
 21
903.8318787706628
  0
LINE
  5
A0
100
AcDbEntity
  8
0
  6
ByLayer
 62
  256
370
   -1
100
AcDbLine
 10
1108.671457223686
 20
903.8318787706628
 11
554.3357286118394
 21
951.915939385332
  0
LINE
  5
A1
100
AcDbEntity
  8
0
  6
ByLayer
 62
  256
370
   -1
100
AcDbLine
 10
537.1169317479189
 20
753.4095282510359
 11
1074.233863495839
 21
706.8190565020709
  0
LINE
  5
A2
100
AcDbEntity
  8
0
  6
ByLayer
 62
  256
370
   -1
100
AcDbLine
 10
1074.233863495839
 20
706.8190565020709
 11
1387.01433759252
 21
630.9713924520522
  0
LINE
  5
A3
100
AcDbEntity
  8
0
  6
ByLayer
 62
  256
370
   -1
100
AcDbLine
 10
1361.970123118478
 20
527.6941013886902
 11
958.5086554976201
 21
625.5314422316974
  0
LINE
  5
A4
100
AcDbEntity
  8
0
  6
ByLayer
 62
  256
370
   -1
100
AcDbLine
 10
958.5086554976201
 20
625.5314422316974
 11
529.2543277488089
 21
662.7657211158489
  0
LINE
  5
A5
100
AcDbEntity
  8
0
  6
ByLayer
 62
  256
370
   -1
100
AcDbLine
 10
519.8981348839966
 20
554.9031171167396
 11
1039.796269767992
 21
509.8062342334791
  0
LINE
  5
A6
100
AcDbEntity
  8
0
  6
ByLayer
 62
  256
370
   -1
100
AcDbLine
 10
1039.796269767992
 20
509.8062342334791
 11
1339.980446325489
 21
437.0131078645139
  0
LINE
  5
A7
100
AcDbEntity
  8
0
  6
ByLayer
 62
  256
370
   -1
100
AcDbLine
 10
1314.936231851447
 20
333.7358168011518
 11
924.071061769775
 21
428.5186199631049
  0
LINE
  5
A8
100
AcDbEntity
  8
0
  6
ByLayer
 62
  256
370
   -1
100
AcDbLine
 10
924.071061769775
 20
428.5186199631049
 11
512.0355308848875
 21
464.2593099815527
  0
LINE
  5
A9
100
AcDbEntity
  8
0
  6
ByLayer
 62
  256
370
   -1
100
AcDbLine
 10
502.6793380200734
 20
356.3967059824438
 11
1005.358676040149
 21
312.7934119648867
  0
LINE
  5
AA
100
AcDbEntity
  8
0
  6
ByLayer
 62
  256
370
   -1
100
AcDbLine
 10
1005.358676040149
 20
312.7934119648867
 11
1292.946555058459
 21
243.0548232769756
  0
LINE
  5
AB
100
AcDbEntity
  8
0
  6
ByLayer
 62
  256
370
   -1
100
AcDbLine
 10
1267.902340584417
 20
139.7775322136134
 11
889.6334680419304
 21
231.505797694513
  0
LINE
  5
AC
100
AcDbEntity
  8
0
  6
ByLayer
 62
  256
370
   -1
100
AcDbLine
 10
889.6334680419304
 20
231.505797694513
 11
494.8167340209648
 21
265.7528988472567
  0
LINE
  5
AD
100
AcDbEntity
  8
0
  6
ByLayer
 62
  256
370
   -1
100
AcDbLine
 10
485.4605411561512
 20
157.890294848148
 11
970.9210823123035
 21
115.7805896962946
  0
LINE
  5
AE
100
AcDbEntity
  8
0
  6
ByLayer
 62
  256
370
   -1
100
AcDbLine
 10
970.9210823123044
 20
115.780589696294
 11
1245.912663791428
 21
49.09653868943715
  0
LINE
  5
AF
100
AcDbEntity
  8
0
  6
ByLayer
 62
  256
370
   -1
100
AcDbLine
 10
1220.868449317386
 20
-54.18075237392462
 11
855.1958743140849
 21
34.49297542592103
  0
LINE
  5
B0
100
AcDbEntity
  8
0
  6
ByLayer
 62
  256
370
   -1
100
AcDbLine
 10
855.1958743140849
 20
34.49297542592103
 11
477.5979371570418
 21
67.24648771296054
  0
LINE
  5
B1
100
AcDbEntity
  8
0
  6
ByLayer
 62
  256
370
   -1
100
AcDbLine
 10
936.4834885844584
 20
-81.23223257229756
 11
1198.878772524398
 21
-144.8617458981009
  0
LINE
  5
B2
100
AcDbEntity
  8
0
  6
ByLayer
 62
  256
370
   -1
100
AcDbLine
 10
546.4731246127312
 20
861.2721322501452
 11
992.9462492254634
 21
822.5442645002897
  0
LINE
  5
B3
100
AcDbEntity
  8
0
  6
ByLayer
 62
  256
370
   -1
100
AcDbLine
 10
992.9462492254634
 20
822.5442645002897
 11
1409.004014385508
 21
721.6523859762286
  0
LINE
  5
B4
100
AcDbEntity
  8
0
  6
ByLayer
 62
  256
370
   -1
100
AcDbLine
 10
1168.242340182345
 20
-271.200215943257
 11
876.6920246935229
 21
-200.5007566923647
  0
LINE
  5
B5
100
AcDbEntity
  8
0
  6
ByLayer
 62
  256
370
   -1
100
AcDbLine
 10
876.6920246935229
 20
-200.5007566923647
 11
899.0982451682939
 21
-108.102021008271
  0
LINE
  5
B6
100
AcDbEntity
  8
0
  6
ByLayer
 62
  256
370
   -1
100
AcDbLine
 10
899.0982451682939
 20
-108.102021008271
 11
465.6492262314106
 21
-70.50388719841818
  0
LINE
  5
B7
100
AcDbEntity
  8
0
  6
ByLayer
 62
  256
370
   -1
100
AcDbLine
 10
1175.312286107434
 20
-242.0451843943746
 11
883.7619706186122
 21
-171.3457251434823
  0
LINE
  5
B8
100
AcDbEntity
  8
0
  6
ByLayer
 62
  256
370
   -1
100
AcDbLine
 10
905.847056242405
 20
-207.5707026174537
 11
936.4834885844584
 21
-81.23223257229756
  0
LINE
  5
B9
100
AcDbEntity
  8
0
  6
ByLayer
 62
  256
370
   -1
100
AcDbLine
 10
899.0982451682939
 20
-108.102021008271
 11
936.4834885844584
 21
-81.23223257229756
  0
LINE
  5
BA
100
AcDbEntity
  8
0
  6
ByLayer
 62
  256
370
   -1
100
AcDbLine
 10
609.3637601347112
 20
1586.305039606204
 11
1137.381046251482
 21
1540.503887198418
  0
LINE
  5
BB
100
AcDbEntity
  8
0
  6
ByLayer
 62
  256
370
   -1
100
AcDbLine
 10
1137.381046251482
 20
1540.503887198418
 11
1128.373835423838
 21
1436.664512713918
  0
LINE
  5
BC
100
AcDbEntity
  8
0
  6
ByLayer
 62
  256
370
   -1
100
AcDbLine
 10
1128.373835423838
 20
1436.664512713918
 11
1557.175634111688
 21
1332.682271287726
  0
LINE
  5
BD
100
AcDbEntity
  8
0
  6
ByLayer
 62
  256
370
   -1
100
AcDbLine
 10
606.7712420738934
 20
1556.417268693933
 11
1134.788528190664
 21
1510.616116286148
  0
LINE
  5
BE
100
AcDbEntity
  8
0
  6
ByLayer
 62
  256
370
   -1
100
AcDbLine
 10
1107.493275339212
 20
1543.096405259236
 11
1096.259030409
 21
1413.582731306066
  0
LINE
  5
BF
100
AcDbEntity
  8
0
  6
ByLayer
 62
  256
370
   -1
100
AcDbLine
 10
1096.259030409
 20
1413.582731306066
 11
1128.373835423838
 21
1436.664512713918
  0
LINE
  5
C0
100
AcDbEntity
  8
0
  6
ByLayer
 62
  256
370
   -1
100
AcDbLine
 10
-538.8648276799058
 20
-34.99567815467299
 11
-650.9589583992844
 21
51.2302220045417
  0
LINE
  5
C1
100
AcDbEntity
  8
0
  6
ByLayer
 62
  256
370
   -1
100
AcDbLine
 10
-650.9589583992844
 20
51.2302220045417
 11
-564.7330582400696
 21
163.3243527239201
  0
LINE
  5
C2
100
AcDbEntity
  8
0
  6
ByLayer
 62
  256
370
   -1
100
AcDbLine
 10
-564.7330582400696
 20
163.3243527239201
 11
-676.827188959448
 21
249.550252883135
  0
LINE
  5
C3
100
AcDbEntity
  8
0
  6
ByLayer
 62
  256
370
   -1
100
AcDbLine
 10
-676.827188959448
 20
249.550252883135
 11
-590.6012888002331
 21
361.6443836025137
  0
LINE
  5
C4
100
AcDbEntity
  8
0
  6
ByLayer
 62
  256
370
   -1
100
AcDbLine
 10
-590.6012888002331
 20
361.6443836025137
 11
-702.6954195196116
 21
447.8702837617284
  0
LINE
  5
C5
100
AcDbEntity
  8
0
  6
ByLayer
 62
  256
370
   -1
100
AcDbLine
 10
-702.6954195196116
 20
447.8702837617284
 11
-616.4695193603968
 21
559.964414481107
  0
LINE
  5
C6
100
AcDbEntity
  8
0
  6
ByLayer
 62
  256
370
   -1
100
AcDbLine
 10
-616.4695193603968
 20
559.964414481107
 11
-728.5636500797752
 21
646.190314640322
  0
LINE
  5
C7
100
AcDbEntity
  8
0
  6
ByLayer
 62
  256
370
   -1
100
AcDbLine
 10
-728.5636500797752
 20
646.190314640322
 11
-642.3377499205604
 21
758.2844453597004
  0
LINE
  5
C8
100
AcDbEntity
  8
0
  6
ByLayer
 62
  256
370
   -1
100
AcDbLine
 10
-642.3377499205604
 20
758.2844453597004
 11
-754.4318806399389
 21
844.5103455189153
  0
LINE
  5
C9
100
AcDbEntity
  8
0
  6
ByLayer
 62
  256
370
   -1
100
AcDbLine
 10
-754.4318806399389
 20
844.5103455189153
 11
-668.2059804807241
 21
956.6044762382937
  0
LINE
  5
CA
100
AcDbEntity
  8
0
  6
ByLayer
 62
  256
370
   -1
100
AcDbLine
 10
-668.2059804807241
 20
956.6044762382937
 11
-780.3001112001025
 21
1042.830376397509
  0
LINE
  5
CB
100
AcDbEntity
  8
0
  6
ByLayer
 62
  256
370
   -1
100
AcDbLine
 10
-780.3001112001025
 20
1042.830376397509
 11
-694.0742110408877
 21
1154.924507116887
  0
LINE
  5
CC
100
AcDbEntity
  8
0
  6
ByLayer
 62
  256
370
   -1
100
AcDbLine
 10
-694.0742110408877
 20
1154.924507116887
 11
-806.1683417602661
 21
1241.150407276102
  0
LINE
  5
CD
100
AcDbEntity
  8
0
  6
ByLayer
 62
  256
370
   -1
100
AcDbLine
 10
-806.1683417602661
 20
1241.150407276102
 11
-719.9424416010513
 21
1353.244537995481
  0
LINE
  5
CE
100
AcDbEntity
  8
0
  6
ByLayer
 62
  256
370
   -1
100
AcDbLine
 10
-719.9424416010513
 20
1353.244537995481
 11
-832.0365723204297
 21
1439.470438154695
  0
LINE
  5
CF
100
AcDbEntity
  8
0
  6
ByLayer
 62
  256
370
   -1
100
AcDbLine
 10
-1320.39322192752
 20
1332.196103924471
 11
-832.0365723204297
 21
1439.470438154695
  0
LINE
  5
D0
100
AcDbEntity
  8
0
  6
ByLayer
 62
  256
370
   -1
100
AcDbLine
 10
-359.9712208005257
 20
1376.62226899774
 11
-719.9424416010513
 21
1353.244537995481
  0
LINE
  5
D1
100
AcDbEntity
  8
0
  6
ByLayer
 62
  256
370
   -1
100
AcDbLine
 10
-1277.64401224433
 20
1137.584215031932
 11
-806.1683417602679
 21
1241.150407276102
  0
LINE
  5
D2
100
AcDbEntity
  8
0
  6
ByLayer
 62
  256
370
   -1
100
AcDbLine
 10
-806.1683417602679
 20
1241.150407276102
 11
-353.0841708801331
 21
1270.575203638051
  0
LINE
  5
D3
100
AcDbEntity
  8
0
  6
ByLayer
 62
  256
370
   -1
100
AcDbLine
 10
-347.0371055204439
 20
1177.462253558443
 11
-694.0742110408877
 21
1154.924507116887
  0
LINE
  5
D4
100
AcDbEntity
  8
0
  6
ByLayer
 62
  256
370
   -1
100
AcDbLine
 10
-694.0742110408877
 20
1154.924507116887
 11
-1254.415336409707
 21
1031.83778102415
  0
LINE
  5
D5
100
AcDbEntity
  8
0
  6
ByLayer
 62
  256
370
   -1
100
AcDbLine
 10
-1234.894802561138
 20
942.9723261393935
 11
-780.3001112001025
 21
1042.830376397509
  0
LINE
  5
D6
100
AcDbEntity
  8
0
  6
ByLayer
 62
  256
370
   -1
100
AcDbLine
 10
-780.3001112001025
 20
1042.830376397509
 11
-340.1500556000512
 21
1071.415188198754
  0
LINE
  5
D7
100
AcDbEntity
  8
0
  6
ByLayer
 62
  256
370
   -1
100
AcDbLine
 10
-334.102990240362
 20
978.3022381191466
 11
-668.2059804807222
 21
956.604476238294
  0
LINE
  5
D8
100
AcDbEntity
  8
0
  6
ByLayer
 62
  256
370
   -1
100
AcDbLine
 10
-668.2059804807222
 20
956.604476238294
 11
-1211.666126726521
 21
837.2258921316102
  0
LINE
  5
D9
100
AcDbEntity
  8
0
  6
ByLayer
 62
  256
370
   -1
100
AcDbLine
 10
-1168.916917043329
 20
642.6140032390717
 11
-642.3377499205604
 21
758.2844453597004
  0
LINE
  5
DA
100
AcDbEntity
  8
0
  6
ByLayer
 62
  256
370
   -1
100
AcDbLine
 10
-642.3377499205604
 20
758.2844453597004
 11
-321.1688749602803
 21
779.1422226798502
  0
LINE
  5
DB
100
AcDbEntity
  8
0
  6
ByLayer
 62
  256
370
   -1
100
AcDbLine
 10
-314.2818250398876
 20
673.0951573201609
 11
-728.5636500797752
 21
646.190314640322
  0
LINE
  5
DC
100
AcDbEntity
  8
0
  6
ByLayer
 62
  256
370
   -1
100
AcDbLine
 10
-728.5636500797752
 20
646.190314640322
 11
-1149.396383194762
 21
553.7485483543151
  0
LINE
  5
DD
100
AcDbEntity
  8
0
  6
ByLayer
 62
  256
370
   -1
100
AcDbLine
 10
-1126.167707360139
 20
448.0021143465331
 11
-616.4695193603986
 21
559.9644144811069
  0
LINE
  5
DE
100
AcDbEntity
  8
0
  6
ByLayer
 62
  256
370
   -1
100
AcDbLine
 10
-616.4695193603986
 20
559.9644144811069
 11
-308.2347596801985
 21
579.9822072405535
  0
LINE
  5
DF
100
AcDbEntity
  8
0
  6
ByLayer
 62
  256
370
   -1
100
AcDbLine
 10
-301.3477097598058
 20
473.9351418808643
 11
-702.6954195196116
 21
447.8702837617283
  0
LINE
  5
E0
100
AcDbEntity
  8
0
  6
ByLayer
 62
  256
370
   -1
100
AcDbLine
 10
-702.6954195196116
 20
447.8702837617283
 11
-1106.647173511572
 21
359.136659461777
  0
LINE
  5
E1
100
AcDbEntity
  8
0
  6
ByLayer
 62
  256
370
   -1
100
AcDbLine
 10
-1083.41849767695
 20
253.390225453994
 11
-590.6012888002331
 21
361.6443836025137
  0
LINE
  5
E2
100
AcDbEntity
  8
0
  6
ByLayer
 62
  256
370
   -1
100
AcDbLine
 10
-590.6012888002331
 20
361.6443836025137
 11
-295.3006444001165
 21
380.8221918012566
  0
LINE
  5
E3
100
AcDbEntity
  8
0
  6
ByLayer
 62
  256
370
   -1
100
AcDbLine
 10
-288.413594479724
 20
274.7751264415675
 11
-676.8271889594475
 21
249.5502528831351
  0
LINE
  5
E4
100
AcDbEntity
  8
0
  6
ByLayer
 62
  256
370
   -1
100
AcDbLine
 10
-676.8271889594475
 20
249.5502528831351
 11
-1063.897963828382
 21
164.5247705692374
  0
LINE
  5
E5
100
AcDbEntity
  8
0
  6
ByLayer
 62
  256
370
   -1
100
AcDbLine
 10
-1040.66928799376
 20
58.77833656145535
 11
-564.7330582400696
 21
163.3243527239201
  0
LINE
  5
E6
100
AcDbEntity
  8
0
  6
ByLayer
 62
  256
370
   -1
100
AcDbLine
 10
-564.7330582400687
 20
163.3243527239201
 11
-282.3665291200347
 21
181.6621763619595
  0
LINE
  5
E7
100
AcDbEntity
  8
0
  6
ByLayer
 62
  256
370
   -1
100
AcDbLine
 10
-650.9589583992844
 20
51.2302220045417
 11
-1021.148754145193
 21
-30.08711832330115
  0
LINE
  5
E8
100
AcDbEntity
  8
0
  6
ByLayer
 62
  256
370
   -1
100
AcDbLine
 10
-538.8648276799058
 20
-34.99567815467299
 11
-269.4324138399529
 21
-17.49783907733691
  0
LINE
  5
E9
100
AcDbEntity
  8
0
  6
ByLayer
 62
  256
370
   -1
100
AcDbLine
 10
-1192.145592877952
 20
748.3604372468542
 11
-754.4318806399407
 21
844.5103455189151
  0
LINE
  5
EA
100
AcDbEntity
  8
0
  6
ByLayer
 62
  256
370
   -1
100
AcDbLine
 10
-754.4318806399407
 20
844.5103455189151
 11
-327.2159403199694
 21
872.2551727594574
  0
LINE
  5
EB
100
AcDbEntity
  8
0
  6
ByLayer
 62
  256
370
   -1
100
AcDbLine
 10
-261.0075283582723
 20
-147.2245568521287
 11
-560.3768770693313
 21
-166.6666002713915
  0
LINE
  5
EC
100
AcDbEntity
  8
0
  6
ByLayer
 62
  256
370
   -1
100
AcDbLine
 10
-560.3768770693313
 20
-166.6666002713915
 11
-566.5384901275892
 21
-71.78984022709241
  0
LINE
  5
ED
100
AcDbEntity
  8
0
  6
ByLayer
 62
  256
370
   -1
100
AcDbLine
 10
-566.5384901275892
 20
-71.78984022709241
 11
-991.4836182567572
 21
-165.1349513075095
  0
LINE
  5
EE
100
AcDbEntity
  8
0
  6
ByLayer
 62
  256
370
   -1
100
AcDbLine
 10
-262.9517327001986
 20
-117.2876219810232
 11
-562.3210814112575
 21
-136.7296654002856
  0
LINE
  5
EF
100
AcDbEntity
  8
0
  6
ByLayer
 62
  256
370
   -1
100
AcDbLine
 10
-530.4399421982254
 20
-164.7223959294652
 11
-538.8648276799058
 21
-34.99567815467299
  0
LINE
  5
F0
100
AcDbEntity
  8
0
  6
ByLayer
 62
  256
370
   -1
100
AcDbLine
 10
-566.5384901275892
 20
-71.78984022709241
 11
-538.8648276799058
 21
-34.99567815467299
  0
LINE
  5
F1
100
AcDbEntity
  8
0
  6
ByLayer
 62
  256
370
   -1
100
AcDbLine
 10
-1348.284548827379
 20
1459.168832822315
 11
-830.6265002438627
 21
1572.879627106352
  0
LINE
  5
F2
100
AcDbEntity
  8
0
  6
ByLayer
 62
  256
370
   -1
100
AcDbLine
 10
-830.6265002438627
 20
1572.879627106352
 11
-808.2642441945808
 21
1471.07749036742
  0
LINE
  5
F3
100
AcDbEntity
  8
0
  6
ByLayer
 62
  256
370
   -1
100
AcDbLine
 10
-808.2642441945808
 20
1471.07749036742
 11
-367.9624905021412
 21
1499.672153948454
  0
LINE
  5
F4
100
AcDbEntity
  8
0
  6
ByLayer
 62
  256
370
   -1
100
AcDbLine
 10
-1341.848088773565
 20
1429.867433845889
 11
-824.1900401900492
 21
1543.578228129927
  0
LINE
  5
F5
100
AcDbEntity
  8
0
  6
ByLayer
 62
  256
370
   -1
100
AcDbLine
 10
-859.9278992202881
 20
1566.443167052539
 11
-832.0365723204297
 21
1439.470438154695
  0
LINE
  5
F6
100
AcDbEntity
  8
0
  6
ByLayer
 62
  256
370
   -1
100
AcDbLine
 10
-832.0365723204297
 20
1439.470438154695
 11
-808.2642441945808
 21
1471.07749036742
  0
LINE
  5
F7
100
AcDbEntity
  8
0
  6
ByLayer
 62
  256
370
   -1
100
AcDbLine
 10
-1456.975328941234
 20
-236.6714265074947
 11
-1391.3385498911
 21
-111.4044586511441
  0
LINE
  5
F8
100
AcDbEntity
  8
0
  6
ByLayer
 62
  256
370
   -1
100
AcDbLine
 10
-1391.3385498911
 20
-111.4044586511441
 11
-1516.60551774745
 21
-45.76767960101051
  0
LINE
  5
F9
100
AcDbEntity
  8
0
  6
ByLayer
 62
  256
370
   -1
100
AcDbLine
 10
-1516.60551774745
 20
-45.76767960101051
 11
-1450.968738697316
 21
79.49928825534039
  0
LINE
  5
FA
100
AcDbEntity
  8
0
  6
ByLayer
 62
  256
370
   -1
100
AcDbLine
 10
-1450.968738697316
 20
79.49928825534039
 11
-1576.235706553665
 21
145.1360673054742
  0
LINE
  5
FB
100
AcDbEntity
  8
0
  6
ByLayer
 62
  256
370
   -1
100
AcDbLine
 10
-1576.235706553665
 20
145.1360673054742
 11
-1510.598927503531
 21
270.4030351618246
  0
LINE
  5
FC
100
AcDbEntity
  8
0
  6
ByLayer
 62
  256
370
   -1
100
AcDbLine
 10
-1510.598927503531
 20
270.4030351618246
 11
-1635.865895359881
 21
336.0398142119586
  0
LINE
  5
FD
100
AcDbEntity
  8
0
  6
ByLayer
 62
  256
370
   -1
100
AcDbLine
 10
-1635.865895359881
 20
336.0398142119586
 11
-1570.229116309747
 21
461.3067820683086
  0
LINE
  5
FE
100
AcDbEntity
  8
0
  6
ByLayer
 62
  256
370
   -1
100
AcDbLine
 10
-1570.229116309747
 20
461.3067820683086
 11
-1695.496084166097
 21
526.9435611184431
  0
LINE
  5
FF
100
AcDbEntity
  8
0
  6
ByLayer
 62
  256
370
   -1
100
AcDbLine
 10
-1695.496084166097
 20
526.9435611184431
 11
-1629.859305115963
 21
652.2105289747931
  0
LINE
  5
100
100
AcDbEntity
  8
0
  6
ByLayer
 62
  256
370
   -1
100
AcDbLine
 10
-1629.859305115963
 20
652.2105289747931
 11
-1755.126272972313
 21
717.8473080249273
  0
LINE
  5
101
100
AcDbEntity
  8
0
  6
ByLayer
 62
  256
370
   -1
100
AcDbLine
 10
-1755.126272972313
 20
717.8473080249273
 11
-1689.489493922179
 21
843.1142758812775
  0
LINE
  5
102
100
AcDbEntity
  8
0
  6
ByLayer
 62
  256
370
   -1
100
AcDbLine
 10
-1689.489493922179
 20
843.1142758812775
 11
-1814.756461778529
 21
908.7510549314118
  0
LINE
  5
103
100
AcDbEntity
  8
0
  6
ByLayer
 62
  256
370
   -1
100
AcDbLine
 10
-1814.756461778529
 20
908.7510549314118
 11
-1749.119682728395
 21
1034.018022787762
  0
LINE
  5
104
100
AcDbEntity
  8
0
  6
ByLayer
 62
  256
370
   -1
100
AcDbLine
 10
-1749.119682728395
 20
1034.018022787762
 11
-1874.386650584745
 21
1099.654801837896
  0
LINE
  5
105
100
AcDbEntity
  8
0
  6
ByLayer
 62
  256
370
   -1
100
AcDbLine
 10
-1874.386650584745
 20
1099.654801837896
 11
-1808.749871534611
 21
1224.921769694246
  0
LINE
  5
106
100
AcDbEntity
  8
0
  6
ByLayer
 62
  256
370
   -1
100
AcDbLine
 10
-1320.39322192752
 20
1332.196103924471
 11
-1808.749871534611
 21
1224.921769694246
  0
LINE
  5
107
100
AcDbEntity
  8
0
  6
ByLayer
 62
  256
370
   -1
100
AcDbLine
 10
-1808.749871534611
 20
1224.921769694246
 11
-2244.549583306244
 21
1057.089677352642
  0
LINE
  5
108
100
AcDbEntity
  8
0
  6
ByLayer
 62
  256
370
   -1
100
AcDbLine
 10
-2211.015832163725
 20
970.0145603196831
 11
-1874.386650584745
 21
1099.654801837896
  0
LINE
  5
109
100
AcDbEntity
  8
0
  6
ByLayer
 62
  256
370
   -1
100
AcDbLine
 10
-1277.64401224433
 20
1137.584215031932
 11
-1749.119682728393
 21
1034.018022787763
  0
LINE
  5
10A
100
AcDbEntity
  8
0
  6
ByLayer
 62
  256
370
   -1
100
AcDbLine
 10
-1749.119682728393
 20
1034.018022787763
 11
-2172.823981340333
 21
870.8440301270296
  0
LINE
  5
10B
100
AcDbEntity
  8
0
  6
ByLayer
 62
  256
370
   -1
100
AcDbLine
 10
-2139.290230197814
 20
783.768913094071
 11
-1814.756461778529
 21
908.7510549314118
  0
LINE
  5
10C
100
AcDbEntity
  8
0
  6
ByLayer
 62
  256
370
   -1
100
AcDbLine
 10
-1814.756461778529
 20
908.7510549314118
 11
-1254.415336409709
 21
1031.83778102415
  0
LINE
  5
10D
100
AcDbEntity
  8
0
  6
ByLayer
 62
  256
370
   -1
100
AcDbLine
 10
-1234.894802561143
 20
942.9723261393924
 11
-1689.489493922179
 21
843.1142758812775
  0
LINE
  5
10E
100
AcDbEntity
  8
0
  6
ByLayer
 62
  256
370
   -1
100
AcDbLine
 10
-1689.489493922179
 20
843.1142758812775
 11
-2101.098379374423
 21
684.5983829014176
  0
LINE
  5
10F
100
AcDbEntity
  8
0
  6
ByLayer
 62
  256
370
   -1
100
AcDbLine
 10
-2067.564628231903
 20
597.5232658684589
 11
-1755.126272972315
 21
717.8473080249269
  0
LINE
  5
110
100
AcDbEntity
  8
0
  6
ByLayer
 62
  256
370
   -1
100
AcDbLine
 10
-1755.126272972315
 20
717.8473080249269
 11
-1211.666126726516
 21
837.2258921316111
  0
LINE
  5
111
100
AcDbEntity
  8
0
  6
ByLayer
 62
  256
370
   -1
100
AcDbLine
 10
-1168.916917043328
 20
642.6140032390722
 11
-1695.496084166097
 21
526.9435611184431
  0
LINE
  5
112
100
AcDbEntity
  8
0
  6
ByLayer
 62
  256
370
   -1
100
AcDbLine
 10
-1695.496084166097
 20
526.9435611184431
 11
-1995.839026265993
 21
411.2776186428475
  0
LINE
  5
113
100
AcDbEntity
  8
0
  6
ByLayer
 62
  256
370
   -1
100
AcDbLine
 10
-1957.647175442601
 20
312.1070884501941
 11
-1570.229116309747
 21
461.3067820683086
  0
LINE
  5
114
100
AcDbEntity
  8
0
  6
ByLayer
 62
  256
370
   -1
100
AcDbLine
 10
-1570.229116309747
 20
461.3067820683086
 11
-1149.39638319476
 21
553.7485483543155
  0
LINE
  5
115
100
AcDbEntity
  8
0
  6
ByLayer
 62
  256
370
   -1
100
AcDbLine
 10
-1126.167707360139
 20
448.0021143465331
 11
-1635.86589535988
 21
336.0398142119592
  0
LINE
  5
116
100
AcDbEntity
  8
0
  6
ByLayer
 62
  256
370
   -1
100
AcDbLine
 10
-1635.86589535988
 20
336.0398142119592
 11
-1924.113424300082
 21
225.0319714172355
  0
LINE
  5
117
100
AcDbEntity
  8
0
  6
ByLayer
 62
  256
370
   -1
100
AcDbLine
 10
-1885.92157347669
 20
125.8614412245817
 11
-1510.598927503531
 21
270.4030351618241
  0
LINE
  5
118
100
AcDbEntity
  8
0
  6
ByLayer
 62
  256
370
   -1
100
AcDbLine
 10
-1510.598927503531
 20
270.4030351618241
 11
-1106.647173511572
 21
359.136659461777
  0
LINE
  5
119
100
AcDbEntity
  8
0
  6
ByLayer
 62
  256
370
   -1
100
AcDbLine
 10
-1083.418497676948
 20
253.3902254539948
 11
-1576.235706553665
 21
145.1360673054742
  0
LINE
  5
11A
100
AcDbEntity
  8
0
  6
ByLayer
 62
  256
370
   -1
100
AcDbLine
 10
-1576.235706553665
 20
145.1360673054742
 11
-1852.387822334171
 21
38.78632419162341
  0
LINE
  5
11B
100
AcDbEntity
  8
0
  6
ByLayer
 62
  256
370
   -1
100
AcDbLine
 10
-1814.19597151078
 20
-60.38420600103007
 11
-1450.968738697316
 21
79.49928825533942
  0
LINE
  5
11C
100
AcDbEntity
  8
0
  6
ByLayer
 62
  256
370
   -1
100
AcDbLine
 10
-1450.968738697316
 20
79.49928825533942
 11
-1063.897963828382
 21
164.5247705692378
  0
LINE
  5
11D
100
AcDbEntity
  8
0
  6
ByLayer
 62
  256
370
   -1
100
AcDbLine
 10
-1040.669287993759
 20
58.77833656145609
 11
-1516.60551774745
 21
-45.76767960101051
  0
LINE
  5
11E
100
AcDbEntity
  8
0
  6
ByLayer
 62
  256
370
   -1
100
AcDbLine
 10
-1516.60551774745
 20
-45.76767960101046
 11
-1780.66222036826
 21
-147.4593230339882
  0
LINE
  5
11F
100
AcDbEntity
  8
0
  6
ByLayer
 62
  256
370
   -1
100
AcDbLine
 10
-1742.470369544869
 20
-246.6298532266421
 11
-1391.3385498911
 21
-111.4044586511441
  0
LINE
  5
120
100
AcDbEntity
  8
0
  6
ByLayer
 62
  256
370
   -1
100
AcDbLine
 10
-1391.3385498911
 20
-111.4044586511441
 11
-1021.148754145191
 21
-30.08711832330121
  0
LINE
  5
121
100
AcDbEntity
  8
0
  6
ByLayer
 62
  256
370
   -1
100
AcDbLine
 10
-1456.975328941234
 20
-236.6714265074947
 11
-1708.93661840235
 21
-333.7049702596003
  0
LINE
  5
122
100
AcDbEntity
  8
0
  6
ByLayer
 62
  256
370
   -1
100
AcDbLine
 10
-1192.14559287795
 20
748.3604372468549
 11
-1629.859305115961
 21
652.2105289747938
  0
LINE
  5
123
100
AcDbEntity
  8
0
  6
ByLayer
 62
  256
370
   -1
100
AcDbLine
 10
-1629.859305115961
 20
652.2105289747938
 11
-2029.372777408512
 21
498.352735675806
  0
LINE
  5
124
100
AcDbEntity
  8
0
  6
ByLayer
 62
  256
370
   -1
100
AcDbLine
 10
-1662.216764003188
 20
-455.0196651853228
 11
-1382.259775713059
 21
-347.2046165718724
  0
LINE
  5
125
100
AcDbEntity
  8
0
  6
ByLayer
 62
  256
370
   -1
100
AcDbLine
 10
-1382.259775713059
 20
-347.2046165718724
 11
-1416.428746385924
 21
-258.4800623879256
  0
LINE
  5
126
100
AcDbEntity
  8
0
  6
ByLayer
 62
  256
370
   -1
100
AcDbLine
 10
-1416.428746385924
 20
-258.4800623879256
 11
-991.4836182567558
 21
-165.1349513075086
  0
LINE
  5
127
100
AcDbEntity
  8
0
  6
ByLayer
 62
  256
370
   -1
100
AcDbLine
 10
-1672.998268864533
 20
-427.0239663563098
 11
-1393.041280574404
 21
-319.2089177428585
  0
LINE
  5
128
100
AcDbEntity
  8
0
  6
ByLayer
 62
  256
370
   -1
100
AcDbLine
 10
-1410.255474542072
 20
-357.9861214332167
 11
-1456.975328941234
 21
-236.6714265074947
  0
LINE
  5
129
100
AcDbEntity
  8
0
  6
ByLayer
 62
  256
370
   -1
100
AcDbLine
 10
-1416.428746385924
 20
-258.4800623879256
 11
-1456.975328941234
 21
-236.6714265074947
  0
LINE
  5
12A
100
AcDbEntity
  8
0
  6
ByLayer
 62
  256
370
   -1
100
AcDbLine
 10
-1348.284548827378
 20
1459.168832822315
 11
-1865.942597410894
 21
1345.458038538276
  0
LINE
  5
12B
100
AcDbEntity
  8
0
  6
ByLayer
 62
  256
370
   -1
100
AcDbLine
 10
-1865.942597410894
 20
1345.458038538276
 11
-1843.580341361612
 21
1243.655901799344
  0
LINE
  5
12C
100
AcDbEntity
  8
0
  6
ByLayer
 62
  256
370
   -1
100
AcDbLine
 10
-1843.580341361612
 20
1243.655901799344
 11
-2255.331088167589
 21
1085.085376181655
  0
LINE
  5
12D
100
AcDbEntity
  8
0
  6
ByLayer
 62
  256
370
   -1
100
AcDbLine
 10
-1341.848088773565
 20
1429.867433845889
 11
-1859.506137357081
 21
1316.156639561851
  0
LINE
  5
12E
100
AcDbEntity
  8
0
  6
ByLayer
 62
  256
370
   -1
100
AcDbLine
 10
-1836.641198434469
 20
1351.89449859209
 11
-1808.749871534611
 21
1224.921769694246
  0
LINE
  5
12F
100
AcDbEntity
  8
0
  6
ByLayer
 62
  256
370
   -1
100
AcDbLine
 10
-1808.749871534611
 20
1224.921769694246
 11
-1843.580341361612
 21
1243.655901799344
  0
LINE
  5
130
100
AcDbEntity
  8
0
  6
ByLayer
 62
  256
370
   -1
100
AcDbLine
 10
1557.175634111688
 20
1332.682271287726
 11
1168.242340182345
 21
-271.200215943257
  0
LINE
  5
131
100
AcDbEntity
  8
0
  6
ByLayer
 62
  256
370
   -1
100
AcDbLine
 10
-2255.331088167589
 20
1085.085376181655
 11
-1662.216764003188
 21
-455.0196651853228
  0
LINE
  5
132
100
AcDbEntity
  8
0
  6
ByLayer
 62
  256
370
   -1
100
AcDbLine
 10
-1874.386650584745
 20
1099.654801837896
 11
-719.9424416010511
 21
1353.244537995481
  0
LINE
  5
133
100
AcDbEntity
  8
0
  6
ByLayer
 62
  256
370
   -1
100
AcDbLine
 10
-538.8648276799058
 20
-34.99567815467298
 11
-1456.975328941234
 21
-236.6714265074945
  0
LINE
  5
134
100
AcDbEntity
  8
0
  6
ByLayer
 62
  256
370
   -1
100
AcDbLine
 10
-650.9589583992844
 20
51.23022200454171
 11
100
 21
100
  0
LINE
  5
135
100
AcDbEntity
  8
0
  6
ByLayer
 62
  256
370
   -1
100
AcDbLine
 10
-832.0365723204295
 20
1439.470438154695
 11
100
 21
1500
  0
LINE
  5
136
100
AcDbEntity
  8
0
  6
ByLayer
 62
  256
370
   -1
100
AcDbLine
 10
0
 20
1400
 11
1177.546644679373
 21
1297.857523307847
  0
LINE
  5
137
100
AcDbEntity
  8
0
  6
ByLayer
 62
  256
370
   -1
100
AcDbLine
 10
936.4834885844584
 20
-81.23223257229755
 11
-0
 21
-0
  0
LINE
  5
138
100
AcDbEntity
  8
0
  6
ByLayer
 62
  256
370
   -1
100
AcDbLine
 10
609.3637601347119
 20
1586.305039606204
 11
465.6492262314119
 21
-70.50388719841861
  0
LINE
  5
139
100
AcDbEntity
  8
0
  6
ByLayer
 62
  256
370
   -1
100
AcDbLine
 10
-367.9624905021412
 20
1499.672153948454
 11
-261.0075283582725
 21
-147.2245568521287
  0
LWPOLYLINE
  5
13A
100
AcDbEntity
  8
sheet
  6
ByBlock
 62
  256
370
   -1
100
AcDbPolyline
 90
    4
 70
    1
 43
0
 10
2000
 20
2000
 10
3000
 20
2000
 10
3000
 20
2700
 10
2000
 20
2700
  0
LINE
  5
13B
100
AcDbEntity
  8
0
  6
ByLayer
 62
  256
370
   -1
100
AcDbLine
 10
-1.818989403545856e-12
 20
200
 11
554.3357286118444
 21
151.9159393853315
  0
LWPOLYLINE
  5
13C
100
AcDbEntity
  8
sheet
  6
ByBlock
 62
  256
370
   -1
100
AcDbPolyline
 90
    4
 70
    1
 43
0
 10
2000
 20
1200
 10
3000
 20
1200
 10
3000
 20
1900
 10
2000
 20
1900
  0
LWPOLYLINE
  5
13D
100
AcDbEntity
  8
sheet
  6
ByBlock
 62
  256
370
   -1
100
AcDbPolyline
 90
    4
 70
    1
 43
0
 10
2000
 20
400
 10
3000
 20
400
 10
3000
 20
1100
 10
2000
 20
1100
  0
LINE
  5
13E
100
AcDbEntity
  8
laser
  6
ByLayer
 62
  256
370
   -1
100
AcDbLine
 10
609.3637601347119
 20
3586.305039606204
 11
606.8792636597608
 21
3557.662592481945
  0
LINE
  5
13F
100
AcDbEntity
  8
laser
  6
ByLayer
 62
  256
370
   -1
100
AcDbLine
 10
606.8792636597608
 20
3557.662592481945
 11
439.5404587755012
 21
3572.177856106374
  0
LINE
  5
140
100
AcDbEntity
  8
laser
  6
ByLayer
 62
  256
370
   -1
100
AcDbLine
 10
439.5404587755012
 20
3572.177856106374
 11
439.3962701151144
 21
3569.680975743069
  0
LINE
  5
141
100
AcDbEntity
  8
laser
  6
ByLayer
 62
  256
370
   -1
100
AcDbLine
 10
439.3962701151144
 20
3569.680975743069
 11
606.6632204880265
 21
3555.171944905922
  0
LINE
  5
142
100
AcDbEntity
  8
laser
  6
ByLayer
 62
  256
370
   -1
100
AcDbLine
 10
606.6632204880265
 20
3555.171944905922
 11
598.2375367903674
 21
3458.036689441044
  0
LINE
  5
143
100
AcDbEntity
  8
laser
  6
ByLayer
 62
  256
370
   -1
100
AcDbLine
 10
598.2375367903674
 20
3458.036689441044
 11
433.7729123600268
 21
3472.302641574205
  0
LINE
  5
144
100
AcDbEntity
  8
laser
  6
ByLayer
 62
  256
370
   -1
100
AcDbLine
 10
433.7729123600268
 20
3472.302641574205
 11
433.6287236996399
 21
3469.805761210901
  0
LINE
  5
145
100
AcDbEntity
  8
laser
  6
ByLayer
 62
  256
370
   -1
100
AcDbLine
 10
433.6287236996399
 20
3469.805761210901
 11
598.0214936186326
 21
3455.546041865022
  0
LINE
  5
146
100
AcDbEntity
  8
laser
  6
ByLayer
 62
  256
370
   -1
100
AcDbLine
 10
598.0214936186326
 20
3455.546041865022
 11
588.8813439255555
 21
3350.174085441935
  0
LINE
  5
147
100
AcDbEntity
  8
laser
  6
ByLayer
 62
  256
370
   -1
100
AcDbLine
 10
588.8813439255555
 20
3350.174085441935
 11
427.5285265520165
 21
3364.170113932405
  0
LINE
  5
148
100
AcDbEntity
  8
laser
  6
ByLayer
 62
  256
370
   -1
100
AcDbLine
 10
427.5285265520165
 20
3364.170113932405
 11
427.3843378916296
 21
3361.673233569101
  0
LINE
  5
149
100
AcDbEntity
  8
laser
  6
ByLayer
 62
  256
370
   -1
100
AcDbLine
 10
427.3843378916296
 20
3361.673233569101
 11
588.6653007538184
 21
3347.683437865913
  0
LINE
  5
14A
100
AcDbEntity
  8
laser
  6
ByLayer
 62
  256
370
   -1
100
AcDbLine
 10
588.6653007538184
 20
3347.683437865913
 11
581.0187399264451
 21
3259.530278306749
  0
LINE
  5
14B
100
AcDbEntity
  8
laser
  6
ByLayer
 62
  256
370
   -1
100
AcDbLine
 10
581.0187399264451
 20
3259.530278306749
 11
422.2809719605878
 21
3273.299472790787
  0
LINE
  5
14C
100
AcDbEntity
  8
laser
  6
ByLayer
 62
  256
370
   -1
100
AcDbLine
 10
422.2809719605878
 20
3273.299472790787
 11
422.1367833002009
 21
3270.802592427483
  0
LINE
  5
14D
100
AcDbEntity
  8
laser
  6
ByLayer
 62
  256
370
   -1
100
AcDbLine
 10
422.1367833002009
 20
3270.802592427483
 11
580.8026967547103
 21
3257.039630730726
  0
LINE
  5
14E
100
AcDbEntity
  8
laser
  6
ByLayer
 62
  256
370
   -1
100
AcDbLine
 10
580.8026967547103
 20
3257.039630730726
 11
571.6625470616309
 21
3151.66767430764
  0
LINE
  5
14F
100
AcDbEntity
  8
laser
  6
ByLayer
 62
  256
370
   -1
100
AcDbLine
 10
571.6625470616309
 20
3151.66767430764
 11
416.0365861525776
 21
3165.166945148987
  0
LINE
  5
150
100
AcDbEntity
  8
laser
  6
ByLayer
 62
  256
370
   -1
100
AcDbLine
 10
416.0365861525776
 20
3165.166945148987
 11
415.8923974921906
 21
3162.670064785682
  0
LINE
  5
151
100
AcDbEntity
  8
laser
  6
ByLayer
 62
  256
370
   -1
100
AcDbLine
 10
415.8923974921906
 20
3162.670064785682
 11
571.4465038898961
 21
3149.177026731617
  0
LINE
  5
152
100
AcDbEntity
  8
laser
  6
ByLayer
 62
  256
370
   -1
100
AcDbLine
 10
571.4465038898961
 20
3149.177026731617
 11
563.7999430625205
 21
3061.023867172452
  0
LINE
  5
153
100
AcDbEntity
  8
laser
  6
ByLayer
 62
  256
370
   -1
100
AcDbLine
 10
563.7999430625205
 20
3061.023867172452
 11
410.7890315611488
 21
3074.296304007368
  0
LINE
  5
154
100
AcDbEntity
  8
laser
  6
ByLayer
 62
  256
370
   -1
100
AcDbLine
 10
410.7890315611488
 20
3074.296304007368
 11
410.644842900762
 21
3071.799423644064
  0
LINE
  5
155
100
AcDbEntity
  8
laser
  6
ByLayer
 62
  256
370
   -1
100
AcDbLine
 10
410.644842900762
 20
3071.799423644064
 11
563.5838998907857
 21
3058.53321959643
  0
LINE
  5
156
100
AcDbEntity
  8
laser
  6
ByLayer
 62
  256
370
   -1
100
AcDbLine
 10
563.5838998907857
 20
3058.53321959643
 11
554.4437501977068
 21
2953.161263173343
  0
LINE
  5
157
100
AcDbEntity
  8
laser
  6
ByLayer
 62
  256
370
   -1
100
AcDbLine
 10
554.4437501977068
 20
2953.161263173343
 11
404.5446457531385
 21
2966.163776365568
  0
LINE
  5
158
100
AcDbEntity
  8
laser
  6
ByLayer
 62
  256
370
   -1
100
AcDbLine
 10
404.4004570927517
 20
2963.666896002264
 11
554.227707025972
 21
2950.670615597321
  0
LINE
  5
159
100
AcDbEntity
  8
laser
  6
ByLayer
 62
  256
370
   -1
100
AcDbLine
 10
554.227707025972
 20
2950.670615597321
 11
546.5811461985986
 21
2862.517456038157
  0
LINE
  5
15A
100
AcDbEntity
  8
laser
  6
ByLayer
 62
  256
370
   -1
100
AcDbLine
 10
546.5811461985986
 20
2862.517456038157
 11
399.2970911617099
 21
2875.29313522395
  0
LINE
  5
15B
100
AcDbEntity
  8
laser
  6
ByLayer
 62
  256
370
   -1
100
AcDbLine
 10
399.2970911617099
 20
2875.29313522395
 11
399.152902501323
 21
2872.796254860646
  0
LINE
  5
15C
100
AcDbEntity
  8
laser
  6
ByLayer
 62
  256
370
   -1
100
AcDbLine
 10
399.152902501323
 20
2872.796254860646
 11
546.3651030268638
 21
2860.026808462134
  0
LINE
  5
15D
100
AcDbEntity
  8
laser
  6
ByLayer
 62
  256
370
   -1
100
AcDbLine
 10
546.3651030268638
 20
2860.026808462134
 11
537.2249533337863
 21
2754.654852039047
  0
LINE
  5
15E
100
AcDbEntity
  8
laser
  6
ByLayer
 62
  256
370
   -1
100
AcDbLine
 10
537.2249533337863
 20
2754.654852039047
 11
393.0527053536996
 21
2767.16060758215
  0
LINE
  5
15F
100
AcDbEntity
  8
laser
  6
ByLayer
 62
  256
370
   -1
100
AcDbLine
 10
393.0527053536996
 20
2767.16060758215
 11
392.9085166933127
 21
2764.663727218845
  0
LINE
  5
160
100
AcDbEntity
  8
laser
  6
ByLayer
 62
  256
370
   -1
100
AcDbLine
 10
392.9085166933127
 20
2764.663727218845
 11
537.0089101620515
 21
2752.164204463025
  0
LINE
  5
161
100
AcDbEntity
  8
laser
  6
ByLayer
 62
  256
370
   -1
100
AcDbLine
 10
537.0089101620515
 20
2752.164204463025
 11
529.3623493346763
 21
2664.01104490386
  0
LINE
  5
162
100
AcDbEntity
  8
laser
  6
ByLayer
 62
  256
370
   -1
100
AcDbLine
 10
529.3623493346763
 20
2664.01104490386
 11
387.8051507622709
 21
2676.289966440531
  0
LINE
  5
163
100
AcDbEntity
  8
laser
  6
ByLayer
 62
  256
370
   -1
100
AcDbLine
 10
387.8051507622709
 20
2676.289966440531
 11
387.660962101884
 21
2673.793086077227
  0
LINE
  5
164
100
AcDbEntity
  8
laser
  6
ByLayer
 62
  256
370
   -1
100
AcDbLine
 10
387.660962101884
 20
2673.793086077227
 11
529.1463061629415
 21
2661.520397327838
  0
LINE
  5
165
100
AcDbEntity
  8
laser
  6
ByLayer
 62
  256
370
   -1
100
AcDbLine
 10
529.1463061629415
 20
2661.520397327838
 11
520.006156469864
 21
2556.148440904751
  0
LINE
  5
166
100
AcDbEntity
  8
laser
  6
ByLayer
 62
  256
370
   -1
100
AcDbLine
 10
520.006156469864
 20
2556.148440904751
 11
381.5607649542607
 21
2568.157438798731
  0
LINE
  5
167
100
AcDbEntity
  8
laser
  6
ByLayer
 62
  256
370
   -1
100
AcDbLine
 10
381.5607649542607
 20
2568.157438798731
 11
381.4165762938738
 21
2565.660558435427
  0
LINE
  5
168
100
AcDbEntity
  8
laser
  6
ByLayer
 62
  256
370
   -1
100
AcDbLine
 10
381.4165762938738
 20
2565.660558435427
 11
519.7901132981292
 21
2553.657793328729
  0
LINE
  5
169
100
AcDbEntity
  8
laser
  6
ByLayer
 62
  256
370
   -1
100
AcDbLine
 10
519.7901132981292
 20
2553.657793328729
 11
512.1435524707549
 21
2465.504633769564
  0
LINE
  5
16A
100
AcDbEntity
  8
laser
  6
ByLayer
 62
  256
370
   -1
100
AcDbLine
 10
512.1435524707549
 20
2465.504633769564
 11
376.3132103628319
 21
2477.286797657113
  0
LINE
  5
16B
100
AcDbEntity
  8
laser
  6
ByLayer
 62
  256
370
   -1
100
AcDbLine
 10
376.3132103628319
 20
2477.286797657113
 11
376.1690217024451
 21
2474.789917293809
  0
LINE
  5
16C
100
AcDbEntity
  8
laser
  6
ByLayer
 62
  256
370
   -1
100
AcDbLine
 10
376.1690217024451
 20
2474.789917293809
 11
511.9275092990201
 21
2463.013986193541
  0
LINE
  5
16D
100
AcDbEntity
  8
laser
  6
ByLayer
 62
  256
370
   -1
100
AcDbLine
 10
511.9275092990201
 20
2463.013986193541
 11
502.7873596059408
 21
2357.642029770455
  0
LINE
  5
16E
100
AcDbEntity
  8
laser
  6
ByLayer
 62
  256
370
   -1
100
AcDbLine
 10
502.7873596059408
 20
2357.642029770455
 11
370.0688245548217
 21
2369.154270015313
  0
LINE
  5
16F
100
AcDbEntity
  8
laser
  6
ByLayer
 62
  256
370
   -1
100
AcDbLine
 10
369.9246358944348
 20
2366.657389652009
 11
502.571316434206
 21
2355.151382194433
  0
LINE
  5
170
100
AcDbEntity
  8
laser
  6
ByLayer
 62
  256
370
   -1
100
AcDbLine
 10
502.571316434206
 20
2355.151382194433
 11
494.9247556068322
 21
2266.998222635268
  0
LINE
  5
171
100
AcDbEntity
  8
laser
  6
ByLayer
 62
  256
370
   -1
100
AcDbLine
 10
494.9247556068322
 20
2266.998222635268
 11
364.821269963393
 21
2278.283628873694
  0
LINE
  5
172
100
AcDbEntity
  8
laser
  6
ByLayer
 62
  256
370
   -1
100
AcDbLine
 10
364.821269963393
 20
2278.283628873694
 11
364.6770813030061
 21
2275.78674851039
  0
LINE
  5
173
100
AcDbEntity
  8
laser
  6
ByLayer
 62
  256
370
   -1
100
AcDbLine
 10
364.6770813030061
 20
2275.78674851039
 11
494.7087124350974
 21
2264.507575059245
  0
LINE
  5
174
100
AcDbEntity
  8
laser
  6
ByLayer
 62
  256
370
   -1
100
AcDbLine
 10
494.7087124350974
 20
2264.507575059245
 11
485.5685627420199
 21
2159.135618636159
  0
LINE
  5
175
100
AcDbEntity
  8
laser
  6
ByLayer
 62
  256
370
   -1
100
AcDbLine
 10
485.5685627420199
 20
2159.135618636159
 11
358.5768841553827
 21
2170.151101231895
  0
LINE
  5
176
100
AcDbEntity
  8
laser
  6
ByLayer
 62
  256
370
   -1
100
AcDbLine
 10
358.5768841553827
 20
2170.151101231895
 11
358.4326954949958
 21
2167.654220868591
  0
LINE
  5
177
100
AcDbEntity
  8
laser
  6
ByLayer
 62
  256
370
   -1
100
AcDbLine
 10
358.4326954949958
 20
2167.654220868591
 11
485.352519570285
 21
2156.644971060136
  0
LINE
  5
178
100
AcDbEntity
  8
laser
  6
ByLayer
 62
  256
370
   -1
100
AcDbLine
 10
485.352519570285
 20
2156.644971060136
 11
477.7059587429092
 21
2068.491811500972
  0
LINE
  5
179
100
AcDbEntity
  8
laser
  6
ByLayer
 62
  256
370
   -1
100
AcDbLine
 10
477.7059587429092
 20
2068.491811500972
 11
353.329329563954
 21
2079.280460090276
  0
LINE
  5
17A
100
AcDbEntity
  8
laser
  6
ByLayer
 62
  256
370
   -1
100
AcDbLine
 10
353.329329563954
 20
2079.280460090276
 11
353.1851409035671
 21
2076.783579726972
  0
LINE
  5
17B
100
AcDbEntity
  8
laser
  6
ByLayer
 62
  256
370
   -1
100
AcDbLine
 10
353.1851409035671
 20
2076.783579726972
 11
477.4899155711744
 21
2066.001163924949
  0
LINE
  5
17C
100
AcDbEntity
  8
laser
  6
ByLayer
 62
  256
370
   -1
100
AcDbLine
 10
477.4899155711744
 20
2066.001163924949
 11
468.349765878096
 21
1960.629207501863
  0
LINE
  5
17D
100
AcDbEntity
  8
laser
  6
ByLayer
 62
  256
370
   -1
100
AcDbLine
 10
468.349765878096
 20
1960.629207501863
 11
347.0849437559438
 21
1971.147932448476
  0
LINE
  5
17E
100
AcDbEntity
  8
laser
  6
ByLayer
 62
  256
370
   -1
100
AcDbLine
 10
347.0849437559438
 20
1971.147932448476
 11
346.9407550955569
 21
1968.651052085172
  0
LINE
  5
17F
100
AcDbEntity
  8
laser
  6
ByLayer
 62
  256
370
   -1
100
AcDbLine
 10
346.9407550955569
 20
1968.651052085172
 11
468.1337227063612
 21
1958.138559925841
  0
LINE
  5
180
100
AcDbEntity
  8
laser
  6
ByLayer
 62
  256
370
   -1
100
AcDbLine
 10
468.1337227063612
 20
1958.138559925841
 11
465.6492262314106
 21
1929.496112801582
  0
LINE
  5
181
100
AcDbEntity
  8
laser
  6
ByLayer
 62
  256
370
   -1
100
AcDbLine
 10
465.6492262314106
 20
1929.496112801582
 11
34.11134632905737
 21
1966.928471034583
  0
LINE
  5
182
100
AcDbEntity
  8
laser
  6
ByLayer
 62
  256
370
   -1
100
AcDbLine
 10
34.11134632905737
 20
1966.928471034583
 11
17.86776680771315
 21
1983.527967335582
  0
LINE
  5
183
100
AcDbEntity
  8
laser
  6
ByLayer
 62
  256
370
   -1
100
AcDbLine
 10
16.08094767712963
 20
1981.779460145267
 11
32.32452719847392
 21
1965.179963844268
  0
LINE
  5
184
100
AcDbEntity
  8
laser
  6
ByBlock
 62
  256
370
   -1
100
AcDbLine
 10
32.32452719847392
 20
1965.179963844268
 11
36.33660749661323
 21
1903.401793724536
  0
LINE
  5
185
100
AcDbEntity
  8
laser
  6
ByBlock
 62
  256
370
   -1
100
AcDbLine
 10
36.33660749661323
 20
1903.401793724536
 11
7.647044911803428
 21
1901.538597896857
  0
LINE
  5
186
100
AcDbEntity
  8
laser
  6
ByBlock
 62
  256
370
   -1
100
AcDbLine
 10
7.647044911803428
 20
1901.538597896857
 11
4.56872137042015
 21
1948.938744776108
  0
LINE
  5
187
100
AcDbEntity
  8
laser
  6
ByBlock
 62
  256
370
   -1
100
AcDbLine
 10
4.56872137042015
 20
1948.938744776108
 11
2.073976797827991
 21
1948.776727747614
  0
LINE
  5
188
100
AcDbEntity
  8
laser
  6
ByBlock
 62
  256
370
   -1
100
AcDbLine
 10
2.073976797827991
 20
1948.776727747614
 11
5.152300339211272
 21
1901.376580868363
  0
LINE
  5
189
100
AcDbEntity
  8
laser
  6
ByBlock
 62
  256
370
   -1
100
AcDbLine
 10
5.152300339211272
 20
1901.376580868363
 11
-44.16038922714199
 21
1898.174050429634
  0
LINE
  5
18A
100
AcDbEntity
  8
laser
  6
ByBlock
 62
  256
370
   -1
100
AcDbLine
 10
-44.16038922714199
 20
1898.174050429634
 11
-44.09549511744293
 21
1895.672998370947
  0
LINE
  5
18B
100
AcDbEntity
  8
laser
  6
ByBlock
 62
  256
370
   -1
100
AcDbLine
 10
-44.09549511744293
 20
1895.672998370947
 11
5.31431736770513
 21
1898.881836295771
  0
LINE
  5
18C
100
AcDbEntity
  8
laser
  6
ByBlock
 62
  256
370
   -1
100
AcDbLine
 10
5.31431736770513
 20
1898.881836295771
 11
6.124402510174412
 21
1886.40811343281
  0
LINE
  5
18D
100
AcDbEntity
  8
laser
  6
ByBlock
 62
  256
370
   -1
100
AcDbLine
 10
6.124402510174412
 20
1886.40811343281
 11
8.619147082766569
 21
1886.570130461304
  0
LINE
  5
18E
100
AcDbEntity
  8
laser
  6
ByBlock
 62
  256
370
   -1
100
AcDbLine
 10
8.619147082766569
 20
1886.570130461304
 11
7.809061940297286
 21
1899.043853324265
  0
LINE
  5
18F
100
AcDbEntity
  8
laser
  6
ByBlock
 62
  256
370
   -1
100
AcDbLine
 10
7.809061940297286
 20
1899.043853324265
 11
36.49862452510709
 21
1900.907049151944
  0
LINE
  5
190
100
AcDbEntity
  8
laser
  6
ByBlock
 62
  256
370
   -1
100
AcDbLine
 10
36.49862452510709
 20
1900.907049151944
 11
38.36182035278644
 21
1872.217486567134
  0
LINE
  5
191
100
AcDbEntity
  8
laser
  6
ByBlock
 62
  256
370
   -1
100
AcDbLine
 10
38.36182035278644
 20
1872.217486567134
 11
9.672257767976641
 21
1870.354290739455
  0
LINE
  5
192
100
AcDbEntity
  8
laser
  6
ByBlock
 62
  256
370
   -1
100
AcDbLine
 10
9.672257767976641
 20
1870.354290739455
 11
8.781164111260429
 21
1884.075385888712
  0
LINE
  5
193
100
AcDbEntity
  8
laser
  6
ByBlock
 62
  256
370
   -1
100
AcDbLine
 10
8.781164111260429
 20
1884.075385888712
 11
6.286419538668273
 21
1883.913368860218
  0
LINE
  5
194
100
AcDbEntity
  8
laser
  6
ByBlock
 62
  256
370
   -1
100
AcDbLine
 10
6.286419538668273
 20
1883.913368860218
 11
7.177513195384484
 21
1870.192273710961
  0
LINE
  5
195
100
AcDbEntity
  8
laser
  6
ByBlock
 62
  256
370
   -1
100
AcDbLine
 10
7.177513195384484
 20
1870.192273710961
 11
-261.0075283582725
 21
1852.775443147871
  0
LINE
  5
196
100
AcDbEntity
  8
laser
  6
ByBlock
 62
  256
370
   -1
100
AcDbLine
 10
-261.0075283582725
 20
1852.775443147871
 11
-262.8707241859517
 21
1881.465005732681
  0
LINE
  5
197
100
AcDbEntity
  8
laser
  6
ByBlock
 62
  256
370
   -1
100
AcDbLine
 10
-262.8707241859517
 20
1881.465005732681
 11
-191.6417652548566
 21
1886.090851759369
  0
LINE
  5
198
100
AcDbEntity
  8
laser
  6
ByBlock
 62
  256
370
   -1
100
AcDbLine
 10
-191.6417652548566
 20
1886.090851759369
 11
-191.7714225033019
 21
1888.587697883945
  0
LINE
  5
199
100
AcDbEntity
  8
laser
  6
ByBlock
 62
  256
370
   -1
100
AcDbLine
 10
-191.7714225033019
 20
1888.587697883945
 11
-263.0327412144457
 21
1883.959750305273
  0
LINE
  5
19A
100
AcDbEntity
  8
laser
  6
ByBlock
 62
  256
370
   -1
100
AcDbLine
 10
-263.0327412144457
 20
1883.959750305273
 11
-269.3514053257061
 21
1981.254788636367
  0
LINE
  5
19B
100
AcDbEntity
  8
laser
  6
ByBlock
 62
  256
370
   -1
100
AcDbLine
 10
-269.3514053257061
 20
1981.254788636367
 11
-196.8280551926697
 21
1985.964696742417
  0
LINE
  5
19C
100
AcDbEntity
  8
laser
  6
ByBlock
 62
  256
370
   -1
100
AcDbLine
 10
-196.8280551926697
 20
1985.964696742417
 11
-196.957712441115
 21
1988.461542866993
  0
LINE
  5
19D
100
AcDbEntity
  8
laser
  6
ByBlock
 62
  256
370
   -1
100
AcDbLine
 10
-196.957712441115
 20
1988.461542866993
 11
-269.5134223541999
 21
1983.74953320896
  0
LINE
  5
19E
100
AcDbEntity
  8
laser
  6
ByBlock
 62
  256
370
   -1
100
AcDbLine
 10
-269.5134223541999
 20
1983.74953320896
 11
-275.3984706853952
 21
2074.367738715975
  0
LINE
  5
19F
100
AcDbEntity
  8
laser
  6
ByBlock
 62
  256
370
   -1
100
AcDbLine
 10
-275.3984706853952
 20
2074.367738715975
 11
-201.6673357485162
 21
2079.1560843932
  0
LINE
  5
1A0
100
AcDbEntity
  8
laser
  6
ByBlock
 62
  256
370
   -1
100
AcDbLine
 10
-201.6673357485162
 20
2079.1560843932
 11
-201.7969929969615
 21
2081.652930517776
  0
LINE
  5
1A1
100
AcDbEntity
  8
laser
  6
ByBlock
 62
  256
370
   -1
100
AcDbLine
 10
-201.7969929969615
 20
2081.652930517776
 11
-275.5604877138892
 21
2076.862483288567
  0
LINE
  5
1A2
100
AcDbEntity
  8
laser
  6
ByBlock
 62
  256
370
   -1
100
AcDbLine
 10
-275.5604877138892
 20
2076.862483288567
 11
-282.2855206057878
 21
2180.414804075664
  0
LINE
  5
1A3
100
AcDbEntity
  8
laser
  6
ByBlock
 62
  256
370
   -1
100
AcDbLine
 10
-282.2855206057878
 20
2180.414804075664
 11
-207.1788301320684
 21
2185.292482914711
  0
LINE
  5
1A4
100
AcDbEntity
  8
laser
  6
ByBlock
 62
  256
370
   -1
100
AcDbLine
 10
-207.1788301320684
 20
2185.292482914711
 11
-207.3084873805138
 21
2187.789329039287
  0
LINE
  5
1A5
100
AcDbEntity
  8
laser
  6
ByBlock
 62
  256
370
   -1
100
AcDbLine
 10
-207.3084873805138
 20
2187.789329039287
 11
-282.4475376342817
 21
2182.909548648256
  0
LINE
  5
1A6
100
AcDbEntity
  8
laser
  6
ByBlock
 62
  256
370
   -1
100
AcDbLine
 10
-282.4475376342817
 20
2182.909548648256
 11
-288.3325859654771
 21
2273.527754155271
  0
LINE
  5
1A7
100
AcDbEntity
  8
laser
  6
ByBlock
 62
  256
370
   -1
100
AcDbLine
 10
-288.3325859654771
 20
2273.527754155271
 11
-212.018110687915
 21
2278.483870565494
  0
LINE
  5
1A8
100
AcDbEntity
  8
laser
  6
ByBlock
 62
  256
370
   -1
100
AcDbLine
 10
-212.018110687915
 20
2278.483870565494
 11
-212.1477679363603
 21
2280.98071669007
  0
LINE
  5
1A9
100
AcDbEntity
  8
laser
  6
ByBlock
 62
  256
370
   -1
100
AcDbLine
 10
-212.1477679363603
 20
2280.98071669007
 11
-288.4946029939709
 21
2276.022498727863
  0
LINE
  5
1AA
100
AcDbEntity
  8
laser
  6
ByBlock
 62
  256
370
   -1
100
AcDbLine
 10
-288.4946029939709
 20
2276.022498727863
 11
-295.2196358858696
 21
2379.57481951496
  0
LINE
  5
1AB
100
AcDbEntity
  8
laser
  6
ByBlock
 62
  256
370
   -1
100
AcDbLine
 10
-295.2196358858696
 20
2379.57481951496
 11
-217.5296050714672
 21
2384.620269087005
  0
LINE
  5
1AC
100
AcDbEntity
  8
laser
  6
ByBlock
 62
  256
370
   -1
100
AcDbLine
 10
-217.6592623199126
 20
2387.117115211582
 11
-295.3816529143635
 21
2382.069564087553
  0
LINE
  5
1AD
100
AcDbEntity
  8
laser
  6
ByBlock
 62
  256
370
   -1
100
AcDbLine
 10
-295.3816529143635
 20
2382.069564087553
 11
-301.266701245559
 21
2472.687769594568
  0
LINE
  5
1AE
100
AcDbEntity
  8
laser
  6
ByBlock
 62
  256
370
   -1
100
AcDbLine
 10
-301.266701245559
 20
2472.687769594568
 11
-222.3688856273138
 21
2477.811656737789
  0
LINE
  5
1AF
100
AcDbEntity
  8
laser
  6
ByBlock
 62
  256
370
   -1
100
AcDbLine
 10
-222.3688856273138
 20
2477.811656737789
 11
-222.4985428757591
 21
2480.308502862365
  0
LINE
  5
1B0
100
AcDbEntity
  8
laser
  6
ByBlock
 62
  256
370
   -1
100
AcDbLine
 10
-222.4985428757591
 20
2480.308502862365
 11
-301.4287182740528
 21
2475.18251416716
  0
LINE
  5
1B1
100
AcDbEntity
  8
laser
  6
ByBlock
 62
  256
370
   -1
100
AcDbLine
 10
-301.4287182740528
 20
2475.18251416716
 11
-308.1537511659515
 21
2578.734834954257
  0
LINE
  5
1B2
100
AcDbEntity
  8
laser
  6
ByBlock
 62
  256
370
   -1
100
AcDbLine
 10
-308.1537511659515
 20
2578.734834954257
 11
-227.880380010866
 21
2583.9480552593
  0
LINE
  5
1B3
100
AcDbEntity
  8
laser
  6
ByBlock
 62
  256
370
   -1
100
AcDbLine
 10
-227.880380010866
 20
2583.9480552593
 11
-228.0100372593113
 21
2586.444901383876
  0
LINE
  5
1B4
100
AcDbEntity
  8
laser
  6
ByBlock
 62
  256
370
   -1
100
AcDbLine
 10
-228.0100372593113
 20
2586.444901383876
 11
-308.3157681944453
 21
2581.22957952685
  0
LINE
  5
1B5
100
AcDbEntity
  8
laser
  6
ByBlock
 62
  256
370
   -1
100
AcDbLine
 10
-308.3157681944453
 20
2581.22957952685
 11
-314.2008165256407
 21
2671.847785033865
  0
LINE
  5
1B6
100
AcDbEntity
  8
laser
  6
ByBlock
 62
  256
370
   -1
100
AcDbLine
 10
-314.2008165256407
 20
2671.847785033865
 11
-232.7196605667126
 21
2677.139442910083
  0
LINE
  5
1B7
100
AcDbEntity
  8
laser
  6
ByBlock
 62
  256
370
   -1
100
AcDbLine
 10
-232.7196605667126
 20
2677.139442910083
 11
-232.8493178151579
 21
2679.636289034659
  0
LINE
  5
1B8
100
AcDbEntity
  8
laser
  6
ByBlock
 62
  256
370
   -1
100
AcDbLine
 10
-232.8493178151579
 20
2679.636289034659
 11
-314.3628335541346
 21
2674.342529606457
  0
LINE
  5
1B9
100
AcDbEntity
  8
laser
  6
ByBlock
 62
  256
370
   -1
100
AcDbLine
 10
-314.3628335541346
 20
2674.342529606457
 11
-321.0878664460332
 21
2777.894850393554
  0
LINE
  5
1BA
100
AcDbEntity
  8
laser
  6
ByBlock
 62
  256
370
   -1
100
AcDbLine
 10
-321.0878664460332
 20
2777.894850393554
 11
-238.2311549502648
 21
2783.275841431594
  0
LINE
  5
1BB
100
AcDbEntity
  8
laser
  6
ByBlock
 62
  256
370
   -1
100
AcDbLine
 10
-238.2311549502648
 20
2783.275841431594
 11
-238.3608121987101
 21
2785.77268755617
  0
LINE
  5
1BC
100
AcDbEntity
  8
laser
  6
ByBlock
 62
  256
370
   -1
100
AcDbLine
 10
-238.3608121987101
 20
2785.77268755617
 11
-321.2498834745271
 21
2780.389594966146
  0
LINE
  5
1BD
100
AcDbEntity
  8
laser
  6
ByBlock
 62
  256
370
   -1
100
AcDbLine
 10
-321.2498834745271
 20
2780.389594966146
 11
-327.1349318057225
 21
2871.007800473161
  0
LINE
  5
1BE
100
AcDbEntity
  8
laser
  6
ByBlock
 62
  256
370
   -1
100
AcDbLine
 10
-327.1349318057225
 20
2871.007800473161
 11
-243.0704355061114
 21
2876.467229082377
  0
LINE
  5
1BF
100
AcDbEntity
  8
laser
  6
ByBlock
 62
  256
370
   -1
100
AcDbLine
 10
-243.0704355061114
 20
2876.467229082377
 11
-243.2000927545567
 21
2878.964075206954
  0
LINE
  5
1C0
100
AcDbEntity
  8
laser
  6
ByBlock
 62
  256
370
   -1
100
AcDbLine
 10
-243.2000927545567
 20
2878.964075206954
 11
-327.2969488342164
 21
2873.502545045754
  0
LINE
  5
1C1
100
AcDbEntity
  8
laser
  6
ByBlock
 62
  256
370
   -1
100
AcDbLine
 10
-327.2969488342164
 20
2873.502545045754
 11
-334.021981726115
 21
2977.054865832851
  0
LINE
  5
1C2
100
AcDbEntity
  8
laser
  6
ByBlock
 62
  256
370
   -1
100
AcDbLine
 10
-334.021981726115
 20
2977.054865832851
 11
-248.5819298896636
 21
2982.603627603888
  0
LINE
  5
1C3
100
AcDbEntity
  8
laser
  6
ByBlock
 62
  256
370
   -1
100
AcDbLine
 10
-248.7115871381089
 20
2985.100473728464
 11
-334.1839987546089
 21
2979.549610405443
  0
LINE
  5
1C4
100
AcDbEntity
  8
laser
  6
ByBlock
 62
  256
370
   -1
100
AcDbLine
 10
-334.1839987546089
 20
2979.549610405443
 11
-340.0690470858043
 21
3070.167815912458
  0
LINE
  5
1C5
100
AcDbEntity
  8
laser
  6
ByBlock
 62
  256
370
   -1
100
AcDbLine
 10
-340.0690470858043
 20
3070.167815912458
 11
-253.4212104455101
 21
3075.795015254672
  0
LINE
  5
1C6
100
AcDbEntity
  8
laser
  6
ByBlock
 62
  256
370
   -1
100
AcDbLine
 10
-253.4212104455101
 20
3075.795015254672
 11
-253.5508676939555
 21
3078.291861379248
  0
LINE
  5
1C7
100
AcDbEntity
  8
laser
  6
ByBlock
 62
  256
370
   -1
100
AcDbLine
 10
-253.5508676939555
 20
3078.291861379248
 11
-340.2310641142982
 21
3072.66256048505
  0
LINE
  5
1C8
100
AcDbEntity
  8
laser
  6
ByBlock
 62
  256
370
   -1
100
AcDbLine
 10
-340.2310641142982
 20
3072.66256048505
 11
-346.9560970061968
 21
3176.214881272147
  0
LINE
  5
1C9
100
AcDbEntity
  8
laser
  6
ByBlock
 62
  256
370
   -1
100
AcDbLine
 10
-346.9560970061968
 20
3176.214881272147
 11
-258.9327048290623
 21
3181.931413776183
  0
LINE
  5
1CA
100
AcDbEntity
  8
laser
  6
ByBlock
 62
  256
370
   -1
100
AcDbLine
 10
-258.9327048290623
 20
3181.931413776183
 11
-259.0623620775077
 21
3184.428259900758
  0
LINE
  5
1CB
100
AcDbEntity
  8
laser
  6
ByBlock
 62
  256
370
   -1
100
AcDbLine
 10
-259.0623620775077
 20
3184.428259900758
 11
-347.1181140346907
 21
3178.709625844739
  0
LINE
  5
1CC
100
AcDbEntity
  8
laser
  6
ByBlock
 62
  256
370
   -1
100
AcDbLine
 10
-347.1181140346907
 20
3178.709625844739
 11
-353.0031623658862
 21
3269.327831351754
  0
LINE
  5
1CD
100
AcDbEntity
  8
laser
  6
ByBlock
 62
  256
370
   -1
100
AcDbLine
 10
-353.0031623658862
 20
3269.327831351754
 11
-263.7719853849089
 21
3275.122801426966
  0
LINE
  5
1CE
100
AcDbEntity
  8
laser
  6
ByBlock
 62
  256
370
   -1
100
AcDbLine
 10
-263.7719853849089
 20
3275.122801426966
 11
-263.9016426333542
 21
3277.619647551542
  0
LINE
  5
1CF
100
AcDbEntity
  8
laser
  6
ByBlock
 62
  256
370
   -1
100
AcDbLine
 10
-263.9016426333542
 20
3277.619647551542
 11
-353.16517939438
 21
3271.822575924347
  0
LINE
  5
1D0
100
AcDbEntity
  8
laser
  6
ByBlock
 62
  256
370
   -1
100
AcDbLine
 10
-353.16517939438
 20
3271.822575924347
 11
-359.8902122862787
 21
3375.374896711444
  0
LINE
  5
1D1
100
AcDbEntity
  8
laser
  6
ByBlock
 62
  256
370
   -1
100
AcDbLine
 10
-359.8902122862787
 20
3375.374896711444
 11
-269.2834797684611
 21
3381.259199948477
  0
LINE
  5
1D2
100
AcDbEntity
  8
laser
  6
ByBlock
 62
  256
370
   -1
100
AcDbLine
 10
-269.2834797684611
 20
3381.259199948477
 11
-269.4131370169065
 21
3383.756046073053
  0
LINE
  5
1D3
100
AcDbEntity
  8
laser
  6
ByBlock
 62
  256
370
   -1
100
AcDbLine
 10
-269.4131370169065
 20
3383.756046073053
 11
-360.0522293147726
 21
3377.869641284036
  0
LINE
  5
1D4
100
AcDbEntity
  8
laser
  6
ByBlock
 62
  256
370
   -1
100
AcDbLine
 10
-360.0522293147726
 20
3377.869641284036
 11
-365.9372776459679
 21
3468.487846791052
  0
LINE
  5
1D5
100
AcDbEntity
  8
laser
  6
ByBlock
 62
  256
370
   -1
100
AcDbLine
 10
-365.9372776459679
 20
3468.487846791052
 11
-274.1227603243077
 21
3474.450587599261
  0
LINE
  5
1D6
100
AcDbEntity
  8
laser
  6
ByBlock
 62
  256
370
   -1
100
AcDbLine
 10
-274.1227603243077
 20
3474.450587599261
 11
-274.2524175727531
 21
3476.947433723837
  0
LINE
  5
1D7
100
AcDbEntity
  8
laser
  6
ByBlock
 62
  256
370
   -1
100
AcDbLine
 10
-274.2524175727531
 20
3476.947433723837
 11
-366.0992946744618
 21
3470.982591363644
  0
LINE
  5
1D8
100
AcDbEntity
  8
laser
  6
ByBlock
 62
  256
370
   -1
100
AcDbLine
 10
-366.0992946744618
 20
3470.982591363644
 11
-367.9624905021411
 21
3499.672153948454
  0
LINE
  5
1D9
100
AcDbEntity
  8
laser
  6
ByBlock
 62
  256
370
   -1
100
AcDbLine
 10
-367.9624905021411
 20
3499.672153948454
 11
71.44585362500666
 21
3527.392563934331
  0
LINE
  5
1DA
100
AcDbEntity
  8
laser
  6
ByBlock
 62
  256
370
   -1
100
AcDbLine
 10
71.44585362500666
 20
3527.392563934331
 11
84.40196843470017
 21
3514.152564734878
  0
LINE
  5
1DB
100
AcDbEntity
  8
laser
  6
ByBlock
 62
  256
370
   -1
100
AcDbLine
 10
86.18878756528397
 20
3515.901071925193
 11
73.23267275559019
 21
3529.141071124644
  0
LINE
  5
1DC
100
AcDbEntity
  8
laser
  6
ByBlock
 62
  256
370
   -1
100
AcDbLine
 10
73.23267275559019
 20
3529.141071124644
 11
78.64593437125599
 21
3600.973097313707
  0
LINE
  5
1DD
100
AcDbEntity
  8
laser
  6
ByBlock
 62
  256
370
   -1
100
AcDbLine
 10
78.64593437125599
 20
3600.973097313707
 11
107.2883814955146
 21
3598.488600838757
  0
LINE
  5
1DE
100
AcDbEntity
  8
laser
  6
ByBlock
 62
  256
370
   -1
100
AcDbLine
 10
107.2883814955146
 20
3598.488600838757
 11
103.1835612325528
 21
3551.166296894329
  0
LINE
  5
1DF
100
AcDbEntity
  8
laser
  6
ByBlock
 62
  256
370
   -1
100
AcDbLine
 10
103.1835612325528
 20
3551.166296894329
 11
105.6742088085753
 21
3550.950253722594
  0
LINE
  5
1E0
100
AcDbEntity
  8
laser
  6
ByBlock
 62
  256
370
   -1
100
AcDbLine
 10
105.6742088085753
 20
3550.950253722594
 11
109.7790290715372
 21
3598.272557667022
  0
LINE
  5
1E1
100
AcDbEntity
  8
laser
  6
ByBlock
 62
  256
370
   -1
100
AcDbLine
 10
109.7790290715372
 20
3598.272557667022
 11
268.1094949917346
 21
3584.538693282129
  0
LINE
  5
1E2
100
AcDbEntity
  8
laser
  6
ByBlock
 62
  256
370
   -1
100
AcDbLine
 10
268.1094949917346
 20
3584.538693282129
 11
268.1817094311199
 21
3587.041816816542
  0
LINE
  5
1E3
100
AcDbEntity
  8
laser
  6
ByBlock
 62
  256
370
   -1
100
AcDbLine
 10
268.1817094311199
 20
3587.041816816542
 11
109.995072243272
 21
3600.763205243044
  0
LINE
  5
1E4
100
AcDbEntity
  8
laser
  6
ByBlock
 62
  256
370
   -1
100
AcDbLine
 10
109.995072243272
 20
3600.763205243044
 11
111.0752881019462
 21
3613.216443123157
  0
LINE
  5
1E5
100
AcDbEntity
  8
laser
  6
ByBlock
 62
  256
370
   -1
100
AcDbLine
 10
111.0752881019462
 20
3613.216443123157
 11
108.5846405259237
 21
3613.432486294892
  0
LINE
  5
1E6
100
AcDbEntity
  8
laser
  6
ByBlock
 62
  256
370
   -1
100
AcDbLine
 10
108.5846405259237
 20
3613.432486294892
 11
107.5044246672495
 21
3600.979248414779
  0
LINE
  5
1E7
100
AcDbEntity
  8
laser
  6
ByBlock
 62
  256
370
   -1
100
AcDbLine
 10
107.5044246672495
 20
3600.979248414779
 11
78.86197754299081
 21
3603.463744889729
  0
LINE
  5
1E8
100
AcDbEntity
  8
laser
  6
ByBlock
 62
  256
370
   -1
100
AcDbLine
 10
78.86197754299081
 20
3603.463744889729
 11
81.34647401794139
 21
3632.106192013988
  0
LINE
  5
1E9
100
AcDbEntity
  8
laser
  6
ByBlock
 62
  256
370
   -1
100
AcDbLine
 10
81.34647401794139
 20
3632.106192013988
 11
109.9889211422
 21
3629.621695539037
  0
LINE
  5
1EA
100
AcDbEntity
  8
laser
  6
ByBlock
 62
  256
370
   -1
100
AcDbLine
 10
109.9889211422
 20
3629.621695539037
 11
108.8006836976584
 21
3615.923133870914
  0
LINE
  5
1EB
100
AcDbEntity
  8
laser
  6
ByBlock
 62
  256
370
   -1
100
AcDbLine
 10
108.8006836976584
 20
3615.923133870914
 11
111.291331273681
 21
3615.707090699179
  0
LINE
  5
1EC
100
AcDbEntity
  8
laser
  6
ByBlock
 62
  256
370
   -1
100
AcDbLine
 10
111.291331273681
 20
3615.707090699179
 11
112.4795687182226
 21
3629.405652367303
  0
LINE
  5
1ED
100
AcDbEntity
  8
laser
  6
ByBlock
 62
  256
370
   -1
100
AcDbLine
 10
112.4795687182226
 20
3629.405652367303
 11
609.3637601347109
 21
3586.305039606204
  0
LINE
  5
1EE
100
AcDbEntity
  8
laser
  6
ByBlock
 62
  256
370
   -1
100
AcDbLine
 10
437.048774923415
 20
3572.393989166525
 11
436.9045862630281
 21
3569.897108803221
  0
LINE
  5
1EF
100
AcDbEntity
  8
laser
  6
ByBlock
 62
  256
370
   -1
100
AcDbLine
 10
436.9045862630281
 20
3569.897108803221
 11
270.6042919879241
 21
3584.322290182357
  0
LINE
  5
1F0
100
AcDbEntity
  8
laser
  6
ByBlock
 62
  256
370
   -1
100
AcDbLine
 10
270.6042919879241
 20
3584.322290182357
 11
270.6765064273094
 21
3586.82541371677
  0
LINE
  5
1F1
100
AcDbEntity
  8
laser
  6
ByBlock
 62
  256
370
   -1
100
AcDbLine
 10
270.6765064273094
 20
3586.82541371677
 11
437.048774923415
 21
3572.393989166525
  0
LINE
  5
1F2
100
AcDbEntity
  8
laser
  6
ByBlock
 62
  256
370
   -1
100
AcDbLine
 10
431.2812285079405
 20
3472.518774634357
 11
431.1370398475536
 21
3470.021894271053
  0
LINE
  5
1F3
100
AcDbEntity
  8
laser
  6
ByBlock
 62
  256
370
   -1
100
AcDbLine
 10
431.1370398475536
 20
3470.021894271053
 11
267.7157144125109
 21
3484.197348805845
  0
LINE
  5
1F4
100
AcDbEntity
  8
laser
  6
ByBlock
 62
  256
370
   -1
100
AcDbLine
 10
267.7157144125109
 20
3484.197348805845
 11
267.7879288518963
 21
3486.700472340257
  0
LINE
  5
1F5
100
AcDbEntity
  8
laser
  6
ByBlock
 62
  256
370
   -1
100
AcDbLine
 10
267.7879288518963
 20
3486.700472340257
 11
431.2812285079381
 21
3472.518774634357
  0
LINE
  5
1F6
100
AcDbEntity
  8
laser
  6
ByBlock
 62
  256
370
   -1
100
AcDbLine
 10
425.0368426999302
 20
3364.386246992557
 11
424.8926540395433
 21
3361.889366629252
  0
LINE
  5
1F7
100
AcDbEntity
  8
laser
  6
ByBlock
 62
  256
370
   -1
100
AcDbLine
 10
424.8926540395433
 20
3361.889366629252
 11
264.5883199334909
 21
3375.794447828423
  0
LINE
  5
1F8
100
AcDbEntity
  8
laser
  6
ByBlock
 62
  256
370
   -1
100
AcDbLine
 10
264.5883199334909
 20
3375.794447828423
 11
264.6605343728763
 21
3378.297571362837
  0
LINE
  5
1F9
100
AcDbEntity
  8
laser
  6
ByBlock
 62
  256
370
   -1
100
AcDbLine
 10
264.6605343728763
 20
3378.297571362837
 11
425.0368426999302
 21
3364.386246992557
  0
LINE
  5
1FA
100
AcDbEntity
  8
laser
  6
ByBlock
 62
  256
370
   -1
100
AcDbLine
 10
419.7892881085015
 20
3273.515605850938
 11
419.6450994481146
 21
3271.018725487634
  0
LINE
  5
1FB
100
AcDbEntity
  8
laser
  6
ByBlock
 62
  256
370
   -1
100
AcDbLine
 10
419.6450994481146
 20
3271.018725487634
 11
261.9601714234264
 21
3284.6965947748
  0
LINE
  5
1FC
100
AcDbEntity
  8
laser
  6
ByBlock
 62
  256
370
   -1
100
AcDbLine
 10
261.9601714234264
 20
3284.6965947748
 11
262.0323858628117
 21
3287.199718309213
  0
LINE
  5
1FD
100
AcDbEntity
  8
laser
  6
ByBlock
 62
  256
370
   -1
100
AcDbLine
 10
262.0323858628117
 20
3287.199718309213
 11
419.7892881085008
 21
3273.515605850938
  0
LINE
  5
1FE
100
AcDbEntity
  8
laser
  6
ByBlock
 62
  256
370
   -1
100
AcDbLine
 10
413.5449023004912
 20
3165.383078209138
 11
413.4007136401044
 21
3162.886197845834
  0
LINE
  5
1FF
100
AcDbEntity
  8
laser
  6
ByBlock
 62
  256
370
   -1
100
AcDbLine
 10
413.4007136401044
 20
3162.886197845834
 11
258.8327769444064
 21
3176.293693797379
  0
LINE
  5
200
100
AcDbEntity
  8
laser
  6
ByBlock
 62
  256
370
   -1
100
AcDbLine
 10
258.8327769444064
 20
3176.293693797379
 11
258.9049913837918
 21
3178.796817331792
  0
LINE
  5
201
100
AcDbEntity
  8
laser
  6
ByBlock
 62
  256
370
   -1
100
AcDbLine
 10
258.9049913837918
 20
3178.796817331792
 11
413.5449023004894
 21
3165.383078209139
  0
LINE
  5
202
100
AcDbEntity
  8
laser
  6
ByBlock
 62
  256
370
   -1
100
AcDbLine
 10
408.2973477090625
 20
3074.51243706752
 11
408.1531590486757
 21
3072.015556704216
  0
LINE
  5
203
100
AcDbEntity
  8
laser
  6
ByBlock
 62
  256
370
   -1
100
AcDbLine
 10
408.1531590486757
 20
3072.015556704216
 11
256.2046284343419
 21
3085.195840743755
  0
LINE
  5
204
100
AcDbEntity
  8
laser
  6
ByBlock
 62
  256
370
   -1
100
AcDbLine
 10
256.2046284343419
 20
3085.195840743755
 11
256.2768428737272
 21
3087.698964278168
  0
LINE
  5
205
100
AcDbEntity
  8
laser
  6
ByBlock
 62
  256
370
   -1
100
AcDbLine
 10
256.2768428737272
 20
3087.698964278168
 11
408.2973477090618
 21
3074.51243706752
  0
LINE
  5
206
100
AcDbEntity
  8
laser
  6
ByBlock
 62
  256
370
   -1
100
AcDbLine
 10
401.9087732406654
 20
2963.883029062416
 11
253.0772339553219
 21
2976.792939766335
  0
LINE
  5
207
100
AcDbEntity
  8
laser
  6
ByBlock
 62
  256
370
   -1
100
AcDbLine
 10
253.1494483947072
 20
2979.296063300747
 11
402.0529619010522
 21
2966.37990942572
  0
LINE
  5
208
100
AcDbEntity
  8
laser
  6
ByBlock
 62
  256
370
   -1
100
AcDbLine
 10
396.8054073096235
 20
2875.509268284101
 11
396.6612186492367
 21
2873.012387920797
  0
LINE
  5
209
100
AcDbEntity
  8
laser
  6
ByBlock
 62
  256
370
   -1
100
AcDbLine
 10
396.6612186492367
 20
2873.012387920797
 11
250.4490854452574
 21
2885.695086712711
  0
LINE
  5
20A
100
AcDbEntity
  8
laser
  6
ByBlock
 62
  256
370
   -1
100
AcDbLine
 10
250.4490854452574
 20
2885.695086712711
 11
250.5212998846427
 21
2888.198210247124
  0
LINE
  5
20B
100
AcDbEntity
  8
laser
  6
ByBlock
 62
  256
370
   -1
100
AcDbLine
 10
250.5212998846427
 20
2888.198210247124
 11
396.8054073096235
 21
2875.509268284101
  0
LINE
  5
20C
100
AcDbEntity
  8
laser
  6
ByBlock
 62
  256
370
   -1
100
AcDbLine
 10
390.5610215016133
 20
2767.376740642301
 11
390.4168328412264
 21
2764.879860278998
  0
LINE
  5
20D
100
AcDbEntity
  8
laser
  6
ByBlock
 62
  256
370
   -1
100
AcDbLine
 10
390.4168328412264
 20
2764.879860278998
 11
247.3216909662374
 21
2777.29218573529
  0
LINE
  5
20E
100
AcDbEntity
  8
laser
  6
ByBlock
 62
  256
370
   -1
100
AcDbLine
 10
247.3216909662374
 20
2777.29218573529
 11
247.3939054056227
 21
2779.795309269703
  0
LINE
  5
20F
100
AcDbEntity
  8
laser
  6
ByBlock
 62
  256
370
   -1
100
AcDbLine
 10
247.3939054056227
 20
2779.795309269703
 11
390.5610215016133
 21
2767.376740642301
  0
LINE
  5
210
100
AcDbEntity
  8
laser
  6
ByBlock
 62
  256
370
   -1
100
AcDbLine
 10
385.3134669101846
 20
2676.506099500683
 11
385.1692782497977
 21
2674.009219137379
  0
LINE
  5
211
100
AcDbEntity
  8
laser
  6
ByBlock
 62
  256
370
   -1
100
AcDbLine
 10
385.1692782497977
 20
2674.009219137379
 11
244.6935424561729
 21
2686.194332681666
  0
LINE
  5
212
100
AcDbEntity
  8
laser
  6
ByBlock
 62
  256
370
   -1
100
AcDbLine
 10
244.6935424561729
 20
2686.194332681666
 11
244.7657568955582
 21
2688.697456216079
  0
LINE
  5
213
100
AcDbEntity
  8
laser
  6
ByBlock
 62
  256
370
   -1
100
AcDbLine
 10
244.7657568955582
 20
2688.697456216079
 11
385.3134669101846
 21
2676.506099500683
  0
LINE
  5
214
100
AcDbEntity
  8
laser
  6
ByBlock
 62
  256
370
   -1
100
AcDbLine
 10
379.0690811021743
 20
2568.373571858883
 11
378.9248924417875
 21
2565.876691495579
  0
LINE
  5
215
100
AcDbEntity
  8
laser
  6
ByBlock
 62
  256
370
   -1
100
AcDbLine
 10
378.9248924417875
 20
2565.876691495579
 11
241.5661479771529
 21
2577.791431704246
  0
LINE
  5
216
100
AcDbEntity
  8
laser
  6
ByBlock
 62
  256
370
   -1
100
AcDbLine
 10
241.5661479771529
 20
2577.791431704246
 11
241.6383624165382
 21
2580.294555238659
  0
LINE
  5
217
100
AcDbEntity
  8
laser
  6
ByBlock
 62
  256
370
   -1
100
AcDbLine
 10
241.6383624165382
 20
2580.294555238659
 11
379.0690811021741
 21
2568.373571858883
  0
LINE
  5
218
100
AcDbEntity
  8
laser
  6
ByBlock
 62
  256
370
   -1
100
AcDbLine
 10
373.8215265107456
 20
2477.502930717264
 11
373.6773378503588
 21
2475.00605035396
  0
LINE
  5
219
100
AcDbEntity
  8
laser
  6
ByBlock
 62
  256
370
   -1
100
AcDbLine
 10
373.6773378503588
 20
2475.00605035396
 11
238.9379994670884
 21
2486.693578650622
  0
LINE
  5
21A
100
AcDbEntity
  8
laser
  6
ByBlock
 62
  256
370
   -1
100
AcDbLine
 10
238.9379994670884
 20
2486.693578650622
 11
239.0102139064737
 21
2489.196702185035
  0
LINE
  5
21B
100
AcDbEntity
  8
laser
  6
ByBlock
 62
  256
370
   -1
100
AcDbLine
 10
239.0102139064737
 20
2489.196702185035
 11
373.8215265107456
 21
2477.502930717264
  0
LINE
  5
21C
100
AcDbEntity
  8
laser
  6
ByBlock
 62
  256
370
   -1
100
AcDbLine
 10
367.4329520423485
 20
2366.873522712161
 11
235.8106049880684
 21
2378.290677673201
  0
LINE
  5
21D
100
AcDbEntity
  8
laser
  6
ByBlock
 62
  256
370
   -1
100
AcDbLine
 10
235.8828194274537
 20
2380.793801207614
 11
367.5771407027351
 21
2369.370403075465
  0
LINE
  5
21E
100
AcDbEntity
  8
laser
  6
ByBlock
 62
  256
370
   -1
100
AcDbLine
 10
362.3295861113066
 20
2278.499761933846
 11
362.1853974509198
 21
2276.002881570542
  0
LINE
  5
21F
100
AcDbEntity
  8
laser
  6
ByBlock
 62
  256
370
   -1
100
AcDbLine
 10
362.1853974509198
 20
2276.002881570542
 11
233.1824564780039
 21
2287.192824619578
  0
LINE
  5
220
100
AcDbEntity
  8
laser
  6
ByBlock
 62
  256
370
   -1
100
AcDbLine
 10
233.1824564780039
 20
2287.192824619578
 11
233.2546709173892
 21
2289.69594815399
  0
LINE
  5
221
100
AcDbEntity
  8
laser
  6
ByBlock
 62
  256
370
   -1
100
AcDbLine
 10
233.2546709173892
 20
2289.69594815399
 11
362.3295861113065
 21
2278.499761933846
  0
LINE
  5
222
100
AcDbEntity
  8
laser
  6
ByBlock
 62
  256
370
   -1
100
AcDbLine
 10
356.0852003032964
 20
2170.367234292046
 11
355.9410116429095
 21
2167.870353928742
  0
LINE
  5
223
100
AcDbEntity
  8
laser
  6
ByBlock
 62
  256
370
   -1
100
AcDbLine
 10
355.9410116429095
 20
2167.870353928742
 11
230.0550619989839
 21
2178.789923642157
  0
LINE
  5
224
100
AcDbEntity
  8
laser
  6
ByBlock
 62
  256
370
   -1
100
AcDbLine
 10
230.0550619989839
 20
2178.789923642157
 11
230.1272764383692
 21
2181.293047176569
  0
LINE
  5
225
100
AcDbEntity
  8
laser
  6
ByBlock
 62
  256
370
   -1
100
AcDbLine
 10
230.1272764383692
 20
2181.293047176569
 11
356.0852003032964
 21
2170.367234292046
  0
LINE
  5
226
100
AcDbEntity
  8
laser
  6
ByBlock
 62
  256
370
   -1
100
AcDbLine
 10
350.8376457118677
 20
2079.496593150428
 11
350.6934570514808
 21
2076.999712787123
  0
LINE
  5
227
100
AcDbEntity
  8
laser
  6
ByBlock
 62
  256
370
   -1
100
AcDbLine
 10
350.6934570514808
 20
2076.999712787123
 11
227.4269134889194
 21
2087.692070588533
  0
LINE
  5
228
100
AcDbEntity
  8
laser
  6
ByBlock
 62
  256
370
   -1
100
AcDbLine
 10
227.4269134889194
 20
2087.692070588533
 11
227.4991279283047
 21
2090.195194122946
  0
LINE
  5
229
100
AcDbEntity
  8
laser
  6
ByBlock
 62
  256
370
   -1
100
AcDbLine
 10
227.4991279283047
 20
2090.195194122946
 11
350.8376457118677
 21
2079.496593150428
  0
LINE
  5
22A
100
AcDbEntity
  8
laser
  6
ByBlock
 62
  256
370
   -1
100
AcDbLine
 10
344.5932599038574
 20
1971.364065508628
 11
344.4490712434706
 21
1968.867185145324
  0
LINE
  5
22B
100
AcDbEntity
  8
laser
  6
ByBlock
 62
  256
370
   -1
100
AcDbLine
 10
344.4490712434706
 20
1968.867185145324
 11
224.2995190098994
 21
1979.289169611112
  0
LINE
  5
22C
100
AcDbEntity
  8
laser
  6
ByBlock
 62
  256
370
   -1
100
AcDbLine
 10
224.2995190098994
 20
1979.289169611112
 11
224.3717334492847
 21
1981.792293145525
  0
LINE
  5
22D
100
AcDbEntity
  8
laser
  6
ByBlock
 62
  256
370
   -1
100
AcDbLine
 10
224.3717334492847
 20
1981.792293145525
 11
344.5932599038574
 21
1971.364065508628
  0
LINE
  5
22E
100
AcDbEntity
  8
laser
  6
ByBlock
 62
  256
370
   -1
100
AcDbLine
 10
221.8769364530952
 20
1982.008696245297
 11
221.8047220137099
 21
1979.505572710885
  0
LINE
  5
22F
100
AcDbEntity
  8
laser
  6
ByBlock
 62
  256
370
   -1
100
AcDbLine
 10
221.8047220137099
 20
1979.505572710885
 11
3.252814338467619
 21
1998.463151365293
  0
LINE
  5
230
100
AcDbEntity
  8
laser
  6
ByBlock
 62
  256
370
   -1
100
AcDbLine
 10
3.252814338467619
 20
1998.463151365293
 11
16.11925961739886
 21
1985.314786466165
  0
LINE
  5
231
100
AcDbEntity
  8
laser
  6
ByBlock
 62
  256
370
   -1
100
AcDbLine
 10
14.33244048681535
 20
1983.566279275851
 11
1.465995207884101
 21
1996.714644174979
  0
LINE
  5
232
100
AcDbEntity
  8
laser
  6
ByBlock
 62
  256
370
   -1
100
AcDbLine
 10
1.465995207884101
 20
1996.714644174979
 11
4.406704341926289
 21
1951.4334893487
  0
LINE
  5
233
100
AcDbEntity
  8
laser
  6
ByBlock
 62
  256
370
   -1
100
AcDbLine
 10
4.406704341926289
 20
1951.4334893487
 11
1.911959769334133
 21
1951.271472320206
  0
LINE
  5
234
100
AcDbEntity
  8
laser
  6
ByBlock
 62
  256
370
   -1
100
AcDbLine
 10
1.911959769334133
 20
1951.271472320206
 11
-1.16636377204915
 21
1998.671619199457
  0
LINE
  5
235
100
AcDbEntity
  8
laser
  6
ByBlock
 62
  256
370
   -1
100
AcDbLine
 10
-1.16636377204915
 20
1998.671619199457
 11
-46.69125950540552
 21
1995.715080718426
  0
LINE
  5
236
100
AcDbEntity
  8
laser
  6
ByBlock
 62
  256
370
   -1
100
AcDbLine
 10
-46.69125950540552
 20
1995.715080718426
 11
-46.75615361510459
 21
1998.216132777113
  0
LINE
  5
237
100
AcDbEntity
  8
laser
  6
ByBlock
 62
  256
370
   -1
100
AcDbLine
 10
-46.75615361510459
 20
1998.216132777113
 11
-0.5509117491118549
 21
2001.216855203854
  0
LINE
  5
238
100
AcDbEntity
  8
laser
  6
ByBlock
 62
  256
370
   -1
100
AcDbLine
 10
-0.5509117491118549
 20
2001.216855203854
 11
48.23223304703364
 21
2050
  0
LINE
  5
239
100
AcDbEntity
  8
laser
  6
ByBlock
 62
  256
370
   -1
100
AcDbLine
 10
48.23223304703364
 20
2050
 11
49.99999999999999
 21
2048.232233047034
  0
LINE
  5
23A
100
AcDbEntity
  8
laser
  6
ByBlock
 62
  256
370
   -1
100
AcDbLine
 10
49.99999999999999
 20
2048.232233047034
 11
2.78121336270709
 21
2001.013446409741
  0
LINE
  5
23B
100
AcDbEntity
  8
laser
  6
ByBlock
 62
  256
370
   -1
100
AcDbLine
 10
2.78121336270709
 20
2001.013446409741
 11
221.8769364530952
 21
1982.008696245297
  0
LINE
  5
23C
100
AcDbEntity
  8
laser
  6
ByBlock
 62
  256
370
   -1
100
AcDbLine
 10
-49.17823804942051
 20
2091.56450120148
 11
-49.11334393972145
 21
2089.063449142793
  0
LINE
  5
23D
100
AcDbEntity
  8
laser
  6
ByBlock
 62
  256
370
   -1
100
AcDbLine
 10
-49.11334393972145
 20
2089.063449142793
 11
96.76982122040606
 21
2098.537588173373
  0
LINE
  5
23E
100
AcDbEntity
  8
laser
  6
ByBlock
 62
  256
370
   -1
100
AcDbLine
 10
96.76982122040606
 20
2098.537588173373
 11
50.00000000000001
 21
2051.767766952966
  0
LINE
  5
23F
100
AcDbEntity
  8
laser
  6
ByBlock
 62
  256
370
   -1
100
AcDbLine
 10
50.00000000000001
 20
2051.767766952966
 11
51.76776695296636
 21
2050
  0
LINE
  5
240
100
AcDbEntity
  8
laser
  6
ByBlock
 62
  256
370
   -1
100
AcDbLine
 10
51.76776695296636
 20
2050
 11
100.4721206061081
 21
2098.704353653142
  0
LINE
  5
241
100
AcDbEntity
  8
laser
  6
ByBlock
 62
  256
370
   -1
100
AcDbLine
 10
100.4721206061081
 20
2098.704353653142
 11
224.9321164927299
 21
2087.908473688305
  0
LINE
  5
242
100
AcDbEntity
  8
laser
  6
ByBlock
 62
  256
370
   -1
100
AcDbLine
 10
224.9321164927299
 20
2087.908473688305
 11
225.0043309321152
 21
2090.411597222718
  0
LINE
  5
243
100
AcDbEntity
  8
laser
  6
ByBlock
 62
  256
370
   -1
100
AcDbLine
 10
225.0043309321152
 20
2090.411597222718
 11
100.5618051534454
 21
2101.205961799521
  0
LINE
  5
244
100
AcDbEntity
  8
laser
  6
ByBlock
 62
  256
370
   -1
100
AcDbLine
 10
100.5618051534454
 20
2101.205961799521
 11
51.76776695296638
 21
2150
  0
LINE
  5
245
100
AcDbEntity
  8
laser
  6
ByBlock
 62
  256
370
   -1
100
AcDbLine
 10
51.76776695296638
 20
2150
 11
50
 21
2148.232233047034
  0
LINE
  5
246
100
AcDbEntity
  8
laser
  6
ByBlock
 62
  256
370
   -1
100
AcDbLine
 10
50
 20
2148.232233047034
 11
97.16379256293055
 21
2101.068440484103
  0
LINE
  5
247
100
AcDbEntity
  8
laser
  6
ByBlock
 62
  256
370
   -1
100
AcDbLine
 10
97.16379256293055
 20
2101.068440484103
 11
-49.17823804942032
 21
2091.56450120148
  0
LINE
  5
248
100
AcDbEntity
  8
laser
  6
ByBlock
 62
  256
370
   -1
100
AcDbLine
 10
-51.93676890998273
 20
2197.879686350867
 11
-51.87187480028367
 21
2195.37863429218
  0
LINE
  5
249
100
AcDbEntity
  8
laser
  6
ByBlock
 62
  256
370
   -1
100
AcDbLine
 10
-51.87187480028367
 20
2195.37863429218
 11
-0.4837193563004121
 21
2198.715952403334
  0
LINE
  5
24A
100
AcDbEntity
  8
laser
  6
ByBlock
 62
  256
370
   -1
100
AcDbLine
 10
-0.4837193563004121
 20
2198.715952403334
 11
48.23223304703362
 21
2150
  0
LINE
  5
24B
100
AcDbEntity
  8
laser
  6
ByBlock
 62
  256
370
   -1
100
AcDbLine
 10
48.23223304703362
 20
2150
 11
50
 21
2151.767766952966
  0
LINE
  5
24C
100
AcDbEntity
  8
laser
  6
ByBlock
 62
  256
370
   -1
100
AcDbLine
 10
50
 20
2151.767766952966
 11
3.309535698685977
 21
2198.45823125428
  0
LINE
  5
24D
100
AcDbEntity
  8
laser
  6
ByBlock
 62
  256
370
   -1
100
AcDbLine
 10
3.309535698685977
 20
2198.45823125428
 11
227.5602650027944
 21
2179.006326741929
  0
LINE
  5
24E
100
AcDbEntity
  8
laser
  6
ByBlock
 62
  256
370
   -1
100
AcDbLine
 10
227.5602650027944
 20
2179.006326741929
 11
227.6324794421797
 21
2181.509450276342
  0
LINE
  5
24F
100
AcDbEntity
  8
laser
  6
ByBlock
 62
  256
370
   -1
100
AcDbLine
 10
227.6324794421797
 20
2181.509450276342
 11
2.78121336270712
 21
2201.013446409741
  0
LINE
  5
250
100
AcDbEntity
  8
laser
  6
ByBlock
 62
  256
370
   -1
100
AcDbLine
 10
2.78121336270712
 20
2201.013446409741
 11
50.00000000000003
 21
2248.232233047034
  0
LINE
  5
251
100
AcDbEntity
  8
laser
  6
ByBlock
 62
  256
370
   -1
100
AcDbLine
 10
50.00000000000003
 20
2248.232233047034
 11
48.23223304703362
 21
2250
  0
LINE
  5
252
100
AcDbEntity
  8
laser
  6
ByBlock
 62
  256
370
   -1
100
AcDbLine
 10
48.23223304703362
 20
2250
 11
-0.5509117491117479
 21
2201.216855203855
  0
LINE
  5
253
100
AcDbEntity
  8
laser
  6
ByBlock
 62
  256
370
   -1
100
AcDbLine
 10
-0.5509117491117479
 20
2201.216855203855
 11
-51.93676890998273
 21
2197.879686350867
  0
LINE
  5
254
100
AcDbEntity
  8
laser
  6
ByBlock
 62
  256
370
   -1
100
AcDbLine
 10
-54.35885334429865
 20
2291.228054775233
 11
-54.29395923459959
 21
2288.727002716546
  0
LINE
  5
255
100
AcDbEntity
  8
laser
  6
ByBlock
 62
  256
370
   -1
100
AcDbLine
 10
-54.29395923459959
 20
2288.727002716546
 11
96.76982122040607
 21
2298.537588173373
  0
LINE
  5
256
100
AcDbEntity
  8
laser
  6
ByBlock
 62
  256
370
   -1
100
AcDbLine
 10
96.76982122040607
 20
2298.537588173373
 11
50
 21
2251.767766952966
  0
LINE
  5
257
100
AcDbEntity
  8
laser
  6
ByBlock
 62
  256
370
   -1
100
AcDbLine
 10
50
 20
2251.767766952966
 11
51.76776695296638
 21
2250
  0
LINE
  5
258
100
AcDbEntity
  8
laser
  6
ByBlock
 62
  256
370
   -1
100
AcDbLine
 10
51.76776695296638
 20
2250
 11
100.4721206061079
 21
2298.704353653141
  0
LINE
  5
259
100
AcDbEntity
  8
laser
  6
ByBlock
 62
  256
370
   -1
100
AcDbLine
 10
100.4721206061079
 20
2298.704353653141
 11
230.6876594818144
 21
2287.409227719349
  0
LINE
  5
25A
100
AcDbEntity
  8
laser
  6
ByBlock
 62
  256
370
   -1
100
AcDbLine
 10
230.6876594818144
 20
2287.409227719349
 11
230.7598739211997
 21
2289.912351253763
  0
LINE
  5
25B
100
AcDbEntity
  8
laser
  6
ByBlock
 62
  256
370
   -1
100
AcDbLine
 10
230.7598739211997
 20
2289.912351253763
 11
100.5618051534455
 21
2301.205961799521
  0
LINE
  5
25C
100
AcDbEntity
  8
laser
  6
ByBlock
 62
  256
370
   -1
100
AcDbLine
 10
100.5618051534455
 20
2301.205961799521
 11
51.76776695296638
 21
2350
  0
LINE
  5
25D
100
AcDbEntity
  8
laser
  6
ByBlock
 62
  256
370
   -1
100
AcDbLine
 10
51.76776695296638
 20
2350
 11
50.00000000000006
 21
2348.232233047034
  0
LINE
  5
25E
100
AcDbEntity
  8
laser
  6
ByBlock
 62
  256
370
   -1
100
AcDbLine
 10
50.00000000000006
 20
2348.232233047034
 11
97.16379256293067
 21
2301.068440484103
  0
LINE
  5
25F
100
AcDbEntity
  8
laser
  6
ByBlock
 62
  256
370
   -1
100
AcDbLine
 10
97.16379256293067
 20
2301.068440484103
 11
-54.35885334429865
 21
2291.228054775233
  0
LINE
  5
260
100
AcDbEntity
  8
laser
  6
ByBlock
 62
  256
370
   -1
100
AcDbLine
 10
-57.05249009516182
 20
2395.042187865934
 11
-0.4837193563002984
 21
2398.715952403334
  0
LINE
  5
261
100
AcDbEntity
  8
laser
  6
ByBlock
 62
  256
370
   -1
100
AcDbLine
 10
-0.4837193563002984
 20
2398.715952403334
 11
48.23223304703367
 21
2350
  0
LINE
  5
262
100
AcDbEntity
  8
laser
  6
ByBlock
 62
  256
370
   -1
100
AcDbLine
 10
48.23223304703367
 20
2350
 11
50
 21
2351.767766952966
  0
LINE
  5
263
100
AcDbEntity
  8
laser
  6
ByBlock
 62
  256
370
   -1
100
AcDbLine
 10
50
 20
2351.767766952966
 11
3.309535698686034
 21
2398.45823125428
  0
LINE
  5
264
100
AcDbEntity
  8
laser
  6
ByBlock
 62
  256
370
   -1
100
AcDbLine
 10
3.309535698686034
 20
2398.45823125428
 11
233.3158079918789
 21
2378.507080772973
  0
LINE
  5
265
100
AcDbEntity
  8
laser
  6
ByBlock
 62
  256
370
   -1
100
AcDbLine
 10
233.3880224312642
 20
2381.010204307387
 11
2.781213362707149
 21
2401.013446409741
  0
LINE
  5
266
100
AcDbEntity
  8
laser
  6
ByBlock
 62
  256
370
   -1
100
AcDbLine
 10
2.781213362707149
 20
2401.013446409741
 11
50
 21
2448.232233047034
  0
LINE
  5
267
100
AcDbEntity
  8
laser
  6
ByBlock
 62
  256
370
   -1
100
AcDbLine
 10
50
 20
2448.232233047034
 11
48.23223304703367
 21
2450
  0
LINE
  5
268
100
AcDbEntity
  8
laser
  6
ByBlock
 62
  256
370
   -1
100
AcDbLine
 10
48.23223304703367
 20
2450
 11
-0.5509117491118332
 21
2401.216855203855
  0
LINE
  5
269
100
AcDbEntity
  8
laser
  6
ByBlock
 62
  256
370
   -1
100
AcDbLine
 10
-0.5509117491118332
 20
2401.216855203855
 11
-57.11738420486088
 21
2397.543239924621
  0
LINE
  5
26A
100
AcDbEntity
  8
laser
  6
ByBlock
 62
  256
370
   -1
100
AcDbLine
 10
-59.5394686391768
 20
2490.891608348987
 11
-59.47457452947774
 21
2488.3905562903
  0
LINE
  5
26B
100
AcDbEntity
  8
laser
  6
ByBlock
 62
  256
370
   -1
100
AcDbLine
 10
-59.47457452947774
 20
2488.3905562903
 11
96.76982122040596
 21
2498.537588173372
  0
LINE
  5
26C
100
AcDbEntity
  8
laser
  6
ByBlock
 62
  256
370
   -1
100
AcDbLine
 10
96.76982122040596
 20
2498.537588173372
 11
50.00000000000006
 21
2451.767766952966
  0
LINE
  5
26D
100
AcDbEntity
  8
laser
  6
ByBlock
 62
  256
370
   -1
100
AcDbLine
 10
50.00000000000006
 20
2451.767766952966
 11
51.76776695296638
 21
2450
  0
LINE
  5
26E
100
AcDbEntity
  8
laser
  6
ByBlock
 62
  256
370
   -1
100
AcDbLine
 10
51.76776695296638
 20
2450
 11
100.472120606108
 21
2498.704353653142
  0
LINE
  5
26F
100
AcDbEntity
  8
laser
  6
ByBlock
 62
  256
370
   -1
100
AcDbLine
 10
100.472120606108
 20
2498.704353653142
 11
236.4432024708989
 21
2486.909981750394
  0
LINE
  5
270
100
AcDbEntity
  8
laser
  6
ByBlock
 62
  256
370
   -1
100
AcDbLine
 10
236.4432024708989
 20
2486.909981750394
 11
236.5154169102842
 21
2489.413105284807
  0
LINE
  5
271
100
AcDbEntity
  8
laser
  6
ByBlock
 62
  256
370
   -1
100
AcDbLine
 10
236.5154169102842
 20
2489.413105284807
 11
100.5618051534454
 21
2501.205961799521
  0
LINE
  5
272
100
AcDbEntity
  8
laser
  6
ByBlock
 62
  256
370
   -1
100
AcDbLine
 10
100.5618051534454
 20
2501.205961799521
 11
51.76776695296644
 21
2550
  0
LINE
  5
273
100
AcDbEntity
  8
laser
  6
ByBlock
 62
  256
370
   -1
100
AcDbLine
 10
51.76776695296644
 20
2550
 11
49.99999999999989
 21
2548.232233047034
  0
LINE
  5
274
100
AcDbEntity
  8
laser
  6
ByBlock
 62
  256
370
   -1
100
AcDbLine
 10
49.99999999999989
 20
2548.232233047034
 11
97.16379256293055
 21
2501.068440484103
  0
LINE
  5
275
100
AcDbEntity
  8
laser
  6
ByBlock
 62
  256
370
   -1
100
AcDbLine
 10
97.16379256293055
 20
2501.068440484103
 11
-59.5394686391768
 21
2490.891608348987
  0
LINE
  5
276
100
AcDbEntity
  8
laser
  6
ByBlock
 62
  256
370
   -1
100
AcDbLine
 10
-62.29799949973902
 20
2597.206793498374
 11
-62.23310539003995
 21
2594.705741439687
  0
LINE
  5
277
100
AcDbEntity
  8
laser
  6
ByBlock
 62
  256
370
   -1
100
AcDbLine
 10
-62.23310539003995
 20
2594.705741439687
 11
-0.4837193563004121
 21
2598.715952403334
  0
LINE
  5
278
100
AcDbEntity
  8
laser
  6
ByBlock
 62
  256
370
   -1
100
AcDbLine
 10
-0.4837193563004121
 20
2598.715952403334
 11
48.23223304703356
 21
2550
  0
LINE
  5
279
100
AcDbEntity
  8
laser
  6
ByBlock
 62
  256
370
   -1
100
AcDbLine
 10
48.23223304703356
 20
2550
 11
50.00000000000011
 21
2551.767766952966
  0
LINE
  5
27A
100
AcDbEntity
  8
laser
  6
ByBlock
 62
  256
370
   -1
100
AcDbLine
 10
50.00000000000011
 20
2551.767766952966
 11
3.309535698685522
 21
2598.458231254281
  0
LINE
  5
27B
100
AcDbEntity
  8
laser
  6
ByBlock
 62
  256
370
   -1
100
AcDbLine
 10
3.309535698685522
 20
2598.458231254281
 11
239.0713509809634
 21
2578.007834804018
  0
LINE
  5
27C
100
AcDbEntity
  8
laser
  6
ByBlock
 62
  256
370
   -1
100
AcDbLine
 10
239.0713509809634
 20
2578.007834804018
 11
239.1435654203488
 21
2580.510958338431
  0
LINE
  5
27D
100
AcDbEntity
  8
laser
  6
ByBlock
 62
  256
370
   -1
100
AcDbLine
 10
239.1435654203488
 20
2580.510958338431
 11
2.781213362707263
 21
2601.013446409741
  0
LINE
  5
27E
100
AcDbEntity
  8
laser
  6
ByBlock
 62
  256
370
   -1
100
AcDbLine
 10
2.781213362707263
 20
2601.013446409741
 11
49.99999999999989
 21
2648.232233047033
  0
LINE
  5
27F
100
AcDbEntity
  8
laser
  6
ByBlock
 62
  256
370
   -1
100
AcDbLine
 10
49.99999999999989
 20
2648.232233047033
 11
48.23223304703367
 21
2650
  0
LINE
  5
280
100
AcDbEntity
  8
laser
  6
ByBlock
 62
  256
370
   -1
100
AcDbLine
 10
48.23223304703367
 20
2650
 11
-0.5509117491118332
 21
2601.216855203855
  0
LINE
  5
281
100
AcDbEntity
  8
laser
  6
ByBlock
 62
  256
370
   -1
100
AcDbLine
 10
-0.5509117491118332
 20
2601.216855203855
 11
-62.29799949973902
 21
2597.206793498374
  0
LINE
  5
282
100
AcDbEntity
  8
laser
  6
ByBlock
 62
  256
370
   -1
100
AcDbLine
 10
-64.72008393405494
 20
2690.555161922741
 11
-64.65518982435589
 21
2688.054109864054
  0
LINE
  5
283
100
AcDbEntity
  8
laser
  6
ByBlock
 62
  256
370
   -1
100
AcDbLine
 10
-64.65518982435589
 20
2688.054109864054
 11
96.76982122040613
 21
2698.537588173373
  0
LINE
  5
284
100
AcDbEntity
  8
laser
  6
ByBlock
 62
  256
370
   -1
100
AcDbLine
 10
96.76982122040613
 20
2698.537588173373
 11
50
 21
2651.767766952966
  0
LINE
  5
285
100
AcDbEntity
  8
laser
  6
ByBlock
 62
  256
370
   -1
100
AcDbLine
 10
50
 20
2651.767766952966
 11
51.76776695296633
 21
2650
  0
LINE
  5
286
100
AcDbEntity
  8
laser
  6
ByBlock
 62
  256
370
   -1
100
AcDbLine
 10
51.76776695296633
 20
2650
 11
100.4721206061081
 21
2698.704353653142
  0
LINE
  5
287
100
AcDbEntity
  8
laser
  6
ByBlock
 62
  256
370
   -1
100
AcDbLine
 10
100.4721206061081
 20
2698.704353653142
 11
242.1987454599834
 21
2686.410735781439
  0
LINE
  5
288
100
AcDbEntity
  8
laser
  6
ByBlock
 62
  256
370
   -1
100
AcDbLine
 10
242.1987454599834
 20
2686.410735781439
 11
242.2709598993687
 21
2688.913859315851
  0
LINE
  5
289
100
AcDbEntity
  8
laser
  6
ByBlock
 62
  256
370
   -1
100
AcDbLine
 10
242.2709598993687
 20
2688.913859315851
 11
100.5618051534454
 21
2701.205961799521
  0
LINE
  5
28A
100
AcDbEntity
  8
laser
  6
ByBlock
 62
  256
370
   -1
100
AcDbLine
 10
100.5618051534454
 20
2701.205961799521
 11
51.76776695296644
 21
2750
  0
LINE
  5
28B
100
AcDbEntity
  8
laser
  6
ByBlock
 62
  256
370
   -1
100
AcDbLine
 10
51.76776695296644
 20
2750
 11
50.00000000000011
 21
2748.232233047033
  0
LINE
  5
28C
100
AcDbEntity
  8
laser
  6
ByBlock
 62
  256
370
   -1
100
AcDbLine
 10
50.00000000000011
 20
2748.232233047033
 11
97.16379256293055
 21
2701.068440484103
  0
LINE
  5
28D
100
AcDbEntity
  8
laser
  6
ByBlock
 62
  256
370
   -1
100
AcDbLine
 10
97.16379256293055
 20
2701.068440484103
 11
-64.72008393405486
 21
2690.555161922741
  0
LINE
  5
28E
100
AcDbEntity
  8
laser
  6
ByBlock
 62
  256
370
   -1
100
AcDbLine
 10
-67.47861479461716
 20
2796.870347072128
 11
-67.4137206849181
 21
2794.369295013441
  0
LINE
  5
28F
100
AcDbEntity
  8
laser
  6
ByBlock
 62
  256
370
   -1
100
AcDbLine
 10
-67.4137206849181
 20
2794.369295013441
 11
-0.4837193563001847
 21
2798.715952403334
  0
LINE
  5
290
100
AcDbEntity
  8
laser
  6
ByBlock
 62
  256
370
   -1
100
AcDbLine
 10
-0.4837193563001847
 20
2798.715952403334
 11
48.23223304703356
 21
2750
  0
LINE
  5
291
100
AcDbEntity
  8
laser
  6
ByBlock
 62
  256
370
   -1
100
AcDbLine
 10
48.23223304703356
 20
2750
 11
49.99999999999989
 21
2751.767766952967
  0
LINE
  5
292
100
AcDbEntity
  8
laser
  6
ByBlock
 62
  256
370
   -1
100
AcDbLine
 10
49.99999999999989
 20
2751.767766952967
 11
3.309535698685863
 21
2798.458231254281
  0
LINE
  5
293
100
AcDbEntity
  8
laser
  6
ByBlock
 62
  256
370
   -1
100
AcDbLine
 10
3.309535698685863
 20
2798.458231254281
 11
244.8268939700479
 21
2777.508588835063
  0
LINE
  5
294
100
AcDbEntity
  8
laser
  6
ByBlock
 62
  256
370
   -1
100
AcDbLine
 10
244.8268939700479
 20
2777.508588835063
 11
244.8991084094333
 21
2780.011712369475
  0
LINE
  5
295
100
AcDbEntity
  8
laser
  6
ByBlock
 62
  256
370
   -1
100
AcDbLine
 10
244.8991084094333
 20
2780.011712369475
 11
2.781213362707035
 21
2801.013446409741
  0
LINE
  5
296
100
AcDbEntity
  8
laser
  6
ByBlock
 62
  256
370
   -1
100
AcDbLine
 10
2.781213362707035
 20
2801.013446409741
 11
49.99999999999989
 21
2848.232233047033
  0
LINE
  5
297
100
AcDbEntity
  8
laser
  6
ByBlock
 62
  256
370
   -1
100
AcDbLine
 10
49.99999999999989
 20
2848.232233047033
 11
48.23223304703356
 21
2850
  0
LINE
  5
298
100
AcDbEntity
  8
laser
  6
ByBlock
 62
  256
370
   -1
100
AcDbLine
 10
48.23223304703356
 20
2850
 11
-0.5509117491118332
 21
2801.216855203855
  0
LINE
  5
299
100
AcDbEntity
  8
laser
  6
ByBlock
 62
  256
370
   -1
100
AcDbLine
 10
-0.5509117491118332
 20
2801.216855203855
 11
-67.47861479461716
 21
2796.870347072128
  0
LINE
  5
29A
100
AcDbEntity
  8
laser
  6
ByBlock
 62
  256
370
   -1
100
AcDbLine
 10
-69.90069922893309
 20
2890.218715496494
 11
-69.83580511923402
 21
2887.717663437807
  0
LINE
  5
29B
100
AcDbEntity
  8
laser
  6
ByBlock
 62
  256
370
   -1
100
AcDbLine
 10
-69.83580511923402
 20
2887.717663437807
 11
96.7698212204059
 21
2898.537588173372
  0
LINE
  5
29C
100
AcDbEntity
  8
laser
  6
ByBlock
 62
  256
370
   -1
100
AcDbLine
 10
96.7698212204059
 20
2898.537588173372
 11
50.00000000000011
 21
2851.767766952967
  0
LINE
  5
29D
100
AcDbEntity
  8
laser
  6
ByBlock
 62
  256
370
   -1
100
AcDbLine
 10
50.00000000000011
 20
2851.767766952967
 11
51.76776695296644
 21
2850
  0
LINE
  5
29E
100
AcDbEntity
  8
laser
  6
ByBlock
 62
  256
370
   -1
100
AcDbLine
 10
51.76776695296644
 20
2850
 11
100.4721206061082
 21
2898.704353653142
  0
LINE
  5
29F
100
AcDbEntity
  8
laser
  6
ByBlock
 62
  256
370
   -1
100
AcDbLine
 10
100.4721206061082
 20
2898.704353653142
 11
247.9542884490679
 21
2885.911489812484
  0
LINE
  5
2A0
100
AcDbEntity
  8
laser
  6
ByBlock
 62
  256
370
   -1
100
AcDbLine
 10
247.9542884490679
 20
2885.911489812484
 11
248.0265028884533
 21
2888.414613346896
  0
LINE
  5
2A1
100
AcDbEntity
  8
laser
  6
ByBlock
 62
  256
370
   -1
100
AcDbLine
 10
248.0265028884533
 20
2888.414613346896
 11
100.5618051534453
 21
2901.205961799521
  0
LINE
  5
2A2
100
AcDbEntity
  8
laser
  6
ByBlock
 62
  256
370
   -1
100
AcDbLine
 10
100.5618051534453
 20
2901.205961799521
 11
51.76776695296633
 21
2950
  0
LINE
  5
2A3
100
AcDbEntity
  8
laser
  6
ByBlock
 62
  256
370
   -1
100
AcDbLine
 10
51.76776695296633
 20
2950
 11
50
 21
2948.232233047034
  0
LINE
  5
2A4
100
AcDbEntity
  8
laser
  6
ByBlock
 62
  256
370
   -1
100
AcDbLine
 10
50
 20
2948.232233047034
 11
97.16379256293067
 21
2901.068440484103
  0
LINE
  5
2A5
100
AcDbEntity
  8
laser
  6
ByBlock
 62
  256
370
   -1
100
AcDbLine
 10
97.16379256293067
 20
2901.068440484103
 11
-69.90069922893235
 21
2890.218715496494
  0
LINE
  5
2A6
100
AcDbEntity
  8
laser
  6
ByBlock
 62
  256
370
   -1
100
AcDbLine
 10
-72.59433597979626
 20
2994.032848587195
 11
-0.4837193563001847
 21
2998.715952403334
  0
LINE
  5
2A7
100
AcDbEntity
  8
laser
  6
ByBlock
 62
  256
370
   -1
100
AcDbLine
 10
-0.4837193563001847
 20
2998.715952403334
 11
48.23223304703367
 21
2950
  0
LINE
  5
2A8
100
AcDbEntity
  8
laser
  6
ByBlock
 62
  256
370
   -1
100
AcDbLine
 10
48.23223304703367
 20
2950
 11
49.99999999999989
 21
2951.767766952967
  0
LINE
  5
2A9
100
AcDbEntity
  8
laser
  6
ByBlock
 62
  256
370
   -1
100
AcDbLine
 10
49.99999999999989
 20
2951.767766952967
 11
3.309535698686091
 21
2998.45823125428
  0
LINE
  5
2AA
100
AcDbEntity
  8
laser
  6
ByBlock
 62
  256
370
   -1
100
AcDbLine
 10
3.309535698686091
 20
2998.45823125428
 11
250.5824369591324
 21
2977.009342866107
  0
LINE
  5
2AB
100
AcDbEntity
  8
laser
  6
ByBlock
 62
  256
370
   -1
100
AcDbLine
 10
250.6546513985178
 20
2979.51246640052
 11
2.781213362706808
 21
3001.01344640974
  0
LINE
  5
2AC
100
AcDbEntity
  8
laser
  6
ByBlock
 62
  256
370
   -1
100
AcDbLine
 10
2.781213362706808
 20
3001.01344640974
 11
50
 21
3048.232233047033
  0
LINE
  5
2AD
100
AcDbEntity
  8
laser
  6
ByBlock
 62
  256
370
   -1
100
AcDbLine
 10
50
 20
3048.232233047033
 11
48.23223304703356
 21
3050
  0
LINE
  5
2AE
100
AcDbEntity
  8
laser
  6
ByBlock
 62
  256
370
   -1
100
AcDbLine
 10
48.23223304703356
 20
3050
 11
-0.5509117491119468
 21
3001.216855203855
  0
LINE
  5
2AF
100
AcDbEntity
  8
laser
  6
ByBlock
 62
  256
370
   -1
100
AcDbLine
 10
-0.5509117491119468
 20
3001.216855203855
 11
-72.65923008949531
 21
2996.533900645882
  0
LINE
  5
2B0
100
AcDbEntity
  8
laser
  6
ByBlock
 62
  256
370
   -1
100
AcDbLine
 10
-75.08131452381124
 20
3089.882269070248
 11
-75.01642041411216
 21
3087.381217011561
  0
LINE
  5
2B1
100
AcDbEntity
  8
laser
  6
ByBlock
 62
  256
370
   -1
100
AcDbLine
 10
-75.01642041411216
 20
3087.381217011561
 11
96.7698212204059
 21
3098.537588173373
  0
LINE
  5
2B2
100
AcDbEntity
  8
laser
  6
ByBlock
 62
  256
370
   -1
100
AcDbLine
 10
96.7698212204059
 20
3098.537588173373
 11
50
 21
3051.767766952967
  0
LINE
  5
2B3
100
AcDbEntity
  8
laser
  6
ByBlock
 62
  256
370
   -1
100
AcDbLine
 10
50
 20
3051.767766952967
 11
51.76776695296644
 21
3050
  0
LINE
  5
2B4
100
AcDbEntity
  8
laser
  6
ByBlock
 62
  256
370
   -1
100
AcDbLine
 10
51.76776695296644
 20
3050
 11
100.4721206061081
 21
3098.704353653142
  0
LINE
  5
2B5
100
AcDbEntity
  8
laser
  6
ByBlock
 62
  256
370
   -1
100
AcDbLine
 10
100.4721206061081
 20
3098.704353653142
 11
253.7098314381524
 21
3085.412243843528
  0
LINE
  5
2B6
100
AcDbEntity
  8
laser
  6
ByBlock
 62
  256
370
   -1
100
AcDbLine
 10
253.7098314381524
 20
3085.412243843528
 11
253.7820458775378
 21
3087.915367377941
  0
LINE
  5
2B7
100
AcDbEntity
  8
laser
  6
ByBlock
 62
  256
370
   -1
100
AcDbLine
 10
253.7820458775378
 20
3087.915367377941
 11
100.5618051534454
 21
3101.205961799521
  0
LINE
  5
2B8
100
AcDbEntity
  8
laser
  6
ByBlock
 62
  256
370
   -1
100
AcDbLine
 10
100.5618051534454
 20
3101.205961799521
 11
51.76776695296644
 21
3150
  0
LINE
  5
2B9
100
AcDbEntity
  8
laser
  6
ByBlock
 62
  256
370
   -1
100
AcDbLine
 10
51.76776695296644
 20
3150
 11
50
 21
3148.232233047033
  0
LINE
  5
2BA
100
AcDbEntity
  8
laser
  6
ByBlock
 62
  256
370
   -1
100
AcDbLine
 10
50
 20
3148.232233047033
 11
97.16379256293044
 21
3101.068440484103
  0
LINE
  5
2BB
100
AcDbEntity
  8
laser
  6
ByBlock
 62
  256
370
   -1
100
AcDbLine
 10
97.16379256293044
 20
3101.068440484103
 11
-75.08131452380985
 21
3089.882269070248
  0
LINE
  5
2BC
100
AcDbEntity
  8
laser
  6
ByBlock
 62
  256
370
   -1
100
AcDbLine
 10
-77.83984538437346
 20
3196.197454219635
 11
-77.77495127467439
 21
3193.696402160949
  0
LINE
  5
2BD
100
AcDbEntity
  8
laser
  6
ByBlock
 62
  256
370
   -1
100
AcDbLine
 10
-77.77495127467439
 20
3193.696402160949
 11
-0.4837193563005258
 21
3198.715952403334
  0
LINE
  5
2BE
100
AcDbEntity
  8
laser
  6
ByBlock
 62
  256
370
   -1
100
AcDbLine
 10
-0.4837193563005258
 20
3198.715952403334
 11
48.23223304703356
 21
3150
  0
LINE
  5
2BF
100
AcDbEntity
  8
laser
  6
ByBlock
 62
  256
370
   -1
100
AcDbLine
 10
48.23223304703356
 20
3150
 11
50
 21
3151.767766952967
  0
LINE
  5
2C0
100
AcDbEntity
  8
laser
  6
ByBlock
 62
  256
370
   -1
100
AcDbLine
 10
50
 20
3151.767766952967
 11
3.309535698685977
 21
3198.458231254281
  0
LINE
  5
2C1
100
AcDbEntity
  8
laser
  6
ByBlock
 62
  256
370
   -1
100
AcDbLine
 10
3.309535698685977
 20
3198.458231254281
 11
256.3379799482169
 21
3176.510096897151
  0
LINE
  5
2C2
100
AcDbEntity
  8
laser
  6
ByBlock
 62
  256
370
   -1
100
AcDbLine
 10
256.3379799482169
 20
3176.510096897151
 11
256.4101943876022
 21
3179.013220431564
  0
LINE
  5
2C3
100
AcDbEntity
  8
laser
  6
ByBlock
 62
  256
370
   -1
100
AcDbLine
 10
256.4101943876022
 20
3179.013220431564
 11
2.781213362707149
 21
3201.013446409741
  0
LINE
  5
2C4
100
AcDbEntity
  8
laser
  6
ByBlock
 62
  256
370
   -1
100
AcDbLine
 10
2.781213362707149
 20
3201.013446409741
 11
50
 21
3248.232233047033
  0
LINE
  5
2C5
100
AcDbEntity
  8
laser
  6
ByBlock
 62
  256
370
   -1
100
AcDbLine
 10
50
 20
3248.232233047033
 11
48.23223304703356
 21
3250
  0
LINE
  5
2C6
100
AcDbEntity
  8
laser
  6
ByBlock
 62
  256
370
   -1
100
AcDbLine
 10
48.23223304703356
 20
3250
 11
-0.5509117491121742
 21
3201.216855203854
  0
LINE
  5
2C7
100
AcDbEntity
  8
laser
  6
ByBlock
 62
  256
370
   -1
100
AcDbLine
 10
-0.5509117491121742
 20
3201.216855203854
 11
-77.83984538437289
 21
3196.197454219635
  0
LINE
  5
2C8
100
AcDbEntity
  8
laser
  6
ByBlock
 62
  256
370
   -1
100
AcDbLine
 10
-80.26192981868937
 20
3289.545822644001
 11
-80.19703570899031
 21
3287.044770585315
  0
LINE
  5
2C9
100
AcDbEntity
  8
laser
  6
ByBlock
 62
  256
370
   -1
100
AcDbLine
 10
-80.19703570899031
 20
3287.044770585315
 11
96.7698212204059
 21
3298.537588173373
  0
LINE
  5
2CA
100
AcDbEntity
  8
laser
  6
ByBlock
 62
  256
370
   -1
100
AcDbLine
 10
96.7698212204059
 20
3298.537588173373
 11
50
 21
3251.767766952967
  0
LINE
  5
2CB
100
AcDbEntity
  8
laser
  6
ByBlock
 62
  256
370
   -1
100
AcDbLine
 10
50
 20
3251.767766952967
 11
51.76776695296644
 21
3250
  0
LINE
  5
2CC
100
AcDbEntity
  8
laser
  6
ByBlock
 62
  256
370
   -1
100
AcDbLine
 10
51.76776695296644
 20
3250
 11
100.4721206061081
 21
3298.704353653142
  0
LINE
  5
2CD
100
AcDbEntity
  8
laser
  6
ByBlock
 62
  256
370
   -1
100
AcDbLine
 10
100.4721206061081
 20
3298.704353653142
 11
259.465374427237
 21
3284.912997874572
  0
LINE
  5
2CE
100
AcDbEntity
  8
laser
  6
ByBlock
 62
  256
370
   -1
100
AcDbLine
 10
259.465374427237
 20
3284.912997874572
 11
259.5375888666223
 21
3287.416121408985
  0
LINE
  5
2CF
100
AcDbEntity
  8
laser
  6
ByBlock
 62
  256
370
   -1
100
AcDbLine
 10
259.5375888666223
 20
3287.416121408985
 11
100.5618051534454
 21
3301.205961799521
  0
LINE
  5
2D0
100
AcDbEntity
  8
laser
  6
ByBlock
 62
  256
370
   -1
100
AcDbLine
 10
100.5618051534454
 20
3301.205961799521
 11
51.76776695296644
 21
3350
  0
LINE
  5
2D1
100
AcDbEntity
  8
laser
  6
ByBlock
 62
  256
370
   -1
100
AcDbLine
 10
51.76776695296644
 20
3350
 11
50
 21
3348.232233047033
  0
LINE
  5
2D2
100
AcDbEntity
  8
laser
  6
ByBlock
 62
  256
370
   -1
100
AcDbLine
 10
50
 20
3348.232233047033
 11
97.16379256293067
 21
3301.068440484103
  0
LINE
  5
2D3
100
AcDbEntity
  8
laser
  6
ByBlock
 62
  256
370
   -1
100
AcDbLine
 10
97.16379256293067
 20
3301.068440484103
 11
-80.26192981868937
 21
3289.545822644001
  0
LINE
  5
2D4
100
AcDbEntity
  8
laser
  6
ByBlock
 62
  256
370
   -1
100
AcDbLine
 10
-83.0204606792516
 20
3395.861007793389
 11
-82.95556656955253
 21
3393.359955734702
  0
LINE
  5
2D5
100
AcDbEntity
  8
laser
  6
ByBlock
 62
  256
370
   -1
100
AcDbLine
 10
-82.95556656955253
 20
3393.359955734702
 11
-0.4837193563005258
 21
3398.715952403334
  0
LINE
  5
2D6
100
AcDbEntity
  8
laser
  6
ByBlock
 62
  256
370
   -1
100
AcDbLine
 10
-0.4837193563005258
 20
3398.715952403334
 11
48.23223304703356
 21
3350
  0
LINE
  5
2D7
100
AcDbEntity
  8
laser
  6
ByBlock
 62
  256
370
   -1
100
AcDbLine
 10
48.23223304703356
 20
3350
 11
50
 21
3351.767766952967
  0
LINE
  5
2D8
100
AcDbEntity
  8
laser
  6
ByBlock
 62
  256
370
   -1
100
AcDbLine
 10
50
 20
3351.767766952967
 11
3.309535698686204
 21
3398.45823125428
  0
LINE
  5
2D9
100
AcDbEntity
  8
laser
  6
ByBlock
 62
  256
370
   -1
100
AcDbLine
 10
3.309535698686204
 20
3398.45823125428
 11
262.0935229373014
 21
3376.010850928196
  0
LINE
  5
2DA
100
AcDbEntity
  8
laser
  6
ByBlock
 62
  256
370
   -1
100
AcDbLine
 10
262.0935229373014
 20
3376.010850928196
 11
262.1657373766868
 21
3378.513974462609
  0
LINE
  5
2DB
100
AcDbEntity
  8
laser
  6
ByBlock
 62
  256
370
   -1
100
AcDbLine
 10
262.1657373766868
 20
3378.513974462609
 11
2.781213362707149
 21
3401.013446409741
  0
LINE
  5
2DC
100
AcDbEntity
  8
laser
  6
ByBlock
 62
  256
370
   -1
100
AcDbLine
 10
2.781213362707149
 20
3401.013446409741
 11
50.00000000000023
 21
3448.232233047034
  0
LINE
  5
2DD
100
AcDbEntity
  8
laser
  6
ByBlock
 62
  256
370
   -1
100
AcDbLine
 10
50.00000000000023
 20
3448.232233047034
 11
48.23223304703379
 21
3450
  0
LINE
  5
2DE
100
AcDbEntity
  8
laser
  6
ByBlock
 62
  256
370
   -1
100
AcDbLine
 10
48.23223304703379
 20
3450
 11
-0.5509117491121742
 21
3401.216855203854
  0
LINE
  5
2DF
100
AcDbEntity
  8
laser
  6
ByBlock
 62
  256
370
   -1
100
AcDbLine
 10
-0.5509117491121742
 20
3401.216855203854
 11
-83.0204606792516
 21
3395.861007793389
  0
LINE
  5
2E0
100
AcDbEntity
  8
laser
  6
ByBlock
 62
  256
370
   -1
100
AcDbLine
 10
-85.44254511356755
 20
3489.209376217756
 11
-85.37765100386846
 21
3486.708324159069
  0
LINE
  5
2E1
100
AcDbEntity
  8
laser
  6
ByBlock
 62
  256
370
   -1
100
AcDbLine
 10
-85.37765100386846
 20
3486.708324159069
 11
96.76982122040613
 21
3498.537588173373
  0
LINE
  5
2E2
100
AcDbEntity
  8
laser
  6
ByBlock
 62
  256
370
   -1
100
AcDbLine
 10
96.76982122040613
 20
3498.537588173373
 11
50.00000000000023
 21
3451.767766952967
  0
LINE
  5
2E3
100
AcDbEntity
  8
laser
  6
ByBlock
 62
  256
370
   -1
100
AcDbLine
 10
50.00000000000023
 20
3451.767766952967
 11
51.76776695296667
 21
3450
  0
LINE
  5
2E4
100
AcDbEntity
  8
laser
  6
ByBlock
 62
  256
370
   -1
100
AcDbLine
 10
51.76776695296667
 20
3450
 11
100.4721206061081
 21
3498.704353653142
  0
LINE
  5
2E5
100
AcDbEntity
  8
laser
  6
ByBlock
 62
  256
370
   -1
100
AcDbLine
 10
100.4721206061081
 20
3498.704353653142
 11
265.2209174163215
 21
3484.413751905617
  0
LINE
  5
2E6
100
AcDbEntity
  8
laser
  6
ByBlock
 62
  256
370
   -1
100
AcDbLine
 10
265.2209174163215
 20
3484.413751905617
 11
265.2931318557068
 21
3486.91687544003
  0
LINE
  5
2E7
100
AcDbEntity
  8
laser
  6
ByBlock
 62
  256
370
   -1
100
AcDbLine
 10
265.2931318557068
 20
3486.91687544003
 11
101.3533453738786
 21
3501.137302202143
  0
LINE
  5
2E8
100
AcDbEntity
  8
laser
  6
ByBlock
 62
  256
370
   -1
100
AcDbLine
 10
101.3533453738786
 20
3501.137302202143
 11
105.4581656368405
 21
3548.459606146572
  0
LINE
  5
2E9
100
AcDbEntity
  8
laser
  6
ByBlock
 62
  256
370
   -1
100
AcDbLine
 10
105.4581656368405
 20
3548.459606146572
 11
102.967518060818
 21
3548.675649318307
  0
LINE
  5
2EA
100
AcDbEntity
  8
laser
  6
ByBlock
 62
  256
370
   -1
100
AcDbLine
 10
102.967518060818
 20
3548.675649318307
 11
98.98987442633263
 21
3502.819497527164
  0
LINE
  5
2EB
100
AcDbEntity
  8
laser
  6
ByBlock
 62
  256
370
   -1
100
AcDbLine
 10
98.98987442633263
 20
3502.819497527164
 11
87.93729475559826
 21
3514.114252794609
  0
LINE
  5
2EC
100
AcDbEntity
  8
laser
  6
ByBlock
 62
  256
370
   -1
100
AcDbLine
 10
86.15047562501468
 20
3512.365745604295
 11
97.20305529575126
 21
3501.070990336851
  0
LINE
  5
2ED
100
AcDbEntity
  8
laser
  6
ByBlock
 62
  256
370
   -1
100
AcDbLine
 10
97.20305529575126
 20
3501.070990336851
 11
-85.44254511356485
 21
3489.209376217756
  0
LINE
  5
2EE
100
AcDbEntity
  8
laser
  6
ByBlock
 62
  256
370
   -1
100
AcDbLine
 10
-271.7574631367276
 20
3477.109464381562
 11
-271.6278058882823
 21
3474.612618256986
  0
LINE
  5
2EF
100
AcDbEntity
  8
laser
  6
ByBlock
 62
  256
370
   -1
100
AcDbLine
 10
-271.6278058882823
 20
3474.612618256986
 11
-87.87428540718696
 21
3486.546184398668
  0
LINE
  5
2F0
100
AcDbEntity
  8
laser
  6
ByBlock
 62
  256
370
   -1
100
AcDbLine
 10
-87.87428540718696
 20
3486.546184398668
 11
-87.93917951688601
 21
3489.047236457355
  0
LINE
  5
2F1
100
AcDbEntity
  8
laser
  6
ByBlock
 62
  256
370
   -1
100
AcDbLine
 10
-87.93917951688601
 20
3489.047236457355
 11
-271.7574631367276
 21
3477.109464381562
  0
LINE
  5
2F2
100
AcDbEntity
  8
laser
  6
ByBlock
 62
  256
370
   -1
100
AcDbLine
 10
-266.918182580881
 20
3383.918076730778
 11
-266.7885253324357
 21
3381.421230606202
  0
LINE
  5
2F3
100
AcDbEntity
  8
laser
  6
ByBlock
 62
  256
370
   -1
100
AcDbLine
 10
-266.7885253324357
 20
3381.421230606202
 11
-85.45220097287103
 21
3393.197815974301
  0
LINE
  5
2F4
100
AcDbEntity
  8
laser
  6
ByBlock
 62
  256
370
   -1
100
AcDbLine
 10
-85.45220097287103
 20
3393.197815974301
 11
-85.51709508257008
 21
3395.698868032988
  0
LINE
  5
2F5
100
AcDbEntity
  8
laser
  6
ByBlock
 62
  256
370
   -1
100
AcDbLine
 10
-85.51709508257008
 20
3395.698868032988
 11
-266.918182580881
 21
3383.918076730778
  0
LINE
  5
2F6
100
AcDbEntity
  8
laser
  6
ByBlock
 62
  256
370
   -1
100
AcDbLine
 10
-261.4066881973288
 20
3277.781678209267
 11
-261.2770309488835
 21
3275.284832084691
  0
LINE
  5
2F7
100
AcDbEntity
  8
laser
  6
ByBlock
 62
  256
370
   -1
100
AcDbLine
 10
-261.2770309488835
 20
3275.284832084691
 11
-82.69367011230881
 21
3286.882630824914
  0
LINE
  5
2F8
100
AcDbEntity
  8
laser
  6
ByBlock
 62
  256
370
   -1
100
AcDbLine
 10
-82.69367011230881
 20
3286.882630824914
 11
-82.75856422200786
 21
3289.383682883601
  0
LINE
  5
2F9
100
AcDbEntity
  8
laser
  6
ByBlock
 62
  256
370
   -1
100
AcDbLine
 10
-82.75856422200786
 20
3289.383682883601
 11
-261.4066881973288
 21
3277.781678209267
  0
LINE
  5
2FA
100
AcDbEntity
  8
laser
  6
ByBlock
 62
  256
370
   -1
100
AcDbLine
 10
-256.5674076414822
 20
3184.590290558484
 11
-256.4377503930369
 21
3182.093444433907
  0
LINE
  5
2FB
100
AcDbEntity
  8
laser
  6
ByBlock
 62
  256
370
   -1
100
AcDbLine
 10
-256.4377503930369
 20
3182.093444433907
 11
-80.27158567799289
 21
3193.534262400548
  0
LINE
  5
2FC
100
AcDbEntity
  8
laser
  6
ByBlock
 62
  256
370
   -1
100
AcDbLine
 10
-80.27158567799289
 20
3193.534262400548
 11
-80.33647978769194
 21
3196.035314459235
  0
LINE
  5
2FD
100
AcDbEntity
  8
laser
  6
ByBlock
 62
  256
370
   -1
100
AcDbLine
 10
-80.33647978769194
 20
3196.035314459235
 11
-256.5674076414822
 21
3184.590290558484
  0
LINE
  5
2FE
100
AcDbEntity
  8
laser
  6
ByBlock
 62
  256
370
   -1
100
AcDbLine
 10
-251.05591325793
 20
3078.453892036972
 11
-250.9262560094847
 21
3075.957045912396
  0
LINE
  5
2FF
100
AcDbEntity
  8
laser
  6
ByBlock
 62
  256
370
   -1
100
AcDbLine
 10
-250.9262560094847
 20
3075.957045912396
 11
-77.51305481743066
 21
3087.21907725116
  0
LINE
  5
300
100
AcDbEntity
  8
laser
  6
ByBlock
 62
  256
370
   -1
100
AcDbLine
 10
-77.51305481743066
 20
3087.21907725116
 11
-77.57794892712973
 21
3089.720129309847
  0
LINE
  5
301
100
AcDbEntity
  8
laser
  6
ByBlock
 62
  256
370
   -1
100
AcDbLine
 10
-77.57794892712973
 20
3089.720129309847
 11
-251.05591325793
 21
3078.453892036972
  0
LINE
  5
302
100
AcDbEntity
  8
laser
  6
ByBlock
 62
  256
370
   -1
100
AcDbLine
 10
-246.0869754536381
 20
2982.765658261613
 11
-75.09097038311474
 21
2993.870708826794
  0
LINE
  5
303
100
AcDbEntity
  8
laser
  6
ByBlock
 62
  256
370
   -1
100
AcDbLine
 10
-75.15586449281381
 20
2996.371760885481
 11
-246.2166327020835
 21
2985.262504386189
  0
LINE
  5
304
100
AcDbEntity
  8
laser
  6
ByBlock
 62
  256
370
   -1
100
AcDbLine
 10
-240.7051383185313
 20
2879.126105864678
 11
-240.5754810700859
 21
2876.629259740102
  0
LINE
  5
305
100
AcDbEntity
  8
laser
  6
ByBlock
 62
  256
370
   -1
100
AcDbLine
 10
-240.5754810700859
 20
2876.629259740102
 11
-72.33243952255251
 21
2887.555523677407
  0
LINE
  5
306
100
AcDbEntity
  8
laser
  6
ByBlock
 62
  256
370
   -1
100
AcDbLine
 10
-72.33243952255251
 20
2887.555523677407
 11
-72.39733363225159
 21
2890.056575736094
  0
LINE
  5
307
100
AcDbEntity
  8
laser
  6
ByBlock
 62
  256
370
   -1
100
AcDbLine
 10
-72.39733363225159
 20
2890.056575736094
 11
-240.7051383185313
 21
2879.126105864678
  0
LINE
  5
308
100
AcDbEntity
  8
laser
  6
ByBlock
 62
  256
370
   -1
100
AcDbLine
 10
-235.8658577626847
 20
2785.934718213895
 11
-235.7362005142394
 21
2783.437872089319
  0
LINE
  5
309
100
AcDbEntity
  8
laser
  6
ByBlock
 62
  256
370
   -1
100
AcDbLine
 10
-235.7362005142394
 20
2783.437872089319
 11
-69.9103550882366
 21
2794.207155253041
  0
LINE
  5
30A
100
AcDbEntity
  8
laser
  6
ByBlock
 62
  256
370
   -1
100
AcDbLine
 10
-69.9103550882366
 20
2794.207155253041
 11
-69.97524919793565
 21
2796.708207311727
  0
LINE
  5
30B
100
AcDbEntity
  8
laser
  6
ByBlock
 62
  256
370
   -1
100
AcDbLine
 10
-69.97524919793565
 20
2796.708207311727
 11
-235.8658577626847
 21
2785.934718213895
  0
LINE
  5
30C
100
AcDbEntity
  8
laser
  6
ByBlock
 62
  256
370
   -1
100
AcDbLine
 10
-230.3543633791325
 20
2679.798319692384
 11
-230.2247061306871
 21
2677.301473567808
  0
LINE
  5
30D
100
AcDbEntity
  8
laser
  6
ByBlock
 62
  256
370
   -1
100
AcDbLine
 10
-230.2247061306871
 20
2677.301473567808
 11
-67.15182422767437
 21
2687.891970103653
  0
LINE
  5
30E
100
AcDbEntity
  8
laser
  6
ByBlock
 62
  256
370
   -1
100
AcDbLine
 10
-67.15182422767437
 20
2687.891970103653
 11
-67.21671833737344
 21
2690.39302216234
  0
LINE
  5
30F
100
AcDbEntity
  8
laser
  6
ByBlock
 62
  256
370
   -1
100
AcDbLine
 10
-67.21671833737344
 20
2690.39302216234
 11
-230.3543633791325
 21
2679.798319692384
  0
LINE
  5
310
100
AcDbEntity
  8
laser
  6
ByBlock
 62
  256
370
   -1
100
AcDbLine
 10
-225.5150828232859
 20
2586.606932041601
 11
-225.3854255748406
 21
2584.110085917024
  0
LINE
  5
311
100
AcDbEntity
  8
laser
  6
ByBlock
 62
  256
370
   -1
100
AcDbLine
 10
-225.3854255748406
 20
2584.110085917024
 11
-64.72973979335845
 21
2594.543601679286
  0
LINE
  5
312
100
AcDbEntity
  8
laser
  6
ByBlock
 62
  256
370
   -1
100
AcDbLine
 10
-64.72973979335845
 20
2594.543601679286
 11
-64.7946339030575
 21
2597.044653737973
  0
LINE
  5
313
100
AcDbEntity
  8
laser
  6
ByBlock
 62
  256
370
   -1
100
AcDbLine
 10
-64.7946339030575
 20
2597.044653737973
 11
-225.5150828232854
 21
2586.606932041601
  0
LINE
  5
314
100
AcDbEntity
  8
laser
  6
ByBlock
 62
  256
370
   -1
100
AcDbLine
 10
-220.0035884397337
 20
2480.47053352009
 11
-219.8739311912884
 21
2477.973687395513
  0
LINE
  5
315
100
AcDbEntity
  8
laser
  6
ByBlock
 62
  256
370
   -1
100
AcDbLine
 10
-219.8739311912884
 20
2477.973687395513
 11
-61.97120893279622
 21
2488.228416529899
  0
LINE
  5
316
100
AcDbEntity
  8
laser
  6
ByBlock
 62
  256
370
   -1
100
AcDbLine
 10
-61.97120893279622
 20
2488.228416529899
 11
-62.03610304249528
 21
2490.729468588586
  0
LINE
  5
317
100
AcDbEntity
  8
laser
  6
ByBlock
 62
  256
370
   -1
100
AcDbLine
 10
-62.03610304249528
 20
2490.729468588586
 11
-220.0035884397337
 21
2480.47053352009
  0
LINE
  5
318
100
AcDbEntity
  8
laser
  6
ByBlock
 62
  256
370
   -1
100
AcDbLine
 10
-215.0346506354418
 20
2384.78229974473
 11
-59.5491244984803
 21
2394.880048105533
  0
LINE
  5
319
100
AcDbEntity
  8
laser
  6
ByBlock
 62
  256
370
   -1
100
AcDbLine
 10
-59.61401860817936
 20
2397.38110016422
 11
-215.1643078838871
 21
2387.279145869306
  0
LINE
  5
31A
100
AcDbEntity
  8
laser
  6
ByBlock
 62
  256
370
   -1
100
AcDbLine
 10
-209.6528135003349
 20
2281.142747347795
 11
-209.5231562518896
 21
2278.645901223219
  0
LINE
  5
31B
100
AcDbEntity
  8
laser
  6
ByBlock
 62
  256
370
   -1
100
AcDbLine
 10
-209.5231562518896
 20
2278.645901223219
 11
-56.79059363791808
 21
2288.564862956146
  0
LINE
  5
31C
100
AcDbEntity
  8
laser
  6
ByBlock
 62
  256
370
   -1
100
AcDbLine
 10
-56.79059363791808
 20
2288.564862956146
 11
-56.85548774761714
 21
2291.065915014833
  0
LINE
  5
31D
100
AcDbEntity
  8
laser
  6
ByBlock
 62
  256
370
   -1
100
AcDbLine
 10
-56.85548774761714
 20
2291.065915014833
 11
-209.6528135003349
 21
2281.142747347795
  0
LINE
  5
31E
100
AcDbEntity
  8
laser
  6
ByBlock
 62
  256
370
   -1
100
AcDbLine
 10
-204.8135329444883
 20
2187.951359697012
 11
-204.683875696043
 21
2185.454513572436
  0
LINE
  5
31F
100
AcDbEntity
  8
laser
  6
ByBlock
 62
  256
370
   -1
100
AcDbLine
 10
-204.683875696043
 20
2185.454513572436
 11
-54.36850920360216
 21
2195.21649453178
  0
LINE
  5
320
100
AcDbEntity
  8
laser
  6
ByBlock
 62
  256
370
   -1
100
AcDbLine
 10
-54.36850920360216
 20
2195.21649453178
 11
-54.43340331330123
 21
2197.717546590467
  0
LINE
  5
321
100
AcDbEntity
  8
laser
  6
ByBlock
 62
  256
370
   -1
100
AcDbLine
 10
-54.43340331330123
 20
2197.717546590467
 11
-204.8135329444883
 21
2187.951359697012
  0
LINE
  5
322
100
AcDbEntity
  8
laser
  6
ByBlock
 62
  256
370
   -1
100
AcDbLine
 10
-199.3020385609361
 20
2081.814961175501
 11
-199.1723813124908
 21
2079.318115050925
  0
LINE
  5
323
100
AcDbEntity
  8
laser
  6
ByBlock
 62
  256
370
   -1
100
AcDbLine
 10
-199.1723813124908
 20
2079.318115050925
 11
-51.60997834303993
 21
2088.901309382392
  0
LINE
  5
324
100
AcDbEntity
  8
laser
  6
ByBlock
 62
  256
370
   -1
100
AcDbLine
 10
-51.60997834303993
 20
2088.901309382392
 11
-51.674872452739
 21
2091.402361441079
  0
LINE
  5
325
100
AcDbEntity
  8
laser
  6
ByBlock
 62
  256
370
   -1
100
AcDbLine
 10
-51.674872452739
 20
2091.402361441079
 11
-199.3020385609361
 21
2081.814961175501
  0
LINE
  5
326
100
AcDbEntity
  8
laser
  6
ByBlock
 62
  256
370
   -1
100
AcDbLine
 10
-194.4627580050896
 20
1988.623573524718
 11
-194.3331007566442
 21
1986.126727400141
  0
LINE
  5
327
100
AcDbEntity
  8
laser
  6
ByBlock
 62
  256
370
   -1
100
AcDbLine
 10
-194.3331007566442
 20
1986.126727400141
 11
-49.18789390872401
 21
1995.552940958026
  0
LINE
  5
328
100
AcDbEntity
  8
laser
  6
ByBlock
 62
  256
370
   -1
100
AcDbLine
 10
-49.18789390872401
 20
1995.552940958026
 11
-49.25278801842308
 21
1998.053993016713
  0
LINE
  5
329
100
AcDbEntity
  8
laser
  6
ByBlock
 62
  256
370
   -1
100
AcDbLine
 10
-49.25278801842308
 20
1998.053993016713
 11
-194.4627580050895
 21
1988.623573524718
  0
LINE
  5
32A
100
AcDbEntity
  8
laser
  6
ByBlock
 62
  256
370
   -1
100
AcDbLine
 10
-189.2764680672765
 20
1888.74972854167
 11
-189.1468108188311
 21
1886.252882417094
  0
LINE
  5
32B
100
AcDbEntity
  8
laser
  6
ByBlock
 62
  256
370
   -1
100
AcDbLine
 10
-189.1468108188311
 20
1886.252882417094
 11
-46.59212952076142
 21
1895.510858610546
  0
LINE
  5
32C
100
AcDbEntity
  8
laser
  6
ByBlock
 62
  256
370
   -1
100
AcDbLine
 10
-46.59212952076142
 20
1895.510858610546
 11
-46.65702363046048
 21
1898.011910669233
  0
LINE
  5
32D
100
AcDbEntity
  8
laser
  6
ByBlock
 62
  256
370
   -1
100
AcDbLine
 10
-46.65702363046048
 20
1898.011910669233
 11
-189.2764680672765
 21
1888.74972854167
  0
LINE
  5
32E
100
AcDbEntity
  8
laser
  6
ByBlock
 62
  256
370
   -1
100
AcDbLine
 10
16.11925961739887
 20
1985.314786466165
 11
17.86776680771315
 21
1983.527967335582
  0
LINE
  5
32F
100
AcDbEntity
  8
laser
  6
ByBlock
 62
  256
370
   -1
100
AcDbLine
 10
14.33244048681535
 20
1983.566279275851
 11
16.08094767712963
 21
1981.779460145267
  0
LINE
  5
330
100
AcDbEntity
  8
laser
  6
ByBlock
 62
  256
370
   -1
100
AcDbLine
 10
87.93729475559826
 20
3514.114252794609
 11
86.18878756528397
 21
3515.901071925193
  0
LINE
  5
331
100
AcDbEntity
  8
laser
  6
ByBlock
 62
  256
370
   -1
100
AcDbLine
 10
84.40196843470017
 20
3514.152564734878
 11
86.15047562501468
 21
3512.365745604295
  0
LINE
  5
332
100
AcDbEntity
  8
laser
  6
ByBlock
 62
  256
370
   -1
100
AcDbLine
 10
369.9246358944348
 20
2366.657389652009
 11
367.4329520423485
 21
2366.873522712161
  0
LINE
  5
333
100
AcDbEntity
  8
laser
  6
ByBlock
 62
  256
370
   -1
100
AcDbLine
 10
367.5771407027351
 20
2369.370403075465
 11
370.0688245548217
 21
2369.154270015313
  0
LINE
  5
334
100
AcDbEntity
  8
laser
  6
ByBlock
 62
  256
370
   -1
100
AcDbLine
 10
235.8106049880684
 20
2378.290677673201
 11
233.3158079918789
 21
2378.507080772973
  0
LINE
  5
335
100
AcDbEntity
  8
laser
  6
ByBlock
 62
  256
370
   -1
100
AcDbLine
 10
233.3880224312642
 20
2381.010204307387
 11
235.8828194274537
 21
2380.793801207614
  0
LINE
  5
336
100
AcDbEntity
  8
laser
  6
ByBlock
 62
  256
370
   -1
100
AcDbLine
 10
-59.5491244984803
 20
2394.880048105533
 11
-57.05249009516182
 21
2395.042187865934
  0
LINE
  5
337
100
AcDbEntity
  8
laser
  6
ByBlock
 62
  256
370
   -1
100
AcDbLine
 10
-59.61401860817936
 20
2397.38110016422
 11
-57.11738420486088
 21
2397.543239924621
  0
LINE
  5
338
100
AcDbEntity
  8
laser
  6
ByBlock
 62
  256
370
   -1
100
AcDbLine
 10
-215.1643078838871
 20
2387.279145869306
 11
-217.6592623199126
 21
2387.117115211582
  0
LINE
  5
339
100
AcDbEntity
  8
laser
  6
ByBlock
 62
  256
370
   -1
100
AcDbLine
 10
-217.5296050714672
 20
2384.620269087005
 11
-215.0346506354418
 21
2384.78229974473
  0
LINE
  5
33A
100
AcDbEntity
  8
laser
  6
ByBlock
 62
  256
370
   -1
100
AcDbLine
 10
-246.0869754536381
 20
2982.765658261613
 11
-248.5819298896636
 21
2982.603627603888
  0
LINE
  5
33B
100
AcDbEntity
  8
laser
  6
ByBlock
 62
  256
370
   -1
100
AcDbLine
 10
-248.7115871381089
 20
2985.100473728464
 11
-246.2166327020835
 21
2985.262504386189
  0
LINE
  5
33C
100
AcDbEntity
  8
laser
  6
ByBlock
 62
  256
370
   -1
100
AcDbLine
 10
-72.65923008949531
 20
2996.533900645882
 11
-75.15586449281381
 21
2996.371760885481
  0
LINE
  5
33D
100
AcDbEntity
  8
laser
  6
ByBlock
 62
  256
370
   -1
100
AcDbLine
 10
-75.09097038311474
 20
2993.870708826794
 11
-72.59433597979626
 21
2994.032848587195
  0
LINE
  5
33E
100
AcDbEntity
  8
laser
  6
ByBlock
 62
  256
370
   -1
100
AcDbLine
 10
250.5824369591324
 20
2977.009342866107
 11
253.0772339553219
 21
2976.792939766335
  0
LINE
  5
33F
100
AcDbEntity
  8
laser
  6
ByBlock
 62
  256
370
   -1
100
AcDbLine
 10
253.1494483947072
 20
2979.296063300747
 11
250.6546513985178
 21
2979.51246640052
  0
LINE
  5
340
100
AcDbEntity
  8
laser
  6
ByBlock
 62
  256
370
   -1
100
AcDbLine
 10
404.5446457531385
 20
2966.163776365568
 11
402.0529619010522
 21
2966.37990942572
  0
LINE
  5
341
100
AcDbEntity
  8
laser
  6
ByBlock
 62
  256
370
   -1
100
AcDbLine
 10
401.9087732406654
 20
2963.883029062416
 11
404.4004570927517
 21
2963.666896002264
  0
LINE
  5
342
100
AcDbEntity
  8
laser
  6
ByLayer
 62
  256
370
   -1
100
AcDbLine
 10
2988.983074805446
 20
2641.097614351237
 11
2986.498578330495
 21
2612.455167226978
  0
LINE
  5
343
100
AcDbEntity
  8
laser
  6
ByLayer
 62
  256
370
   -1
100
AcDbLine
 10
2986.498578330495
 20
2612.455167226978
 11
2819.159773446235
 21
2626.970430851407
  0
LINE
  5
344
100
AcDbEntity
  8
laser
  6
ByLayer
 62
  256
370
   -1
100
AcDbLine
 10
2819.159773446235
 20
2626.970430851407
 11
2819.015584785849
 21
2624.473550488102
  0
LINE
  5
345
100
AcDbEntity
  8
laser
  6
ByLayer
 62
  256
370
   -1
100
AcDbLine
 10
2819.015584785849
 20
2624.473550488102
 11
2986.282535158761
 21
2609.964519650955
  0
LINE
  5
346
100
AcDbEntity
  8
laser
  6
ByLayer
 62
  256
370
   -1
100
AcDbLine
 10
2986.282535158761
 20
2609.964519650955
 11
2977.856851461102
 21
2512.829264186078
  0
LINE
  5
347
100
AcDbEntity
  8
laser
  6
ByLayer
 62
  256
370
   -1
100
AcDbLine
 10
2977.856851461102
 20
2512.829264186078
 11
2813.392227030761
 21
2527.095216319238
  0
LINE
  5
348
100
AcDbEntity
  8
laser
  6
ByLayer
 62
  256
370
   -1
100
AcDbLine
 10
2813.392227030761
 20
2527.095216319238
 11
2813.248038370374
 21
2524.598335955934
  0
LINE
  5
349
100
AcDbEntity
  8
laser
  6
ByLayer
 62
  256
370
   -1
100
AcDbLine
 10
2813.248038370374
 20
2524.598335955934
 11
2977.640808289367
 21
2510.338616610055
  0
LINE
  5
34A
100
AcDbEntity
  8
laser
  6
ByLayer
 62
  256
370
   -1
100
AcDbLine
 10
2977.640808289367
 20
2510.338616610055
 11
2968.50065859629
 21
2404.966660186969
  0
LINE
  5
34B
100
AcDbEntity
  8
laser
  6
ByLayer
 62
  256
370
   -1
100
AcDbLine
 10
2968.50065859629
 20
2404.966660186969
 11
2807.147841222751
 21
2418.962688677438
  0
LINE
  5
34C
100
AcDbEntity
  8
laser
  6
ByLayer
 62
  256
370
   -1
100
AcDbLine
 10
2807.147841222751
 20
2418.962688677438
 11
2807.003652562364
 21
2416.465808314134
  0
LINE
  5
34D
100
AcDbEntity
  8
laser
  6
ByLayer
 62
  256
370
   -1
100
AcDbLine
 10
2807.003652562364
 20
2416.465808314134
 11
2968.284615424553
 21
2402.476012610946
  0
LINE
  5
34E
100
AcDbEntity
  8
laser
  6
ByLayer
 62
  256
370
   -1
100
AcDbLine
 10
2968.284615424553
 20
2402.476012610946
 11
2960.638054597179
 21
2314.322853051782
  0
LINE
  5
34F
100
AcDbEntity
  8
laser
  6
ByLayer
 62
  256
370
   -1
100
AcDbLine
 10
2960.638054597179
 20
2314.322853051782
 11
2801.900286631322
 21
2328.09204753582
  0
LINE
  5
350
100
AcDbEntity
  8
laser
  6
ByLayer
 62
  256
370
   -1
100
AcDbLine
 10
2801.900286631322
 20
2328.09204753582
 11
2801.756097970935
 21
2325.595167172516
  0
LINE
  5
351
100
AcDbEntity
  8
laser
  6
ByLayer
 62
  256
370
   -1
100
AcDbLine
 10
2801.756097970935
 20
2325.595167172516
 11
2960.422011425444
 21
2311.832205475759
  0
LINE
  5
352
100
AcDbEntity
  8
laser
  6
ByLayer
 62
  256
370
   -1
100
AcDbLine
 10
2960.422011425444
 20
2311.832205475759
 11
2951.281861732365
 21
2206.460249052673
  0
LINE
  5
353
100
AcDbEntity
  8
laser
  6
ByLayer
 62
  256
370
   -1
100
AcDbLine
 10
2951.281861732365
 20
2206.460249052673
 11
2795.655900823312
 21
2219.95951989402
  0
LINE
  5
354
100
AcDbEntity
  8
laser
  6
ByLayer
 62
  256
370
   -1
100
AcDbLine
 10
2795.655900823312
 20
2219.95951989402
 11
2795.511712162925
 21
2217.462639530715
  0
LINE
  5
355
100
AcDbEntity
  8
laser
  6
ByLayer
 62
  256
370
   -1
100
AcDbLine
 10
2795.511712162925
 20
2217.462639530715
 11
2951.06581856063
 21
2203.96960147665
  0
LINE
  5
356
100
AcDbEntity
  8
laser
  6
ByLayer
 62
  256
370
   -1
100
AcDbLine
 10
2951.06581856063
 20
2203.96960147665
 11
2943.419257733255
 21
2115.816441917485
  0
LINE
  5
357
100
AcDbEntity
  8
laser
  6
ByLayer
 62
  256
370
   -1
100
AcDbLine
 10
2943.419257733255
 20
2115.816441917485
 11
2790.408346231883
 21
2129.088878752401
  0
LINE
  5
358
100
AcDbEntity
  8
laser
  6
ByLayer
 62
  256
370
   -1
100
AcDbLine
 10
2790.408346231883
 20
2129.088878752401
 11
2790.264157571496
 21
2126.591998389097
  0
LINE
  5
359
100
AcDbEntity
  8
laser
  6
ByLayer
 62
  256
370
   -1
100
AcDbLine
 10
2790.264157571496
 20
2126.591998389097
 11
2943.20321456152
 21
2113.325794341463
  0
LINE
  5
35A
100
AcDbEntity
  8
laser
  6
ByLayer
 62
  256
370
   -1
100
AcDbLine
 10
2943.20321456152
 20
2113.325794341463
 11
2934.063064868441
 21
2007.953837918376
  0
LINE
  5
35B
100
AcDbEntity
  8
laser
  6
ByLayer
 62
  256
370
   -1
100
AcDbLine
 10
2934.063064868441
 20
2007.953837918376
 11
2784.163960423873
 21
2020.956351110601
  0
LINE
  5
35C
100
AcDbEntity
  8
laser
  6
ByBlock
 62
  256
370
   -1
100
AcDbLine
 10
2130.907727532625
 20
2039.893048473497
 11
2045.435315916125
 21
2034.342185150476
  0
LINE
  5
35D
100
AcDbEntity
  8
laser
  6
ByBlock
 62
  256
370
   -1
100
AcDbLine
 10
2045.435315916125
 20
2034.342185150476
 11
2039.55026758493
 21
2124.960390657491
  0
LINE
  5
35E
100
AcDbEntity
  8
laser
  6
ByBlock
 62
  256
370
   -1
100
AcDbLine
 10
2039.55026758493
 20
2124.960390657491
 11
2126.198104225224
 21
2130.587589999705
  0
LINE
  5
35F
100
AcDbEntity
  8
laser
  6
ByBlock
 62
  256
370
   -1
100
AcDbLine
 10
2126.198104225224
 20
2130.587589999705
 11
2126.068446976779
 21
2133.084436124281
  0
LINE
  5
360
100
AcDbEntity
  8
laser
  6
ByBlock
 62
  256
370
   -1
100
AcDbLine
 10
2126.068446976779
 20
2133.084436124281
 11
2039.388250556436
 21
2127.455135230083
  0
LINE
  5
361
100
AcDbEntity
  8
laser
  6
ByBlock
 62
  256
370
   -1
100
AcDbLine
 10
2039.388250556436
 20
2127.455135230083
 11
2032.663217664537
 21
2231.00745601718
  0
LINE
  5
362
100
AcDbEntity
  8
laser
  6
ByBlock
 62
  256
370
   -1
100
AcDbLine
 10
2032.663217664537
 20
2231.00745601718
 11
2120.686609841672
 21
2236.723988521216
  0
LINE
  5
363
100
AcDbEntity
  8
laser
  6
ByBlock
 62
  256
370
   -1
100
AcDbLine
 10
2120.686609841672
 20
2236.723988521216
 11
2120.556952593226
 21
2239.220834645791
  0
LINE
  5
364
100
AcDbEntity
  8
laser
  6
ByBlock
 62
  256
370
   -1
100
AcDbLine
 10
2120.556952593226
 20
2239.220834645791
 11
2032.501200636043
 21
2233.502200589772
  0
LINE
  5
365
100
AcDbEntity
  8
laser
  6
ByBlock
 62
  256
370
   -1
100
AcDbLine
 10
2032.501200636043
 20
2233.502200589772
 11
2026.616152304848
 21
2324.120406096788
  0
LINE
  5
366
100
AcDbEntity
  8
laser
  6
ByBlock
 62
  256
370
   -1
100
AcDbLine
 10
2026.616152304848
 20
2324.120406096788
 11
2115.847329285825
 21
2329.915376171999
  0
LINE
  5
367
100
AcDbEntity
  8
laser
  6
ByBlock
 62
  256
370
   -1
100
AcDbLine
 10
2115.847329285825
 20
2329.915376171999
 11
2115.71767203738
 21
2332.412222296575
  0
LINE
  5
368
100
AcDbEntity
  8
laser
  6
ByBlock
 62
  256
370
   -1
100
AcDbLine
 10
2115.71767203738
 20
2332.412222296575
 11
2026.454135276354
 21
2326.61515066938
  0
LINE
  5
369
100
AcDbEntity
  8
laser
  6
ByBlock
 62
  256
370
   -1
100
AcDbLine
 10
2026.454135276354
 20
2326.61515066938
 11
2019.729102384455
 21
2430.167471456477
  0
LINE
  5
36A
100
AcDbEntity
  8
laser
  6
ByBlock
 62
  256
370
   -1
100
AcDbLine
 10
2019.729102384455
 20
2430.167471456477
 11
2110.335834902273
 21
2436.05177469351
  0
LINE
  5
36B
100
AcDbEntity
  8
laser
  6
ByBlock
 62
  256
370
   -1
100
AcDbLine
 10
2110.335834902273
 20
2436.05177469351
 11
2110.206177653828
 21
2438.548620818086
  0
LINE
  5
36C
100
AcDbEntity
  8
laser
  6
ByBlock
 62
  256
370
   -1
100
AcDbLine
 10
2110.206177653828
 20
2438.548620818086
 11
2019.567085355962
 21
2432.662216029069
  0
LINE
  5
36D
100
AcDbEntity
  8
laser
  6
ByBlock
 62
  256
370
   -1
100
AcDbLine
 10
2019.567085355962
 20
2432.662216029069
 11
2013.682037024766
 21
2523.280421536085
  0
LINE
  5
36E
100
AcDbEntity
  8
laser
  6
ByBlock
 62
  256
370
   -1
100
AcDbLine
 10
2013.682037024766
 20
2523.280421536085
 11
2105.496554346426
 21
2529.243162344294
  0
LINE
  5
36F
100
AcDbEntity
  8
laser
  6
ByBlock
 62
  256
370
   -1
100
AcDbLine
 10
2105.496554346426
 20
2529.243162344294
 11
2105.366897097981
 21
2531.74000846887
  0
LINE
  5
370
100
AcDbEntity
  8
laser
  6
ByBlock
 62
  256
370
   -1
100
AcDbLine
 10
2105.366897097981
 20
2531.74000846887
 11
2013.520019996272
 21
2525.775166108677
  0
LINE
  5
371
100
AcDbEntity
  8
laser
  6
ByBlock
 62
  256
370
   -1
100
AcDbLine
 10
2013.520019996272
 20
2525.775166108677
 11
2011.656824168593
 21
2554.464728693487
  0
LINE
  5
372
100
AcDbEntity
  8
laser
  6
ByBlock
 62
  256
370
   -1
100
AcDbLine
 10
2011.656824168593
 20
2554.464728693487
 11
2451.065168295741
 21
2582.185138679364
  0
LINE
  5
373
100
AcDbEntity
  8
laser
  6
ByBlock
 62
  256
370
   -1
100
AcDbLine
 10
2451.065168295741
 20
2582.185138679364
 11
2464.021283105434
 21
2568.945139479911
  0
LINE
  5
374
100
AcDbEntity
  8
laser
  6
ByBlock
 62
  256
370
   -1
100
AcDbLine
 10
2465.808102236018
 20
2570.693646670226
 11
2452.851987426324
 21
2583.933645869678
  0
LINE
  5
375
100
AcDbEntity
  8
laser
  6
ByBlock
 62
  256
370
   -1
100
AcDbLine
 10
2452.851987426324
 20
2583.933645869678
 11
2458.26524904199
 21
2655.76567205874
  0
LINE
  5
376
100
AcDbEntity
  8
laser
  6
ByBlock
 62
  256
370
   -1
100
AcDbLine
 10
2458.26524904199
 20
2655.76567205874
 11
2486.907696166249
 21
2653.28117558379
  0
LINE
  5
377
100
AcDbEntity
  8
laser
  6
ByBlock
 62
  256
370
   -1
100
AcDbLine
 10
2486.907696166249
 20
2653.28117558379
 11
2482.802875903287
 21
2605.958871639362
  0
LINE
  5
378
100
AcDbEntity
  8
laser
  6
ByBlock
 62
  256
370
   -1
100
AcDbLine
 10
2482.802875903287
 20
2605.958871639362
 11
2485.293523479309
 21
2605.742828467628
  0
LINE
  5
379
100
AcDbEntity
  8
laser
  6
ByBlock
 62
  256
370
   -1
100
AcDbLine
 10
2485.293523479309
 20
2605.742828467628
 11
2489.398343742271
 21
2653.065132412055
  0
LINE
  5
37A
100
AcDbEntity
  8
laser
  6
ByBlock
 62
  256
370
   -1
100
AcDbLine
 10
2489.398343742271
 20
2653.065132412055
 11
2647.728809662469
 21
2639.331268027162
  0
LINE
  5
37B
100
AcDbEntity
  8
laser
  6
ByBlock
 62
  256
370
   -1
100
AcDbLine
 10
2647.728809662469
 20
2639.331268027162
 11
2647.801024101854
 21
2641.834391561576
  0
LINE
  5
37C
100
AcDbEntity
  8
laser
  6
ByBlock
 62
  256
370
   -1
100
AcDbLine
 10
2647.801024101854
 20
2641.834391561576
 11
2489.614386914006
 21
2655.555779988078
  0
LINE
  5
37D
100
AcDbEntity
  8
laser
  6
ByBlock
 62
  256
370
   -1
100
AcDbLine
 10
2489.614386914006
 20
2655.555779988078
 11
2490.69460277268
 21
2668.00901786819
  0
LINE
  5
37E
100
AcDbEntity
  8
laser
  6
ByBlock
 62
  256
370
   -1
100
AcDbLine
 10
2490.69460277268
 20
2668.00901786819
 11
2488.203955196658
 21
2668.225061039925
  0
LINE
  5
37F
100
AcDbEntity
  8
laser
  6
ByBlock
 62
  256
370
   -1
100
AcDbLine
 10
2488.203955196658
 20
2668.225061039925
 11
2487.123739337984
 21
2655.771823159812
  0
LINE
  5
380
100
AcDbEntity
  8
laser
  6
ByBlock
 62
  256
370
   -1
100
AcDbLine
 10
2487.123739337984
 20
2655.771823159812
 11
2458.481292213725
 21
2658.256319634762
  0
LINE
  5
381
100
AcDbEntity
  8
laser
  6
ByBlock
 62
  256
370
   -1
100
AcDbLine
 10
2458.481292213725
 20
2658.256319634762
 11
2460.965788688676
 21
2686.898766759021
  0
LINE
  5
382
100
AcDbEntity
  8
laser
  6
ByBlock
 62
  256
370
   -1
100
AcDbLine
 10
2460.965788688676
 20
2686.898766759021
 11
2489.608235812934
 21
2684.41427028407
  0
LINE
  5
383
100
AcDbEntity
  8
laser
  6
ByBlock
 62
  256
370
   -1
100
AcDbLine
 10
2489.608235812934
 20
2684.41427028407
 11
2488.419998368392
 21
2670.715708615947
  0
LINE
  5
384
100
AcDbEntity
  8
laser
  6
ByBlock
 62
  256
370
   -1
100
AcDbLine
 10
2488.419998368392
 20
2670.715708615947
 11
2490.910645944415
 21
2670.499665444212
  0
LINE
  5
385
100
AcDbEntity
  8
laser
  6
ByBlock
 62
  256
370
   -1
100
AcDbLine
 10
2490.910645944415
 20
2670.499665444212
 11
2492.098883388957
 21
2684.198227112336
  0
LINE
  5
386
100
AcDbEntity
  8
laser
  6
ByBlock
 62
  256
370
   -1
100
AcDbLine
 10
2492.098883388957
 20
2684.198227112336
 11
2988.983074805445
 21
2641.097614351237
  0
LINE
  5
387
100
AcDbEntity
  8
laser
  6
ByBlock
 62
  256
370
   -1
100
AcDbLine
 10
2816.668089594149
 20
2627.186563911559
 11
2816.523900933762
 21
2624.689683548254
  0
LINE
  5
388
100
AcDbEntity
  8
laser
  6
ByBlock
 62
  256
370
   -1
100
AcDbLine
 10
2816.523900933762
 20
2624.689683548254
 11
2650.223606658658
 21
2639.11486492739
  0
LINE
  5
389
100
AcDbEntity
  8
laser
  6
ByBlock
 62
  256
370
   -1
100
AcDbLine
 10
2650.223606658658
 20
2639.11486492739
 11
2650.295821098044
 21
2641.617988461803
  0
LINE
  5
38A
100
AcDbEntity
  8
laser
  6
ByBlock
 62
  256
370
   -1
100
AcDbLine
 10
2650.295821098044
 20
2641.617988461803
 11
2816.668089594149
 21
2627.186563911559
  0
LINE
  5
38B
100
AcDbEntity
  8
laser
  6
ByBlock
 62
  256
370
   -1
100
AcDbLine
 10
2810.900543178675
 20
2527.31134937939
 11
2810.756354518288
 21
2524.814469016086
  0
LINE
  5
38C
100
AcDbEntity
  8
laser
  6
ByBlock
 62
  256
370
   -1
100
AcDbLine
 10
2810.756354518288
 20
2524.814469016086
 11
2647.335029083245
 21
2538.989923550878
  0
LINE
  5
38D
100
AcDbEntity
  8
laser
  6
ByBlock
 62
  256
370
   -1
100
AcDbLine
 10
2647.335029083245
 20
2538.989923550878
 11
2647.40724352263
 21
2541.493047085291
  0
LINE
  5
38E
100
AcDbEntity
  8
laser
  6
ByBlock
 62
  256
370
   -1
100
AcDbLine
 10
2647.40724352263
 20
2541.493047085291
 11
2810.900543178672
 21
2527.31134937939
  0
LINE
  5
38F
100
AcDbEntity
  8
laser
  6
ByBlock
 62
  256
370
   -1
100
AcDbLine
 10
2804.656157370664
 20
2419.17882173759
 11
2804.511968710277
 21
2416.681941374286
  0
LINE
  5
390
100
AcDbEntity
  8
laser
  6
ByBlock
 62
  256
370
   -1
100
AcDbLine
 10
2804.511968710277
 20
2416.681941374286
 11
2644.207634604225
 21
2430.587022573457
  0
LINE
  5
391
100
AcDbEntity
  8
laser
  6
ByBlock
 62
  256
370
   -1
100
AcDbLine
 10
2644.207634604225
 20
2430.587022573457
 11
2644.27984904361
 21
2433.09014610787
  0
LINE
  5
392
100
AcDbEntity
  8
laser
  6
ByBlock
 62
  256
370
   -1
100
AcDbLine
 10
2644.27984904361
 20
2433.09014610787
 11
2804.656157370664
 21
2419.17882173759
  0
LINE
  5
393
100
AcDbEntity
  8
laser
  6
ByBlock
 62
  256
370
   -1
100
AcDbLine
 10
2799.408602779235
 20
2328.308180595971
 11
2799.264414118849
 21
2325.811300232667
  0
LINE
  5
394
100
AcDbEntity
  8
laser
  6
ByBlock
 62
  256
370
   -1
100
AcDbLine
 10
2799.264414118849
 20
2325.811300232667
 11
2641.579486094161
 21
2339.489169519833
  0
LINE
  5
395
100
AcDbEntity
  8
laser
  6
ByBlock
 62
  256
370
   -1
100
AcDbLine
 10
2641.579486094161
 20
2339.489169519833
 11
2641.651700533546
 21
2341.992293054246
  0
LINE
  5
396
100
AcDbEntity
  8
laser
  6
ByBlock
 62
  256
370
   -1
100
AcDbLine
 10
2641.651700533546
 20
2341.992293054246
 11
2799.408602779235
 21
2328.308180595971
  0
LINE
  5
397
100
AcDbEntity
  8
laser
  6
ByBlock
 62
  256
370
   -1
100
AcDbLine
 10
2793.164216971225
 20
2220.175652954171
 11
2793.020028310838
 21
2217.678772590867
  0
LINE
  5
398
100
AcDbEntity
  8
laser
  6
ByBlock
 62
  256
370
   -1
100
AcDbLine
 10
2793.020028310838
 20
2217.678772590867
 11
2638.45209161514
 21
2231.086268542412
  0
LINE
  5
399
100
AcDbEntity
  8
laser
  6
ByBlock
 62
  256
370
   -1
100
AcDbLine
 10
2638.45209161514
 20
2231.086268542412
 11
2638.524306054526
 21
2233.589392076825
  0
LINE
  5
39A
100
AcDbEntity
  8
laser
  6
ByBlock
 62
  256
370
   -1
100
AcDbLine
 10
2638.524306054526
 20
2233.589392076825
 11
2793.164216971224
 21
2220.175652954172
  0
LINE
  5
39B
100
AcDbEntity
  8
laser
  6
ByBlock
 62
  256
370
   -1
100
AcDbLine
 10
2787.916662379797
 20
2129.305011812553
 11
2787.77247371941
 21
2126.808131449249
  0
LINE
  5
39C
100
AcDbEntity
  8
laser
  6
ByBlock
 62
  256
370
   -1
100
AcDbLine
 10
2787.77247371941
 20
2126.808131449249
 11
2635.823943105076
 21
2139.988415488788
  0
LINE
  5
39D
100
AcDbEntity
  8
laser
  6
ByBlock
 62
  256
370
   -1
100
AcDbLine
 10
2635.823943105076
 20
2139.988415488788
 11
2635.896157544461
 21
2142.491539023201
  0
LINE
  5
39E
100
AcDbEntity
  8
laser
  6
ByBlock
 62
  256
370
   -1
100
AcDbLine
 10
2635.896157544461
 20
2142.491539023201
 11
2787.916662379796
 21
2129.305011812553
  0
LINE
  5
39F
100
AcDbEntity
  8
laser
  6
ByBlock
 62
  256
370
   -1
100
AcDbLine
 10
2632.768763065441
 20
2034.08863804578
 11
2781.672276571786
 21
2021.172484170753
  0
LINE
  5
3A0
100
AcDbEntity
  8
laser
  6
ByBlock
 62
  256
370
   -1
100
AcDbLine
 10
2630.273966069252
 20
2034.305041145553
 11
2382.400528033441
 21
2055.806021154774
  0
LINE
  5
3A1
100
AcDbEntity
  8
laser
  6
ByBlock
 62
  256
370
   -1
100
AcDbLine
 10
2382.400528033441
 20
2055.806021154774
 11
2429.619314670734
 21
2103.024807792066
  0
LINE
  5
3A2
100
AcDbEntity
  8
laser
  6
ByBlock
 62
  256
370
   -1
100
AcDbLine
 10
2429.619314670734
 20
2103.024807792066
 11
2427.851547717768
 21
2104.792574745033
  0
LINE
  5
3A3
100
AcDbEntity
  8
laser
  6
ByBlock
 62
  256
370
   -1
100
AcDbLine
 10
2427.851547717768
 20
2104.792574745033
 11
2379.068402921622
 21
2056.009429948888
  0
LINE
  5
3A4
100
AcDbEntity
  8
laser
  6
ByBlock
 62
  256
370
   -1
100
AcDbLine
 10
2379.068402921622
 20
2056.009429948888
 11
2306.960084581239
 21
2051.326475390915
  0
LINE
  5
3A5
100
AcDbEntity
  8
laser
  6
ByBlock
 62
  256
370
   -1
100
AcDbLine
 10
2304.538000146923
 20
2144.674843815281
 11
2304.602894256622
 21
2142.173791756594
  0
LINE
  5
3A6
100
AcDbEntity
  8
laser
  6
ByBlock
 62
  256
370
   -1
100
AcDbLine
 10
2304.602894256622
 20
2142.173791756594
 11
2476.38913589114
 21
2153.330162918406
  0
LINE
  5
3A7
100
AcDbEntity
  8
laser
  6
ByBlock
 62
  256
370
   -1
100
AcDbLine
 10
2476.38913589114
 20
2153.330162918406
 11
2429.619314670734
 21
2106.560341698
  0
LINE
  5
3A8
100
AcDbEntity
  8
laser
  6
ByBlock
 62
  256
370
   -1
100
AcDbLine
 10
2429.619314670734
 20
2106.560341698
 11
2431.3870816237
 21
2104.792574745033
  0
LINE
  5
3A9
100
AcDbEntity
  8
laser
  6
ByBlock
 62
  256
370
   -1
100
AcDbLine
 10
2431.3870816237
 20
2104.792574745033
 11
2480.091435276842
 21
2153.496928398175
  0
LINE
  5
3AA
100
AcDbEntity
  8
laser
  6
ByBlock
 62
  256
370
   -1
100
AcDbLine
 10
2480.091435276842
 20
2153.496928398175
 11
2633.329146108887
 21
2140.204818588561
  0
LINE
  5
3AB
100
AcDbEntity
  8
laser
  6
ByBlock
 62
  256
370
   -1
100
AcDbLine
 10
2633.329146108887
 20
2140.204818588561
 11
2633.401360548272
 21
2142.707942122974
  0
LINE
  5
3AC
100
AcDbEntity
  8
laser
  6
ByBlock
 62
  256
370
   -1
100
AcDbLine
 10
2633.401360548272
 20
2142.707942122974
 11
2480.181119824179
 21
2155.998536544554
  0
LINE
  5
3AD
100
AcDbEntity
  8
laser
  6
ByBlock
 62
  256
370
   -1
100
AcDbLine
 10
2480.181119824179
 20
2155.998536544554
 11
2431.3870816237
 21
2204.792574745033
  0
LINE
  5
3AE
100
AcDbEntity
  8
laser
  6
ByBlock
 62
  256
370
   -1
100
AcDbLine
 10
2431.3870816237
 20
2204.792574745033
 11
2429.619314670734
 21
2203.024807792066
  0
LINE
  5
3AF
100
AcDbEntity
  8
laser
  6
ByBlock
 62
  256
370
   -1
100
AcDbLine
 10
2429.619314670734
 20
2203.024807792066
 11
2476.783107233665
 21
2155.861015229136
  0
LINE
  5
3B0
100
AcDbEntity
  8
laser
  6
ByBlock
 62
  256
370
   -1
100
AcDbLine
 10
2476.783107233665
 20
2155.861015229136
 11
2304.538000146924
 21
2144.674843815281
  0
LINE
  5
3B1
100
AcDbEntity
  8
laser
  6
ByBlock
 62
  256
370
   -1
100
AcDbLine
 10
2301.779469286361
 20
2250.990028964668
 11
2301.84436339606
 21
2248.488976905982
  0
LINE
  5
3B2
100
AcDbEntity
  8
laser
  6
ByBlock
 62
  256
370
   -1
100
AcDbLine
 10
2301.84436339606
 20
2248.488976905982
 11
2379.135595314434
 21
2253.508527148367
  0
LINE
  5
3B3
100
AcDbEntity
  8
laser
  6
ByBlock
 62
  256
370
   -1
100
AcDbLine
 10
2379.135595314434
 20
2253.508527148367
 11
2427.851547717768
 21
2204.792574745033
  0
LINE
  5
3B4
100
AcDbEntity
  8
laser
  6
ByBlock
 62
  256
370
   -1
100
AcDbLine
 10
2427.851547717768
 20
2204.792574745033
 11
2429.619314670734
 21
2206.560341698
  0
LINE
  5
3B5
100
AcDbEntity
  8
laser
  6
ByBlock
 62
  256
370
   -1
100
AcDbLine
 10
2429.619314670734
 20
2206.560341698
 11
2382.92885036942
 21
2253.250805999314
  0
LINE
  5
3B6
100
AcDbEntity
  8
laser
  6
ByBlock
 62
  256
370
   -1
100
AcDbLine
 10
2382.92885036942
 20
2253.250805999314
 11
2635.957294618951
 21
2231.302671642185
  0
LINE
  5
3B7
100
AcDbEntity
  8
laser
  6
ByBlock
 62
  256
370
   -1
100
AcDbLine
 10
2635.957294618951
 20
2231.302671642185
 11
2636.029509058336
 21
2233.805795176597
  0
LINE
  5
3B8
100
AcDbEntity
  8
laser
  6
ByBlock
 62
  256
370
   -1
100
AcDbLine
 10
2636.029509058336
 20
2233.805795176597
 11
2382.400528033441
 21
2255.806021154774
  0
LINE
  5
3B9
100
AcDbEntity
  8
laser
  6
ByBlock
 62
  256
370
   -1
100
AcDbLine
 10
2382.400528033441
 20
2255.806021154774
 11
2429.619314670734
 21
2303.024807792066
  0
LINE
  5
3BA
100
AcDbEntity
  8
laser
  6
ByBlock
 62
  256
370
   -1
100
AcDbLine
 10
2429.619314670734
 20
2303.024807792066
 11
2427.851547717768
 21
2304.792574745033
  0
LINE
  5
3BB
100
AcDbEntity
  8
laser
  6
ByBlock
 62
  256
370
   -1
100
AcDbLine
 10
2427.851547717768
 20
2304.792574745033
 11
2379.068402921622
 21
2256.009429948887
  0
LINE
  5
3BC
100
AcDbEntity
  8
laser
  6
ByBlock
 62
  256
370
   -1
100
AcDbLine
 10
2379.068402921622
 20
2256.009429948887
 11
2301.779469286361
 21
2250.990028964668
  0
LINE
  5
3BD
100
AcDbEntity
  8
laser
  6
ByBlock
 62
  256
370
   -1
100
AcDbLine
 10
2299.357384852045
 20
2344.338397389035
 11
2299.422278961744
 21
2341.837345330348
  0
LINE
  5
3BE
100
AcDbEntity
  8
laser
  6
ByBlock
 62
  256
370
   -1
100
AcDbLine
 10
2299.422278961744
 20
2341.837345330348
 11
2476.38913589114
 21
2353.330162918406
  0
LINE
  5
3BF
100
AcDbEntity
  8
laser
  6
ByBlock
 62
  256
370
   -1
100
AcDbLine
 10
2476.38913589114
 20
2353.330162918406
 11
2429.619314670734
 21
2306.560341698
  0
LINE
  5
3C0
100
AcDbEntity
  8
laser
  6
ByBlock
 62
  256
370
   -1
100
AcDbLine
 10
2429.619314670734
 20
2306.560341698
 11
2431.3870816237
 21
2304.792574745033
  0
LINE
  5
3C1
100
AcDbEntity
  8
laser
  6
ByBlock
 62
  256
370
   -1
100
AcDbLine
 10
2431.3870816237
 20
2304.792574745033
 11
2480.091435276842
 21
2353.496928398175
  0
LINE
  5
3C2
100
AcDbEntity
  8
laser
  6
ByBlock
 62
  256
370
   -1
100
AcDbLine
 10
2480.091435276842
 20
2353.496928398175
 11
2639.084689097971
 21
2339.705572619605
  0
LINE
  5
3C3
100
AcDbEntity
  8
laser
  6
ByBlock
 62
  256
370
   -1
100
AcDbLine
 10
2639.084689097971
 20
2339.705572619605
 11
2639.156903537356
 21
2342.208696154018
  0
LINE
  5
3C4
100
AcDbEntity
  8
laser
  6
ByBlock
 62
  256
370
   -1
100
AcDbLine
 10
2639.156903537356
 20
2342.208696154018
 11
2480.181119824179
 21
2355.998536544554
  0
LINE
  5
3C5
100
AcDbEntity
  8
laser
  6
ByBlock
 62
  256
370
   -1
100
AcDbLine
 10
2480.181119824179
 20
2355.998536544554
 11
2431.3870816237
 21
2404.792574745033
  0
LINE
  5
3C6
100
AcDbEntity
  8
laser
  6
ByBlock
 62
  256
370
   -1
100
AcDbLine
 10
2431.3870816237
 20
2404.792574745033
 11
2429.619314670734
 21
2403.024807792066
  0
LINE
  5
3C7
100
AcDbEntity
  8
laser
  6
ByBlock
 62
  256
370
   -1
100
AcDbLine
 10
2429.619314670734
 20
2403.024807792066
 11
2476.783107233665
 21
2355.861015229136
  0
LINE
  5
3C8
100
AcDbEntity
  8
laser
  6
ByBlock
 62
  256
370
   -1
100
AcDbLine
 10
2476.783107233665
 20
2355.861015229136
 11
2299.357384852045
 21
2344.338397389035
  0
LINE
  5
3C9
100
AcDbEntity
  8
laser
  6
ByBlock
 62
  256
370
   -1
100
AcDbLine
 10
2296.598853991482
 20
2450.653582538422
 11
2296.663748101182
 21
2448.152530479736
  0
LINE
  5
3CA
100
AcDbEntity
  8
laser
  6
ByBlock
 62
  256
370
   -1
100
AcDbLine
 10
2296.663748101182
 20
2448.152530479736
 11
2379.135595314434
 21
2453.508527148367
  0
LINE
  5
3CB
100
AcDbEntity
  8
laser
  6
ByBlock
 62
  256
370
   -1
100
AcDbLine
 10
2379.135595314434
 20
2453.508527148367
 11
2427.851547717768
 21
2404.792574745033
  0
LINE
  5
3CC
100
AcDbEntity
  8
laser
  6
ByBlock
 62
  256
370
   -1
100
AcDbLine
 10
2427.851547717768
 20
2404.792574745033
 11
2429.619314670734
 21
2406.560341698
  0
LINE
  5
3CD
100
AcDbEntity
  8
laser
  6
ByBlock
 62
  256
370
   -1
100
AcDbLine
 10
2429.619314670734
 20
2406.560341698
 11
2382.928850369421
 21
2453.250805999313
  0
LINE
  5
3CE
100
AcDbEntity
  8
laser
  6
ByBlock
 62
  256
370
   -1
100
AcDbLine
 10
2382.928850369421
 20
2453.250805999313
 11
2641.712837608035
 21
2430.803425673229
  0
LINE
  5
3CF
100
AcDbEntity
  8
laser
  6
ByBlock
 62
  256
370
   -1
100
AcDbLine
 10
2641.712837608035
 20
2430.803425673229
 11
2641.785052047421
 21
2433.306549207642
  0
LINE
  5
3D0
100
AcDbEntity
  8
laser
  6
ByBlock
 62
  256
370
   -1
100
AcDbLine
 10
2641.785052047421
 20
2433.306549207642
 11
2382.400528033441
 21
2455.806021154774
  0
LINE
  5
3D1
100
AcDbEntity
  8
laser
  6
ByBlock
 62
  256
370
   -1
100
AcDbLine
 10
2382.400528033441
 20
2455.806021154774
 11
2429.619314670735
 21
2503.024807792067
  0
LINE
  5
3D2
100
AcDbEntity
  8
laser
  6
ByBlock
 62
  256
370
   -1
100
AcDbLine
 10
2429.619314670735
 20
2503.024807792067
 11
2427.851547717768
 21
2504.792574745033
  0
LINE
  5
3D3
100
AcDbEntity
  8
laser
  6
ByBlock
 62
  256
370
   -1
100
AcDbLine
 10
2427.851547717768
 20
2504.792574745033
 11
2379.068402921622
 21
2456.009429948887
  0
LINE
  5
3D4
100
AcDbEntity
  8
laser
  6
ByBlock
 62
  256
370
   -1
100
AcDbLine
 10
2379.068402921622
 20
2456.009429948887
 11
2296.598853991482
 21
2450.653582538422
  0
LINE
  5
3D5
100
AcDbEntity
  8
laser
  6
ByBlock
 62
  256
370
   -1
100
AcDbLine
 10
2294.176769557167
 20
2544.001950962789
 11
2294.241663666866
 21
2541.500898904102
  0
LINE
  5
3D6
100
AcDbEntity
  8
laser
  6
ByBlock
 62
  256
370
   -1
100
AcDbLine
 10
2294.241663666866
 20
2541.500898904102
 11
2476.389135891141
 21
2553.330162918406
  0
LINE
  5
3D7
100
AcDbEntity
  8
laser
  6
ByBlock
 62
  256
370
   -1
100
AcDbLine
 10
2476.389135891141
 20
2553.330162918406
 11
2429.619314670735
 21
2506.560341698
  0
LINE
  5
3D8
100
AcDbEntity
  8
laser
  6
ByBlock
 62
  256
370
   -1
100
AcDbLine
 10
2429.619314670735
 20
2506.560341698
 11
2431.387081623701
 21
2504.792574745033
  0
LINE
  5
3D9
100
AcDbEntity
  8
laser
  6
ByBlock
 62
  256
370
   -1
100
AcDbLine
 10
2431.387081623701
 20
2504.792574745033
 11
2480.091435276842
 21
2553.496928398175
  0
LINE
  5
3DA
100
AcDbEntity
  8
laser
  6
ByBlock
 62
  256
370
   -1
100
AcDbLine
 10
2480.091435276842
 20
2553.496928398175
 11
2644.840232087055
 21
2539.20632665065
  0
LINE
  5
3DB
100
AcDbEntity
  8
laser
  6
ByBlock
 62
  256
370
   -1
100
AcDbLine
 10
2644.840232087055
 20
2539.20632665065
 11
2644.912446526441
 21
2541.709450185063
  0
LINE
  5
3DC
100
AcDbEntity
  8
laser
  6
ByBlock
 62
  256
370
   -1
100
AcDbLine
 10
2644.912446526441
 20
2541.709450185063
 11
2480.972660044613
 21
2555.929876947177
  0
LINE
  5
3DD
100
AcDbEntity
  8
laser
  6
ByBlock
 62
  256
370
   -1
100
AcDbLine
 10
2480.972660044613
 20
2555.929876947177
 11
2485.077480307575
 21
2603.252180891605
  0
LINE
  5
3DE
100
AcDbEntity
  8
laser
  6
ByBlock
 62
  256
370
   -1
100
AcDbLine
 10
2485.077480307575
 20
2603.252180891605
 11
2482.586832731552
 21
2603.46822406334
  0
LINE
  5
3DF
100
AcDbEntity
  8
laser
  6
ByBlock
 62
  256
370
   -1
100
AcDbLine
 10
2482.586832731552
 20
2603.46822406334
 11
2478.609189097067
 21
2557.612072272198
  0
LINE
  5
3E0
100
AcDbEntity
  8
laser
  6
ByBlock
 62
  256
370
   -1
100
AcDbLine
 10
2478.609189097067
 20
2557.612072272198
 11
2467.556609426332
 21
2568.906827539642
  0
LINE
  5
3E1
100
AcDbEntity
  8
laser
  6
ByBlock
 62
  256
370
   -1
100
AcDbLine
 10
2465.769790295749
 20
2567.158320349328
 11
2476.822369966485
 21
2555.863565081884
  0
LINE
  5
3E2
100
AcDbEntity
  8
laser
  6
ByBlock
 62
  256
370
   -1
100
AcDbLine
 10
2476.822369966485
 20
2555.863565081884
 11
2294.176769557169
 21
2544.001950962789
  0
LINE
  5
3E3
100
AcDbEntity
  8
laser
  6
ByBlock
 62
  256
370
   -1
100
AcDbLine
 10
2107.861851534007
 20
2531.902039126595
 11
2107.991508782452
 21
2529.405193002019
  0
LINE
  5
3E4
100
AcDbEntity
  8
laser
  6
ByBlock
 62
  256
370
   -1
100
AcDbLine
 10
2107.991508782452
 20
2529.405193002019
 11
2291.745029263547
 21
2541.338759143701
  0
LINE
  5
3E5
100
AcDbEntity
  8
laser
  6
ByBlock
 62
  256
370
   -1
100
AcDbLine
 10
2291.745029263547
 20
2541.338759143701
 11
2291.680135153848
 21
2543.839811202388
  0
LINE
  5
3E6
100
AcDbEntity
  8
laser
  6
ByBlock
 62
  256
370
   -1
100
AcDbLine
 10
2291.680135153848
 20
2543.839811202388
 11
2107.861851534007
 21
2531.902039126595
  0
LINE
  5
3E7
100
AcDbEntity
  8
laser
  6
ByBlock
 62
  256
370
   -1
100
AcDbLine
 10
2112.701132089853
 20
2438.710651475811
 11
2112.830789338298
 21
2436.213805351235
  0
LINE
  5
3E8
100
AcDbEntity
  8
laser
  6
ByBlock
 62
  256
370
   -1
100
AcDbLine
 10
2112.830789338298
 20
2436.213805351235
 11
2294.167113697863
 21
2447.990390719334
  0
LINE
  5
3E9
100
AcDbEntity
  8
laser
  6
ByBlock
 62
  256
370
   -1
100
AcDbLine
 10
2294.167113697863
 20
2447.990390719334
 11
2294.102219588164
 21
2450.491442778021
  0
LINE
  5
3EA
100
AcDbEntity
  8
laser
  6
ByBlock
 62
  256
370
   -1
100
AcDbLine
 10
2294.102219588164
 20
2450.491442778021
 11
2112.701132089853
 21
2438.710651475811
  0
LINE
  5
3EB
100
AcDbEntity
  8
laser
  6
ByBlock
 62
  256
370
   -1
100
AcDbLine
 10
2118.212626473405
 20
2332.5742529543
 11
2118.342283721851
 21
2330.077406829724
  0
LINE
  5
3EC
100
AcDbEntity
  8
laser
  6
ByBlock
 62
  256
370
   -1
100
AcDbLine
 10
2118.342283721851
 20
2330.077406829724
 11
2296.925644558426
 21
2341.675205569947
  0
LINE
  5
3ED
100
AcDbEntity
  8
laser
  6
ByBlock
 62
  256
370
   -1
100
AcDbLine
 10
2296.925644558426
 20
2341.675205569947
 11
2296.860750448726
 21
2344.176257628634
  0
LINE
  5
3EE
100
AcDbEntity
  8
laser
  6
ByBlock
 62
  256
370
   -1
100
AcDbLine
 10
2296.860750448726
 20
2344.176257628634
 11
2118.212626473405
 21
2332.5742529543
  0
LINE
  5
3EF
100
AcDbEntity
  8
laser
  6
ByBlock
 62
  256
370
   -1
100
AcDbLine
 10
2123.051907029252
 20
2239.382865303517
 11
2123.181564277697
 21
2236.88601917894
  0
LINE
  5
3F0
100
AcDbEntity
  8
laser
  6
ByBlock
 62
  256
370
   -1
100
AcDbLine
 10
2123.181564277697
 20
2236.88601917894
 11
2299.347728992741
 21
2248.326837145581
  0
LINE
  5
3F1
100
AcDbEntity
  8
laser
  6
ByBlock
 62
  256
370
   -1
100
AcDbLine
 10
2299.347728992741
 20
2248.326837145581
 11
2299.282834883042
 21
2250.827889204268
  0
LINE
  5
3F2
100
AcDbEntity
  8
laser
  6
ByBlock
 62
  256
370
   -1
100
AcDbLine
 10
2299.282834883042
 20
2250.827889204268
 11
2123.051907029252
 21
2239.382865303517
  0
LINE
  5
3F3
100
AcDbEntity
  8
laser
  6
ByBlock
 62
  256
370
   -1
100
AcDbLine
 10
2128.563401412804
 20
2133.246466782005
 11
2128.693058661249
 21
2130.749620657429
  0
LINE
  5
3F4
100
AcDbEntity
  8
laser
  6
ByBlock
 62
  256
370
   -1
100
AcDbLine
 10
2128.693058661249
 20
2130.749620657429
 11
2302.106259853304
 21
2142.011651996193
  0
LINE
  5
3F5
100
AcDbEntity
  8
laser
  6
ByBlock
 62
  256
370
   -1
100
AcDbLine
 10
2302.106259853304
 20
2142.011651996193
 11
2302.041365743604
 21
2144.51270405488
  0
LINE
  5
3F6
100
AcDbEntity
  8
laser
  6
ByBlock
 62
  256
370
   -1
100
AcDbLine
 10
2302.041365743604
 20
2144.51270405488
 11
2128.563401412804
 21
2133.246466782005
  0
LINE
  5
3F7
100
AcDbEntity
  8
laser
  6
ByBlock
 62
  256
370
   -1
100
AcDbLine
 10
2304.463450177921
 20
2051.164335630514
 11
2133.402681968651
 21
2040.055079131222
  0
LINE
  5
3F8
100
AcDbEntity
  8
laser
  6
ByBlock
 62
  256
370
   -1
100
AcDbLine
 10
2467.556609426332
 20
2568.906827539642
 11
2465.808102236018
 21
2570.693646670226
  0
LINE
  5
3F9
100
AcDbEntity
  8
laser
  6
ByBlock
 62
  256
370
   -1
100
AcDbLine
 10
2464.021283105434
 20
2568.945139479911
 11
2465.769790295749
 21
2567.158320349328
  0
LINE
  5
3FA
100
AcDbEntity
  8
laser
  6
ByBlock
 62
  256
370
   -1
100
AcDbLine
 10
2130.907727532625
 20
2039.893048473497
 11
2133.402681968651
 21
2040.055079131222
  0
LINE
  5
3FB
100
AcDbEntity
  8
laser
  6
ByBlock
 62
  256
370
   -1
100
AcDbLine
 10
2306.960084581239
 20
2051.326475390915
 11
2304.463450177921
 21
2051.164335630514
  0
LINE
  5
3FC
100
AcDbEntity
  8
laser
  6
ByBlock
 62
  256
370
   -1
100
AcDbLine
 10
2632.768763065441
 20
2034.08863804578
 11
2630.273966069252
 21
2034.305041145553
  0
LINE
  5
3FD
100
AcDbEntity
  8
laser
  6
ByBlock
 62
  256
370
   -1
100
AcDbLine
 10
2784.163960423873
 20
2020.956351110601
 11
2781.672276571786
 21
2021.172484170753
  0
LINE
  5
3FE
100
AcDbEntity
  8
laser
  6
ByLayer
 62
  256
370
   -1
100
AcDbLine
 10
2795.819490114039
 20
1836.050176559425
 11
2945.646740047259
 21
1823.053896154482
  0
LINE
  5
3FF
100
AcDbEntity
  8
laser
  6
ByLayer
 62
  256
370
   -1
100
AcDbLine
 10
2945.646740047259
 20
1823.053896154482
 11
2938.000179219885
 21
1734.900736595318
  0
LINE
  5
400
100
AcDbEntity
  8
laser
  6
ByLayer
 62
  256
370
   -1
100
AcDbLine
 10
2938.000179219885
 20
1734.900736595318
 11
2790.716124182997
 21
1747.676415781111
  0
LINE
  5
401
100
AcDbEntity
  8
laser
  6
ByLayer
 62
  256
370
   -1
100
AcDbLine
 10
2790.716124182997
 20
1747.676415781111
 11
2790.57193552261
 21
1745.179535417807
  0
LINE
  5
402
100
AcDbEntity
  8
laser
  6
ByLayer
 62
  256
370
   -1
100
AcDbLine
 10
2790.57193552261
 20
1745.179535417807
 11
2937.784136048151
 21
1732.410089019295
  0
LINE
  5
403
100
AcDbEntity
  8
laser
  6
ByLayer
 62
  256
370
   -1
100
AcDbLine
 10
2937.784136048151
 20
1732.410089019295
 11
2928.643986355073
 21
1627.038132596208
  0
LINE
  5
404
100
AcDbEntity
  8
laser
  6
ByLayer
 62
  256
370
   -1
100
AcDbLine
 10
2928.643986355073
 20
1627.038132596208
 11
2784.471738374987
 21
1639.543888139311
  0
LINE
  5
405
100
AcDbEntity
  8
laser
  6
ByLayer
 62
  256
370
   -1
100
AcDbLine
 10
2784.471738374987
 20
1639.543888139311
 11
2784.3275497146
 21
1637.047007776007
  0
LINE
  5
406
100
AcDbEntity
  8
laser
  6
ByLayer
 62
  256
370
   -1
100
AcDbLine
 10
2784.3275497146
 20
1637.047007776007
 11
2928.427943183338
 21
1624.547485020186
  0
LINE
  5
407
100
AcDbEntity
  8
laser
  6
ByLayer
 62
  256
370
   -1
100
AcDbLine
 10
2928.427943183338
 20
1624.547485020186
 11
2920.781382355963
 21
1536.394325461021
  0
LINE
  5
408
100
AcDbEntity
  8
laser
  6
ByLayer
 62
  256
370
   -1
100
AcDbLine
 10
2920.781382355963
 20
1536.394325461021
 11
2779.224183783558
 21
1548.673246997693
  0
LINE
  5
409
100
AcDbEntity
  8
laser
  6
ByLayer
 62
  256
370
   -1
100
AcDbLine
 10
2779.224183783558
 20
1548.673246997693
 11
2779.079995123171
 21
1546.176366634388
  0
LINE
  5
40A
100
AcDbEntity
  8
laser
  6
ByLayer
 62
  256
370
   -1
100
AcDbLine
 10
2779.079995123171
 20
1546.176366634388
 11
2920.565339184228
 21
1533.903677884999
  0
LINE
  5
40B
100
AcDbEntity
  8
laser
  6
ByLayer
 62
  256
370
   -1
100
AcDbLine
 10
2920.565339184228
 20
1533.903677884999
 11
2911.425189491151
 21
1428.531721461912
  0
LINE
  5
40C
100
AcDbEntity
  8
laser
  6
ByLayer
 62
  256
370
   -1
100
AcDbLine
 10
2911.425189491151
 20
1428.531721461912
 11
2772.979797975548
 21
1440.540719355892
  0
LINE
  5
40D
100
AcDbEntity
  8
laser
  6
ByLayer
 62
  256
370
   -1
100
AcDbLine
 10
2772.979797975548
 20
1440.540719355892
 11
2772.835609315161
 21
1438.043838992589
  0
LINE
  5
40E
100
AcDbEntity
  8
laser
  6
ByLayer
 62
  256
370
   -1
100
AcDbLine
 10
2772.835609315161
 20
1438.043838992589
 11
2911.209146319416
 21
1426.04107388589
  0
LINE
  5
40F
100
AcDbEntity
  8
laser
  6
ByLayer
 62
  256
370
   -1
100
AcDbLine
 10
2911.209146319416
 20
1426.04107388589
 11
2903.562585492042
 21
1337.887914326725
  0
LINE
  5
410
100
AcDbEntity
  8
laser
  6
ByLayer
 62
  256
370
   -1
100
AcDbLine
 10
2903.562585492042
 20
1337.887914326725
 11
2767.732243384119
 21
1349.670078214274
  0
LINE
  5
411
100
AcDbEntity
  8
laser
  6
ByLayer
 62
  256
370
   -1
100
AcDbLine
 10
2767.732243384119
 20
1349.670078214274
 11
2767.588054723732
 21
1347.17319785097
  0
LINE
  5
412
100
AcDbEntity
  8
laser
  6
ByLayer
 62
  256
370
   -1
100
AcDbLine
 10
2767.588054723732
 20
1347.17319785097
 11
2903.346542320307
 21
1335.397266750703
  0
LINE
  5
413
100
AcDbEntity
  8
laser
  6
ByLayer
 62
  256
370
   -1
100
AcDbLine
 10
2903.346542320307
 20
1335.397266750703
 11
2894.206392627228
 21
1230.025310327617
  0
LINE
  5
414
100
AcDbEntity
  8
laser
  6
ByLayer
 62
  256
370
   -1
100
AcDbLine
 10
2894.206392627228
 20
1230.025310327617
 11
2761.487857576109
 21
1241.537550572474
  0
LINE
  5
415
100
AcDbEntity
  8
laser
  6
ByBlock
 62
  256
370
   -1
100
AcDbLine
 10
2173.759770701374
 20
1259.500395768743
 11
2096.037380106924
 21
1254.452844644714
  0
LINE
  5
416
100
AcDbEntity
  8
laser
  6
ByBlock
 62
  256
370
   -1
100
AcDbLine
 10
2096.037380106924
 20
1254.452844644714
 11
2090.152331775728
 21
1345.071050151729
  0
LINE
  5
417
100
AcDbEntity
  8
laser
  6
ByBlock
 62
  256
370
   -1
100
AcDbLine
 10
2090.152331775728
 20
1345.071050151729
 11
2169.050147393973
 21
1350.19493729495
  0
LINE
  5
418
100
AcDbEntity
  8
laser
  6
ByBlock
 62
  256
370
   -1
100
AcDbLine
 10
2169.050147393973
 20
1350.19493729495
 11
2168.920490145528
 21
1352.691783419526
  0
LINE
  5
419
100
AcDbEntity
  8
laser
  6
ByBlock
 62
  256
370
   -1
100
AcDbLine
 10
2168.920490145528
 20
1352.691783419526
 11
2089.990314747234
 21
1347.565794724321
  0
LINE
  5
41A
100
AcDbEntity
  8
laser
  6
ByBlock
 62
  256
370
   -1
100
AcDbLine
 10
2089.990314747234
 20
1347.565794724321
 11
2083.265281855335
 21
1451.118115511418
  0
LINE
  5
41B
100
AcDbEntity
  8
laser
  6
ByBlock
 62
  256
370
   -1
100
AcDbLine
 10
2083.265281855335
 20
1451.118115511418
 11
2163.538653010421
 21
1456.331335816461
  0
LINE
  5
41C
100
AcDbEntity
  8
laser
  6
ByBlock
 62
  256
370
   -1
100
AcDbLine
 10
2163.538653010421
 20
1456.331335816461
 11
2163.408995761975
 21
1458.828181941037
  0
LINE
  5
41D
100
AcDbEntity
  8
laser
  6
ByBlock
 62
  256
370
   -1
100
AcDbLine
 10
2163.408995761975
 20
1458.828181941037
 11
2083.103264826841
 21
1453.612860084011
  0
LINE
  5
41E
100
AcDbEntity
  8
laser
  6
ByBlock
 62
  256
370
   -1
100
AcDbLine
 10
2083.103264826841
 20
1453.612860084011
 11
2077.218216495646
 21
1544.231065591026
  0
LINE
  5
41F
100
AcDbEntity
  8
laser
  6
ByBlock
 62
  256
370
   -1
100
AcDbLine
 10
2077.218216495646
 20
1544.231065591026
 11
2158.699372454574
 21
1549.522723467244
  0
LINE
  5
420
100
AcDbEntity
  8
laser
  6
ByBlock
 62
  256
370
   -1
100
AcDbLine
 10
2158.699372454574
 20
1549.522723467244
 11
2158.569715206129
 21
1552.01956959182
  0
LINE
  5
421
100
AcDbEntity
  8
laser
  6
ByBlock
 62
  256
370
   -1
100
AcDbLine
 10
2158.569715206129
 20
1552.01956959182
 11
2077.056199467152
 21
1546.725810163618
  0
LINE
  5
422
100
AcDbEntity
  8
laser
  6
ByBlock
 62
  256
370
   -1
100
AcDbLine
 10
2077.056199467152
 20
1546.725810163618
 11
2070.331166575254
 21
1650.278130950715
  0
LINE
  5
423
100
AcDbEntity
  8
laser
  6
ByBlock
 62
  256
370
   -1
100
AcDbLine
 10
2070.331166575254
 20
1650.278130950715
 11
2153.187878071022
 21
1655.659121988755
  0
LINE
  5
424
100
AcDbEntity
  8
laser
  6
ByBlock
 62
  256
370
   -1
100
AcDbLine
 10
2153.187878071022
 20
1655.659121988755
 11
2153.058220822577
 21
1658.155968113331
  0
LINE
  5
425
100
AcDbEntity
  8
laser
  6
ByBlock
 62
  256
370
   -1
100
AcDbLine
 10
2153.058220822577
 20
1658.155968113331
 11
2070.16914954676
 21
1652.772875523308
  0
LINE
  5
426
100
AcDbEntity
  8
laser
  6
ByBlock
 62
  256
370
   -1
100
AcDbLine
 10
2070.16914954676
 20
1652.772875523308
 11
2064.284101215565
 21
1743.391081030323
  0
LINE
  5
427
100
AcDbEntity
  8
laser
  6
ByBlock
 62
  256
370
   -1
100
AcDbLine
 10
2064.284101215565
 20
1743.391081030323
 11
2148.348597515176
 21
1748.850509639539
  0
LINE
  5
428
100
AcDbEntity
  8
laser
  6
ByBlock
 62
  256
370
   -1
100
AcDbLine
 10
2148.348597515176
 20
1748.850509639539
 11
2148.21894026673
 21
1751.347355764115
  0
LINE
  5
429
100
AcDbEntity
  8
laser
  6
ByBlock
 62
  256
370
   -1
100
AcDbLine
 10
2148.21894026673
 20
1751.347355764115
 11
2064.12208418707
 21
1745.885825602915
  0
LINE
  5
42A
100
AcDbEntity
  8
laser
  6
ByBlock
 62
  256
370
   -1
100
AcDbLine
 10
2064.12208418707
 20
1745.885825602915
 11
2057.397051295172
 21
1849.438146390012
  0
LINE
  5
42B
100
AcDbEntity
  8
laser
  6
ByBlock
 62
  256
370
   -1
100
AcDbLine
 10
2057.397051295172
 20
1849.438146390012
 11
2142.837103131623
 21
1854.986908161049
  0
LINE
  5
42C
100
AcDbEntity
  8
laser
  6
ByBlock
 62
  256
370
   -1
100
AcDbLine
 10
2793.327806261952
 20
1836.266309619577
 11
2644.496266976609
 21
1849.176220323496
  0
LINE
  5
42D
100
AcDbEntity
  8
laser
  6
ByBlock
 62
  256
370
   -1
100
AcDbLine
 10
2788.224440330911
 20
1747.892548841263
 11
2788.080251670523
 21
1745.395668477958
  0
LINE
  5
42E
100
AcDbEntity
  8
laser
  6
ByBlock
 62
  256
370
   -1
100
AcDbLine
 10
2788.080251670523
 20
1745.395668477958
 11
2641.868118466544
 21
1758.078367269872
  0
LINE
  5
42F
100
AcDbEntity
  8
laser
  6
ByBlock
 62
  256
370
   -1
100
AcDbLine
 10
2641.868118466544
 20
1758.078367269872
 11
2641.94033290593
 21
1760.581490804285
  0
LINE
  5
430
100
AcDbEntity
  8
laser
  6
ByBlock
 62
  256
370
   -1
100
AcDbLine
 10
2641.94033290593
 20
1760.581490804285
 11
2788.224440330911
 21
1747.892548841263
  0
LINE
  5
431
100
AcDbEntity
  8
laser
  6
ByBlock
 62
  256
370
   -1
100
AcDbLine
 10
2781.9800545229
 20
1639.760021199462
 11
2781.835865862513
 21
1637.263140836159
  0
LINE
  5
432
100
AcDbEntity
  8
laser
  6
ByBlock
 62
  256
370
   -1
100
AcDbLine
 10
2781.835865862513
 20
1637.263140836159
 11
2638.740723987524
 21
1649.675466292452
  0
LINE
  5
433
100
AcDbEntity
  8
laser
  6
ByBlock
 62
  256
370
   -1
100
AcDbLine
 10
2638.740723987524
 20
1649.675466292452
 11
2638.81293842691
 21
1652.178589826864
  0
LINE
  5
434
100
AcDbEntity
  8
laser
  6
ByBlock
 62
  256
370
   -1
100
AcDbLine
 10
2638.81293842691
 20
1652.178589826864
 11
2781.9800545229
 21
1639.760021199462
  0
LINE
  5
435
100
AcDbEntity
  8
laser
  6
ByBlock
 62
  256
370
   -1
100
AcDbLine
 10
2776.732499931471
 20
1548.889380057844
 11
2776.588311271084
 21
1546.39249969454
  0
LINE
  5
436
100
AcDbEntity
  8
laser
  6
ByBlock
 62
  256
370
   -1
100
AcDbLine
 10
2776.588311271084
 20
1546.39249969454
 11
2636.11257547746
 21
1558.577613238828
  0
LINE
  5
437
100
AcDbEntity
  8
laser
  6
ByBlock
 62
  256
370
   -1
100
AcDbLine
 10
2636.11257547746
 20
1558.577613238828
 11
2636.184789916845
 21
1561.080736773241
  0
LINE
  5
438
100
AcDbEntity
  8
laser
  6
ByBlock
 62
  256
370
   -1
100
AcDbLine
 10
2636.184789916845
 20
1561.080736773241
 11
2776.732499931471
 21
1548.889380057844
  0
LINE
  5
439
100
AcDbEntity
  8
laser
  6
ByBlock
 62
  256
370
   -1
100
AcDbLine
 10
2770.488114123461
 20
1440.756852416044
 11
2770.343925463074
 21
1438.25997205274
  0
LINE
  5
43A
100
AcDbEntity
  8
laser
  6
ByBlock
 62
  256
370
   -1
100
AcDbLine
 10
2770.343925463074
 20
1438.25997205274
 11
2632.98518099844
 21
1450.174712261407
  0
LINE
  5
43B
100
AcDbEntity
  8
laser
  6
ByBlock
 62
  256
370
   -1
100
AcDbLine
 10
2632.98518099844
 20
1450.174712261407
 11
2633.057395437825
 21
1452.67783579582
  0
LINE
  5
43C
100
AcDbEntity
  8
laser
  6
ByBlock
 62
  256
370
   -1
100
AcDbLine
 10
2633.057395437825
 20
1452.67783579582
 11
2770.488114123461
 21
1440.756852416044
  0
LINE
  5
43D
100
AcDbEntity
  8
laser
  6
ByBlock
 62
  256
370
   -1
100
AcDbLine
 10
2765.240559532032
 20
1349.886211274426
 11
2765.096370871645
 21
1347.389330911122
  0
LINE
  5
43E
100
AcDbEntity
  8
laser
  6
ByBlock
 62
  256
370
   -1
100
AcDbLine
 10
2765.096370871645
 20
1347.389330911122
 11
2630.357032488375
 21
1359.076859207783
  0
LINE
  5
43F
100
AcDbEntity
  8
laser
  6
ByBlock
 62
  256
370
   -1
100
AcDbLine
 10
2630.357032488375
 20
1359.076859207783
 11
2630.429246927761
 21
1361.579982742196
  0
LINE
  5
440
100
AcDbEntity
  8
laser
  6
ByBlock
 62
  256
370
   -1
100
AcDbLine
 10
2630.429246927761
 20
1361.579982742196
 11
2765.240559532032
 21
1349.886211274426
  0
LINE
  5
441
100
AcDbEntity
  8
laser
  6
ByBlock
 62
  256
370
   -1
100
AcDbLine
 10
2627.301852448741
 20
1253.177081764775
 11
2758.996173724022
 21
1241.753683632626
  0
LINE
  5
442
100
AcDbEntity
  8
laser
  6
ByBlock
 62
  256
370
   -1
100
AcDbLine
 10
2624.807055452551
 20
1253.393484864548
 11
2394.200246383994
 21
1273.396726966902
  0
LINE
  5
443
100
AcDbEntity
  8
laser
  6
ByBlock
 62
  256
370
   -1
100
AcDbLine
 10
2394.200246383994
 20
1273.396726966902
 11
2441.419033021287
 21
1320.615513604195
  0
LINE
  5
444
100
AcDbEntity
  8
laser
  6
ByBlock
 62
  256
370
   -1
100
AcDbLine
 10
2439.651266068321
 20
1322.383280557161
 11
2390.868121272175
 21
1273.600135761016
  0
LINE
  5
445
100
AcDbEntity
  8
laser
  6
ByBlock
 62
  256
370
   -1
100
AcDbLine
 10
2390.868121272175
 20
1273.600135761016
 11
2334.301648816426
 21
1269.926520481782
  0
LINE
  5
446
100
AcDbEntity
  8
laser
  6
ByBlock
 62
  256
370
   -1
100
AcDbLine
 10
2331.87956438211
 20
1363.274888906148
 11
2331.944458491809
 21
1360.773836847461
  0
LINE
  5
447
100
AcDbEntity
  8
laser
  6
ByBlock
 62
  256
370
   -1
100
AcDbLine
 10
2331.944458491809
 20
1360.773836847461
 11
2488.188854241693
 21
1370.920868730533
  0
LINE
  5
448
100
AcDbEntity
  8
laser
  6
ByBlock
 62
  256
370
   -1
100
AcDbLine
 10
2488.188854241693
 20
1370.920868730533
 11
2441.419033021287
 21
1324.151047510127
  0
LINE
  5
449
100
AcDbEntity
  8
laser
  6
ByBlock
 62
  256
370
   -1
100
AcDbLine
 10
2443.186799974253
 20
1322.383280557161
 11
2491.891153627395
 21
1371.087634210303
  0
LINE
  5
44A
100
AcDbEntity
  8
laser
  6
ByBlock
 62
  256
370
   -1
100
AcDbLine
 10
2491.891153627395
 20
1371.087634210303
 11
2627.862235492186
 21
1359.293262307555
  0
LINE
  5
44B
100
AcDbEntity
  8
laser
  6
ByBlock
 62
  256
370
   -1
100
AcDbLine
 10
2627.862235492186
 20
1359.293262307555
 11
2627.934449931571
 21
1361.796385841968
  0
LINE
  5
44C
100
AcDbEntity
  8
laser
  6
ByBlock
 62
  256
370
   -1
100
AcDbLine
 10
2627.934449931571
 20
1361.796385841968
 11
2491.980838174733
 21
1373.589242356682
  0
LINE
  5
44D
100
AcDbEntity
  8
laser
  6
ByBlock
 62
  256
370
   -1
100
AcDbLine
 10
2491.980838174733
 20
1373.589242356682
 11
2443.186799974254
 21
1422.383280557161
  0
LINE
  5
44E
100
AcDbEntity
  8
laser
  6
ByBlock
 62
  256
370
   -1
100
AcDbLine
 10
2443.186799974254
 20
1422.383280557161
 11
2441.419033021287
 21
1420.615513604195
  0
LINE
  5
44F
100
AcDbEntity
  8
laser
  6
ByBlock
 62
  256
370
   -1
100
AcDbLine
 10
2441.419033021287
 20
1420.615513604195
 11
2488.582825584218
 21
1373.451721041264
  0
LINE
  5
450
100
AcDbEntity
  8
laser
  6
ByBlock
 62
  256
370
   -1
100
AcDbLine
 10
2488.582825584218
 20
1373.451721041264
 11
2331.87956438211
 21
1363.274888906148
  0
LINE
  5
451
100
AcDbEntity
  8
laser
  6
ByBlock
 62
  256
370
   -1
100
AcDbLine
 10
2329.121033521548
 20
1469.590074055536
 11
2329.185927631247
 21
1467.089021996848
  0
LINE
  5
452
100
AcDbEntity
  8
laser
  6
ByBlock
 62
  256
370
   -1
100
AcDbLine
 10
2329.185927631247
 20
1467.089021996848
 11
2390.935313664987
 21
1471.099232960495
  0
LINE
  5
453
100
AcDbEntity
  8
laser
  6
ByBlock
 62
  256
370
   -1
100
AcDbLine
 10
2390.935313664987
 20
1471.099232960495
 11
2439.65126606832
 21
1422.383280557161
  0
LINE
  5
454
100
AcDbEntity
  8
laser
  6
ByBlock
 62
  256
370
   -1
100
AcDbLine
 10
2439.65126606832
 20
1422.383280557161
 11
2441.419033021287
 21
1424.151047510127
  0
LINE
  5
455
100
AcDbEntity
  8
laser
  6
ByBlock
 62
  256
370
   -1
100
AcDbLine
 10
2441.419033021287
 20
1424.151047510127
 11
2394.728568719972
 21
1470.841511811442
  0
LINE
  5
456
100
AcDbEntity
  8
laser
  6
ByBlock
 62
  256
370
   -1
100
AcDbLine
 10
2394.728568719972
 20
1470.841511811442
 11
2630.49038400225
 21
1450.39111536118
  0
LINE
  5
457
100
AcDbEntity
  8
laser
  6
ByBlock
 62
  256
370
   -1
100
AcDbLine
 10
2630.49038400225
 20
1450.39111536118
 11
2630.562598441636
 21
1452.894238895592
  0
LINE
  5
458
100
AcDbEntity
  8
laser
  6
ByBlock
 62
  256
370
   -1
100
AcDbLine
 10
2630.562598441636
 20
1452.894238895592
 11
2394.200246383994
 21
1473.396726966902
  0
LINE
  5
459
100
AcDbEntity
  8
laser
  6
ByBlock
 62
  256
370
   -1
100
AcDbLine
 10
2394.200246383994
 20
1473.396726966902
 11
2441.419033021287
 21
1520.615513604195
  0
LINE
  5
45A
100
AcDbEntity
  8
laser
  6
ByBlock
 62
  256
370
   -1
100
AcDbLine
 10
2441.419033021287
 20
1520.615513604195
 11
2439.651266068321
 21
1522.383280557161
  0
LINE
  5
45B
100
AcDbEntity
  8
laser
  6
ByBlock
 62
  256
370
   -1
100
AcDbLine
 10
2439.651266068321
 20
1522.383280557161
 11
2390.868121272175
 21
1473.600135761016
  0
LINE
  5
45C
100
AcDbEntity
  8
laser
  6
ByBlock
 62
  256
370
   -1
100
AcDbLine
 10
2390.868121272175
 20
1473.600135761016
 11
2329.121033521548
 21
1469.590074055536
  0
LINE
  5
45D
100
AcDbEntity
  8
laser
  6
ByBlock
 62
  256
370
   -1
100
AcDbLine
 10
2326.698949087232
 20
1562.938442479902
 11
2326.763843196931
 21
1560.437390421215
  0
LINE
  5
45E
100
AcDbEntity
  8
laser
  6
ByBlock
 62
  256
370
   -1
100
AcDbLine
 10
2326.763843196931
 20
1560.437390421215
 11
2488.188854241693
 21
1570.920868730534
  0
LINE
  5
45F
100
AcDbEntity
  8
laser
  6
ByBlock
 62
  256
370
   -1
100
AcDbLine
 10
2488.188854241693
 20
1570.920868730534
 11
2441.419033021287
 21
1524.151047510127
  0
LINE
  5
460
100
AcDbEntity
  8
laser
  6
ByBlock
 62
  256
370
   -1
100
AcDbLine
 10
2441.419033021287
 20
1524.151047510127
 11
2443.186799974253
 21
1522.383280557161
  0
LINE
  5
461
100
AcDbEntity
  8
laser
  6
ByBlock
 62
  256
370
   -1
100
AcDbLine
 10
2443.186799974253
 20
1522.383280557161
 11
2491.891153627395
 21
1571.087634210303
  0
LINE
  5
462
100
AcDbEntity
  8
laser
  6
ByBlock
 62
  256
370
   -1
100
AcDbLine
 10
2491.891153627395
 20
1571.087634210303
 11
2633.61777848127
 21
1558.7940163386
  0
LINE
  5
463
100
AcDbEntity
  8
laser
  6
ByBlock
 62
  256
370
   -1
100
AcDbLine
 10
2633.61777848127
 20
1558.7940163386
 11
2633.689992920656
 21
1561.297139873013
  0
LINE
  5
464
100
AcDbEntity
  8
laser
  6
ByBlock
 62
  256
370
   -1
100
AcDbLine
 10
2633.689992920656
 20
1561.297139873013
 11
2491.980838174733
 21
1573.589242356682
  0
LINE
  5
465
100
AcDbEntity
  8
laser
  6
ByBlock
 62
  256
370
   -1
100
AcDbLine
 10
2491.980838174733
 20
1573.589242356682
 11
2443.186799974254
 21
1622.383280557161
  0
LINE
  5
466
100
AcDbEntity
  8
laser
  6
ByBlock
 62
  256
370
   -1
100
AcDbLine
 10
2443.186799974254
 20
1622.383280557161
 11
2441.419033021287
 21
1620.615513604195
  0
LINE
  5
467
100
AcDbEntity
  8
laser
  6
ByBlock
 62
  256
370
   -1
100
AcDbLine
 10
2441.419033021287
 20
1620.615513604195
 11
2488.582825584218
 21
1573.451721041264
  0
LINE
  5
468
100
AcDbEntity
  8
laser
  6
ByBlock
 62
  256
370
   -1
100
AcDbLine
 10
2488.582825584218
 20
1573.451721041264
 11
2326.698949087232
 21
1562.938442479902
  0
LINE
  5
469
100
AcDbEntity
  8
laser
  6
ByBlock
 62
  256
370
   -1
100
AcDbLine
 10
2323.94041822667
 20
1669.253627629289
 11
2324.005312336369
 21
1666.752575570602
  0
LINE
  5
46A
100
AcDbEntity
  8
laser
  6
ByBlock
 62
  256
370
   -1
100
AcDbLine
 10
2324.005312336369
 20
1666.752575570602
 11
2390.935313664987
 21
1671.099232960495
  0
LINE
  5
46B
100
AcDbEntity
  8
laser
  6
ByBlock
 62
  256
370
   -1
100
AcDbLine
 10
2390.935313664987
 20
1671.099232960495
 11
2439.65126606832
 21
1622.383280557161
  0
LINE
  5
46C
100
AcDbEntity
  8
laser
  6
ByBlock
 62
  256
370
   -1
100
AcDbLine
 10
2439.65126606832
 20
1622.383280557161
 11
2441.419033021287
 21
1624.151047510128
  0
LINE
  5
46D
100
AcDbEntity
  8
laser
  6
ByBlock
 62
  256
370
   -1
100
AcDbLine
 10
2441.419033021287
 20
1624.151047510128
 11
2394.728568719973
 21
1670.841511811442
  0
LINE
  5
46E
100
AcDbEntity
  8
laser
  6
ByBlock
 62
  256
370
   -1
100
AcDbLine
 10
2394.728568719973
 20
1670.841511811442
 11
2636.245926991335
 21
1649.891869392224
  0
LINE
  5
46F
100
AcDbEntity
  8
laser
  6
ByBlock
 62
  256
370
   -1
100
AcDbLine
 10
2636.245926991335
 20
1649.891869392224
 11
2636.31814143072
 21
1652.394992926637
  0
LINE
  5
470
100
AcDbEntity
  8
laser
  6
ByBlock
 62
  256
370
   -1
100
AcDbLine
 10
2636.31814143072
 20
1652.394992926637
 11
2394.200246383994
 21
1673.396726966902
  0
LINE
  5
471
100
AcDbEntity
  8
laser
  6
ByBlock
 62
  256
370
   -1
100
AcDbLine
 10
2394.200246383994
 20
1673.396726966902
 11
2441.419033021287
 21
1720.615513604195
  0
LINE
  5
472
100
AcDbEntity
  8
laser
  6
ByBlock
 62
  256
370
   -1
100
AcDbLine
 10
2441.419033021287
 20
1720.615513604195
 11
2439.65126606832
 21
1722.383280557161
  0
LINE
  5
473
100
AcDbEntity
  8
laser
  6
ByBlock
 62
  256
370
   -1
100
AcDbLine
 10
2439.65126606832
 20
1722.383280557161
 11
2390.868121272175
 21
1673.600135761016
  0
LINE
  5
474
100
AcDbEntity
  8
laser
  6
ByBlock
 62
  256
370
   -1
100
AcDbLine
 10
2390.868121272175
 20
1673.600135761016
 11
2323.94041822667
 21
1669.253627629289
  0
LINE
  5
475
100
AcDbEntity
  8
laser
  6
ByBlock
 62
  256
370
   -1
100
AcDbLine
 10
2321.518333792354
 20
1762.601996053656
 11
2321.583227902053
 21
1760.100943994969
  0
LINE
  5
476
100
AcDbEntity
  8
laser
  6
ByBlock
 62
  256
370
   -1
100
AcDbLine
 10
2321.583227902053
 20
1760.100943994969
 11
2488.188854241693
 21
1770.920868730533
  0
LINE
  5
477
100
AcDbEntity
  8
laser
  6
ByBlock
 62
  256
370
   -1
100
AcDbLine
 10
2488.188854241693
 20
1770.920868730533
 11
2441.419033021287
 21
1724.151047510128
  0
LINE
  5
478
100
AcDbEntity
  8
laser
  6
ByBlock
 62
  256
370
   -1
100
AcDbLine
 10
2441.419033021287
 20
1724.151047510128
 11
2443.186799974254
 21
1722.383280557161
  0
LINE
  5
479
100
AcDbEntity
  8
laser
  6
ByBlock
 62
  256
370
   -1
100
AcDbLine
 10
2443.186799974254
 20
1722.383280557161
 11
2491.891153627395
 21
1771.087634210303
  0
LINE
  5
47A
100
AcDbEntity
  8
laser
  6
ByBlock
 62
  256
370
   -1
100
AcDbLine
 10
2491.891153627395
 20
1771.087634210303
 11
2639.373321470355
 21
1758.294770369645
  0
LINE
  5
47B
100
AcDbEntity
  8
laser
  6
ByBlock
 62
  256
370
   -1
100
AcDbLine
 10
2639.373321470355
 20
1758.294770369645
 11
2639.44553590974
 21
1760.797893904057
  0
LINE
  5
47C
100
AcDbEntity
  8
laser
  6
ByBlock
 62
  256
370
   -1
100
AcDbLine
 10
2639.44553590974
 20
1760.797893904057
 11
2491.980838174732
 21
1773.589242356682
  0
LINE
  5
47D
100
AcDbEntity
  8
laser
  6
ByBlock
 62
  256
370
   -1
100
AcDbLine
 10
2491.980838174732
 20
1773.589242356682
 11
2443.186799974253
 21
1822.383280557161
  0
LINE
  5
47E
100
AcDbEntity
  8
laser
  6
ByBlock
 62
  256
370
   -1
100
AcDbLine
 10
2443.186799974253
 20
1822.383280557161
 11
2441.419033021287
 21
1820.615513604195
  0
LINE
  5
47F
100
AcDbEntity
  8
laser
  6
ByBlock
 62
  256
370
   -1
100
AcDbLine
 10
2441.419033021287
 20
1820.615513604195
 11
2488.582825584218
 21
1773.451721041264
  0
LINE
  5
480
100
AcDbEntity
  8
laser
  6
ByBlock
 62
  256
370
   -1
100
AcDbLine
 10
2488.582825584218
 20
1773.451721041264
 11
2321.518333792354
 21
1762.601996053656
  0
LINE
  5
481
100
AcDbEntity
  8
laser
  6
ByBlock
 62
  256
370
   -1
100
AcDbLine
 10
2318.824697041491
 20
1866.416129144356
 11
2390.935313664987
 21
1871.099232960495
  0
LINE
  5
482
100
AcDbEntity
  8
laser
  6
ByBlock
 62
  256
370
   -1
100
AcDbLine
 10
2390.935313664987
 20
1871.099232960495
 11
2439.651266068321
 21
1822.383280557161
  0
LINE
  5
483
100
AcDbEntity
  8
laser
  6
ByBlock
 62
  256
370
   -1
100
AcDbLine
 10
2439.651266068321
 20
1822.383280557161
 11
2441.419033021287
 21
1824.151047510128
  0
LINE
  5
484
100
AcDbEntity
  8
laser
  6
ByBlock
 62
  256
370
   -1
100
AcDbLine
 10
2441.419033021287
 20
1824.151047510128
 11
2394.728568719973
 21
1870.841511811441
  0
LINE
  5
485
100
AcDbEntity
  8
laser
  6
ByBlock
 62
  256
370
   -1
100
AcDbLine
 10
2394.728568719973
 20
1870.841511811441
 11
2642.001469980419
 21
1849.392623423268
  0
LINE
  5
486
100
AcDbEntity
  8
laser
  6
ByBlock
 62
  256
370
   -1
100
AcDbLine
 10
2145.332057567649
 20
1855.148938818774
 11
2316.328062638172
 21
1866.253989383955
  0
LINE
  5
487
100
AcDbEntity
  8
laser
  6
ByBlock
 62
  256
370
   -1
100
AcDbLine
 10
2150.713894702756
 20
1751.50938642184
 11
2150.843551951201
 21
1749.012540297263
  0
LINE
  5
488
100
AcDbEntity
  8
laser
  6
ByBlock
 62
  256
370
   -1
100
AcDbLine
 10
2150.843551951201
 20
1749.012540297263
 11
2319.086593498734
 21
1759.938804234568
  0
LINE
  5
489
100
AcDbEntity
  8
laser
  6
ByBlock
 62
  256
370
   -1
100
AcDbLine
 10
2319.086593498734
 20
1759.938804234568
 11
2319.021699389035
 21
1762.439856293255
  0
LINE
  5
48A
100
AcDbEntity
  8
laser
  6
ByBlock
 62
  256
370
   -1
100
AcDbLine
 10
2319.021699389035
 20
1762.439856293255
 11
2150.713894702756
 21
1751.50938642184
  0
LINE
  5
48B
100
AcDbEntity
  8
laser
  6
ByBlock
 62
  256
370
   -1
100
AcDbLine
 10
2155.553175258602
 20
1658.317998771056
 11
2155.682832507047
 21
1655.82115264648
  0
LINE
  5
48C
100
AcDbEntity
  8
laser
  6
ByBlock
 62
  256
370
   -1
100
AcDbLine
 10
2155.682832507047
 20
1655.82115264648
 11
2321.50867793305
 21
1666.590435810202
  0
LINE
  5
48D
100
AcDbEntity
  8
laser
  6
ByBlock
 62
  256
370
   -1
100
AcDbLine
 10
2321.50867793305
 20
1666.590435810202
 11
2321.443783823351
 21
1669.091487868888
  0
LINE
  5
48E
100
AcDbEntity
  8
laser
  6
ByBlock
 62
  256
370
   -1
100
AcDbLine
 10
2321.443783823351
 20
1669.091487868888
 11
2155.553175258602
 21
1658.317998771056
  0
LINE
  5
48F
100
AcDbEntity
  8
laser
  6
ByBlock
 62
  256
370
   -1
100
AcDbLine
 10
2161.064669642155
 20
1552.181600249545
 11
2161.1943268906
 21
1549.684754124969
  0
LINE
  5
490
100
AcDbEntity
  8
laser
  6
ByBlock
 62
  256
370
   -1
100
AcDbLine
 10
2161.1943268906
 20
1549.684754124969
 11
2324.267208793613
 21
1560.275250660814
  0
LINE
  5
491
100
AcDbEntity
  8
laser
  6
ByBlock
 62
  256
370
   -1
100
AcDbLine
 10
2324.267208793613
 20
1560.275250660814
 11
2324.202314683913
 21
1562.776302719501
  0
LINE
  5
492
100
AcDbEntity
  8
laser
  6
ByBlock
 62
  256
370
   -1
100
AcDbLine
 10
2324.202314683913
 20
1562.776302719501
 11
2161.064669642155
 21
1552.181600249545
  0
LINE
  5
493
100
AcDbEntity
  8
laser
  6
ByBlock
 62
  256
370
   -1
100
AcDbLine
 10
2165.903950198001
 20
1458.990212598762
 11
2166.033607446446
 21
1456.493366474185
  0
LINE
  5
494
100
AcDbEntity
  8
laser
  6
ByBlock
 62
  256
370
   -1
100
AcDbLine
 10
2166.033607446446
 20
1456.493366474185
 11
2326.689293227928
 21
1466.926882236448
  0
LINE
  5
495
100
AcDbEntity
  8
laser
  6
ByBlock
 62
  256
370
   -1
100
AcDbLine
 10
2326.689293227928
 20
1466.926882236448
 11
2326.624399118229
 21
1469.427934295135
  0
LINE
  5
496
100
AcDbEntity
  8
laser
  6
ByBlock
 62
  256
370
   -1
100
AcDbLine
 10
2326.624399118229
 20
1469.427934295135
 11
2165.903950198001
 21
1458.990212598762
  0
LINE
  5
497
100
AcDbEntity
  8
laser
  6
ByBlock
 62
  256
370
   -1
100
AcDbLine
 10
2171.415444581553
 20
1352.853814077251
 11
2171.545101829999
 21
1350.356967952675
  0
LINE
  5
498
100
AcDbEntity
  8
laser
  6
ByBlock
 62
  256
370
   -1
100
AcDbLine
 10
2171.545101829999
 20
1350.356967952675
 11
2329.447824088491
 21
1360.611697087061
  0
LINE
  5
499
100
AcDbEntity
  8
laser
  6
ByBlock
 62
  256
370
   -1
100
AcDbLine
 10
2329.447824088491
 20
1360.611697087061
 11
2329.382929978792
 21
1363.112749145748
  0
LINE
  5
49A
100
AcDbEntity
  8
laser
  6
ByBlock
 62
  256
370
   -1
100
AcDbLine
 10
2329.382929978792
 20
1363.112749145748
 11
2171.415444581553
 21
1352.853814077251
  0
LINE
  5
49B
100
AcDbEntity
  8
laser
  6
ByBlock
 62
  256
370
   -1
100
AcDbLine
 10
2331.805014413108
 20
1269.764380721381
 11
2176.2547251374
 21
1259.662426426468
  0
LINE
  5
49C
100
AcDbEntity
  8
laser
  6
ByBlock
 62
  256
370
   -1
100
AcDbLine
 10
2758.996173724022
 20
1241.753683632626
 11
2761.487857576109
 21
1241.537550572474
  0
LINE
  5
49D
100
AcDbEntity
  8
laser
  6
ByBlock
 62
  256
370
   -1
100
AcDbLine
 10
2624.807055452551
 20
1253.393484864548
 11
2627.301852448741
 21
1253.177081764775
  0
LINE
  5
49E
100
AcDbEntity
  8
laser
  6
ByBlock
 62
  256
370
   -1
100
AcDbLine
 10
2331.805014413108
 20
1269.764380721381
 11
2334.301648816426
 21
1269.926520481782
  0
LINE
  5
49F
100
AcDbEntity
  8
laser
  6
ByBlock
 62
  256
370
   -1
100
AcDbLine
 10
2176.2547251374
 20
1259.662426426468
 11
2173.759770701374
 21
1259.500395768743
  0
LINE
  5
4A0
100
AcDbEntity
  8
laser
  6
ByBlock
 62
  256
370
   -1
100
AcDbLine
 10
2145.332057567649
 20
1855.148938818774
 11
2142.837103131623
 21
1854.986908161049
  0
LINE
  5
4A1
100
AcDbEntity
  8
laser
  6
ByBlock
 62
  256
370
   -1
100
AcDbLine
 10
2316.328062638172
 20
1866.253989383955
 11
2318.824697041491
 21
1866.416129144356
  0
LINE
  5
4A2
100
AcDbEntity
  8
laser
  6
ByBlock
 62
  256
370
   -1
100
AcDbLine
 10
2642.001469980419
 20
1849.392623423268
 11
2644.496266976609
 21
1849.176220323496
  0
LINE
  5
4A3
100
AcDbEntity
  8
laser
  6
ByBlock
 62
  256
370
   -1
100
AcDbLine
 10
2793.327806261952
 20
1836.266309619577
 11
2795.819490114039
 21
1836.050176559425
  0
LINE
  5
4A4
100
AcDbEntity
  8
laser
  6
ByLayer
 62
  256
370
   -1
100
AcDbLine
 10
2693.583849817778
 20
1053.90971003346
 11
2826.230530357549
 21
1042.403702575884
  0
LINE
  5
4A5
100
AcDbEntity
  8
laser
  6
ByLayer
 62
  256
370
   -1
100
AcDbLine
 10
2826.230530357549
 20
1042.403702575884
 11
2818.583969530176
 21
954.2505430167193
  0
LINE
  5
4A6
100
AcDbEntity
  8
laser
  6
ByLayer
 62
  256
370
   -1
100
AcDbLine
 10
2818.583969530176
 20
954.2505430167193
 11
2688.480483886737
 21
965.5359492551456
  0
LINE
  5
4A7
100
AcDbEntity
  8
laser
  6
ByLayer
 62
  256
370
   -1
100
AcDbLine
 10
2688.480483886737
 20
965.5359492551456
 11
2688.33629522635
 21
963.0390688918415
  0
LINE
  5
4A8
100
AcDbEntity
  8
laser
  6
ByLayer
 62
  256
370
   -1
100
AcDbLine
 10
2688.33629522635
 20
963.0390688918415
 11
2818.367926358441
 21
951.7598954406967
  0
LINE
  5
4A9
100
AcDbEntity
  8
laser
  6
ByLayer
 62
  256
370
   -1
100
AcDbLine
 10
2818.367926358441
 20
951.7598954406967
 11
2809.227776665363
 21
846.3879390176103
  0
LINE
  5
4AA
100
AcDbEntity
  8
laser
  6
ByLayer
 62
  256
370
   -1
100
AcDbLine
 10
2809.227776665363
 20
846.3879390176103
 11
2682.236098078726
 21
857.4034216133459
  0
LINE
  5
4AB
100
AcDbEntity
  8
laser
  6
ByLayer
 62
  256
370
   -1
100
AcDbLine
 10
2682.236098078726
 20
857.4034216133459
 11
2682.091909418339
 21
854.9065412500418
  0
LINE
  5
4AC
100
AcDbEntity
  8
laser
  6
ByLayer
 62
  256
370
   -1
100
AcDbLine
 10
2682.091909418339
 20
854.9065412500418
 11
2809.011733493629
 21
843.8972914415872
  0
LINE
  5
4AD
100
AcDbEntity
  8
laser
  6
ByLayer
 62
  256
370
   -1
100
AcDbLine
 10
2809.011733493629
 20
843.8972914415872
 11
2801.365172666253
 21
755.7441318824231
  0
LINE
  5
4AE
100
AcDbEntity
  8
laser
  6
ByLayer
 62
  256
370
   -1
100
AcDbLine
 10
2801.365172666253
 20
755.7441318824231
 11
2676.988543487298
 21
766.5327804717272
  0
LINE
  5
4AF
100
AcDbEntity
  8
laser
  6
ByLayer
 62
  256
370
   -1
100
AcDbLine
 10
2676.988543487298
 20
766.5327804717272
 11
2676.844354826911
 21
764.035900108423
  0
LINE
  5
4B0
100
AcDbEntity
  8
laser
  6
ByLayer
 62
  256
370
   -1
100
AcDbLine
 10
2676.844354826911
 20
764.035900108423
 11
2801.149129494518
 21
753.2534843064004
  0
LINE
  5
4B1
100
AcDbEntity
  8
laser
  6
ByLayer
 62
  256
370
   -1
100
AcDbLine
 10
2801.149129494518
 20
753.2534843064004
 11
2792.00897980144
 21
647.8815278833144
  0
LINE
  5
4B2
100
AcDbEntity
  8
laser
  6
ByLayer
 62
  256
370
   -1
100
AcDbLine
 10
2792.00897980144
 20
647.8815278833144
 11
2670.744157679287
 21
658.4002528299275
  0
LINE
  5
4B3
100
AcDbEntity
  8
laser
  6
ByLayer
 62
  256
370
   -1
100
AcDbLine
 10
2670.744157679287
 20
658.4002528299275
 11
2670.599969018901
 21
655.9033724666233
  0
LINE
  5
4B4
100
AcDbEntity
  8
laser
  6
ByLayer
 62
  256
370
   -1
100
AcDbLine
 10
2670.599969018901
 20
655.9033724666233
 11
2791.792936629705
 21
645.390880307292
  0
LINE
  5
4B5
100
AcDbEntity
  8
laser
  6
ByLayer
 62
  256
370
   -1
100
AcDbLine
 10
2791.792936629705
 20
645.390880307292
 11
2789.308440154754
 21
616.7484331830331
  0
LINE
  5
4B6
100
AcDbEntity
  8
laser
  6
ByLayer
 62
  256
370
   -1
100
AcDbLine
 10
2789.308440154754
 20
616.7484331830331
 11
2357.770560252401
 21
654.1807914160338
  0
LINE
  5
4B7
100
AcDbEntity
  8
laser
  6
ByLayer
 62
  256
370
   -1
100
AcDbLine
 10
2357.770560252401
 20
654.1807914160338
 11
2341.526980731056
 21
670.7802877170329
  0
LINE
  5
4B8
100
AcDbEntity
  8
laser
  6
ByLayer
 62
  256
370
   -1
100
AcDbLine
 10
2339.740161600473
 20
669.0317805267186
 11
2355.983741121817
 21
652.4322842257195
  0
LINE
  5
4B9
100
AcDbEntity
  8
laser
  6
ByBlock
 62
  256
370
   -1
100
AcDbLine
 10
2355.983741121817
 20
652.4322842257195
 11
2359.995821419957
 21
590.6541141059874
  0
LINE
  5
4BA
100
AcDbEntity
  8
laser
  6
ByBlock
 62
  256
370
   -1
100
AcDbLine
 10
2359.995821419957
 20
590.6541141059874
 11
2331.306258835147
 21
588.790918278308
  0
LINE
  5
4BB
100
AcDbEntity
  8
laser
  6
ByBlock
 62
  256
370
   -1
100
AcDbLine
 10
2331.306258835147
 20
588.790918278308
 11
2328.227935293763
 21
636.191065157559
  0
LINE
  5
4BC
100
AcDbEntity
  8
laser
  6
ByBlock
 62
  256
370
   -1
100
AcDbLine
 10
2328.227935293763
 20
636.191065157559
 11
2325.733190721171
 21
636.0290481290651
  0
LINE
  5
4BD
100
AcDbEntity
  8
laser
  6
ByBlock
 62
  256
370
   -1
100
AcDbLine
 10
2325.733190721171
 20
636.0290481290651
 11
2328.811514262555
 21
588.6289012498141
  0
LINE
  5
4BE
100
AcDbEntity
  8
laser
  6
ByBlock
 62
  256
370
   -1
100
AcDbLine
 10
2328.811514262555
 20
588.6289012498141
 11
2279.498824696202
 21
585.426370811085
  0
LINE
  5
4BF
100
AcDbEntity
  8
laser
  6
ByBlock
 62
  256
370
   -1
100
AcDbLine
 10
2279.498824696202
 20
585.426370811085
 11
2279.5637188059
 21
582.925318752398
  0
LINE
  5
4C0
100
AcDbEntity
  8
laser
  6
ByBlock
 62
  256
370
   -1
100
AcDbLine
 10
2279.5637188059
 20
582.925318752398
 11
2328.973531291048
 21
586.1341566772219
  0
LINE
  5
4C1
100
AcDbEntity
  8
laser
  6
ByBlock
 62
  256
370
   -1
100
AcDbLine
 10
2328.973531291048
 20
586.1341566772219
 11
2329.783616433518
 21
573.6604338142613
  0
LINE
  5
4C2
100
AcDbEntity
  8
laser
  6
ByBlock
 62
  256
370
   -1
100
AcDbLine
 10
2329.783616433518
 20
573.6604338142613
 11
2332.27836100611
 21
573.8224508427552
  0
LINE
  5
4C3
100
AcDbEntity
  8
laser
  6
ByBlock
 62
  256
370
   -1
100
AcDbLine
 10
2332.27836100611
 20
573.8224508427552
 11
2331.468275863641
 21
586.2961737057158
  0
LINE
  5
4C4
100
AcDbEntity
  8
laser
  6
ByBlock
 62
  256
370
   -1
100
AcDbLine
 10
2331.468275863641
 20
586.2961737057158
 11
2360.157838448451
 21
588.1593695333952
  0
LINE
  5
4C5
100
AcDbEntity
  8
laser
  6
ByBlock
 62
  256
370
   -1
100
AcDbLine
 10
2360.157838448451
 20
588.1593695333952
 11
2362.02103427613
 21
559.4698069485853
  0
LINE
  5
4C6
100
AcDbEntity
  8
laser
  6
ByBlock
 62
  256
370
   -1
100
AcDbLine
 10
2362.02103427613
 20
559.4698069485853
 11
2333.33147169132
 21
557.6066111209061
  0
LINE
  5
4C7
100
AcDbEntity
  8
laser
  6
ByBlock
 62
  256
370
   -1
100
AcDbLine
 10
2333.33147169132
 20
557.6066111209061
 11
2332.440378034604
 21
571.3277062701629
  0
LINE
  5
4C8
100
AcDbEntity
  8
laser
  6
ByBlock
 62
  256
370
   -1
100
AcDbLine
 10
2332.440378034604
 20
571.3277062701629
 11
2329.945633462012
 21
571.165689241669
  0
LINE
  5
4C9
100
AcDbEntity
  8
laser
  6
ByBlock
 62
  256
370
   -1
100
AcDbLine
 10
2329.945633462012
 20
571.165689241669
 11
2330.836727118728
 21
557.4445940924122
  0
LINE
  5
4CA
100
AcDbEntity
  8
laser
  6
ByBlock
 62
  256
370
   -1
100
AcDbLine
 10
2330.836727118728
 20
557.4445940924122
 11
2062.651685565071
 21
540.0277635293226
  0
LINE
  5
4CB
100
AcDbEntity
  8
laser
  6
ByBlock
 62
  256
370
   -1
100
AcDbLine
 10
2062.651685565071
 20
540.0277635293226
 11
2060.788489737392
 21
568.717326114132
  0
LINE
  5
4CC
100
AcDbEntity
  8
laser
  6
ByBlock
 62
  256
370
   -1
100
AcDbLine
 10
2060.788489737392
 20
568.717326114132
 11
2132.017448668487
 21
573.3431721408203
  0
LINE
  5
4CD
100
AcDbEntity
  8
laser
  6
ByBlock
 62
  256
370
   -1
100
AcDbLine
 10
2132.017448668487
 20
573.3431721408203
 11
2131.887791420042
 21
575.8400182653966
  0
LINE
  5
4CE
100
AcDbEntity
  8
laser
  6
ByBlock
 62
  256
370
   -1
100
AcDbLine
 10
2131.887791420042
 20
575.8400182653966
 11
2060.626472708898
 21
571.2120706867245
  0
LINE
  5
4CF
100
AcDbEntity
  8
laser
  6
ByBlock
 62
  256
370
   -1
100
AcDbLine
 10
2060.626472708898
 20
571.2120706867245
 11
2054.307808597638
 21
668.5071090178183
  0
LINE
  5
4D0
100
AcDbEntity
  8
laser
  6
ByBlock
 62
  256
370
   -1
100
AcDbLine
 10
2054.307808597638
 20
668.5071090178183
 11
2126.831158730674
 21
673.2170171238679
  0
LINE
  5
4D1
100
AcDbEntity
  8
laser
  6
ByBlock
 62
  256
370
   -1
100
AcDbLine
 10
2126.831158730674
 20
673.2170171238679
 11
2126.701501482229
 21
675.7138632484441
  0
LINE
  5
4D2
100
AcDbEntity
  8
laser
  6
ByBlock
 62
  256
370
   -1
100
AcDbLine
 10
2126.701501482229
 20
675.7138632484441
 11
2054.145791569144
 21
671.0018535904107
  0
LINE
  5
4D3
100
AcDbEntity
  8
laser
  6
ByBlock
 62
  256
370
   -1
100
AcDbLine
 10
2054.145791569144
 20
671.0018535904107
 11
2048.260743237948
 21
761.6200590974258
  0
LINE
  5
4D4
100
AcDbEntity
  8
laser
  6
ByBlock
 62
  256
370
   -1
100
AcDbLine
 10
2048.260743237948
 20
761.6200590974258
 11
2121.991878174827
 21
766.408404774651
  0
LINE
  5
4D5
100
AcDbEntity
  8
laser
  6
ByBlock
 62
  256
370
   -1
100
AcDbLine
 10
2121.991878174827
 20
766.408404774651
 11
2121.862220926382
 21
768.9052508992272
  0
LINE
  5
4D6
100
AcDbEntity
  8
laser
  6
ByBlock
 62
  256
370
   -1
100
AcDbLine
 10
2121.862220926382
 20
768.9052508992272
 11
2048.098726209454
 21
764.1148036700183
  0
LINE
  5
4D7
100
AcDbEntity
  8
laser
  6
ByBlock
 62
  256
370
   -1
100
AcDbLine
 10
2048.098726209454
 20
764.1148036700183
 11
2041.373693317556
 21
867.6671244571148
  0
LINE
  5
4D8
100
AcDbEntity
  8
laser
  6
ByBlock
 62
  256
370
   -1
100
AcDbLine
 10
2041.373693317556
 20
867.6671244571148
 11
2116.480383791275
 21
872.5448032961622
  0
LINE
  5
4D9
100
AcDbEntity
  8
laser
  6
ByBlock
 62
  256
370
   -1
100
AcDbLine
 10
2116.480383791275
 20
872.5448032961622
 11
2116.35072654283
 21
875.0416494207384
  0
LINE
  5
4DA
100
AcDbEntity
  8
laser
  6
ByBlock
 62
  256
370
   -1
100
AcDbLine
 10
2116.35072654283
 20
875.0416494207384
 11
2041.211676289062
 21
870.1618690297073
  0
LINE
  5
4DB
100
AcDbEntity
  8
laser
  6
ByBlock
 62
  256
370
   -1
100
AcDbLine
 10
2041.211676289062
 20
870.1618690297073
 11
2035.326627957867
 21
960.7800745367226
  0
LINE
  5
4DC
100
AcDbEntity
  8
laser
  6
ByBlock
 62
  256
370
   -1
100
AcDbLine
 10
2035.326627957867
 20
960.7800745367226
 11
2111.641103235429
 21
965.7361909469455
  0
LINE
  5
4DD
100
AcDbEntity
  8
laser
  6
ByBlock
 62
  256
370
   -1
100
AcDbLine
 10
2111.641103235429
 20
965.7361909469455
 11
2111.511445986983
 21
968.2330370715217
  0
LINE
  5
4DE
100
AcDbEntity
  8
laser
  6
ByBlock
 62
  256
370
   -1
100
AcDbLine
 10
2111.511445986983
 20
968.2330370715217
 11
2035.164610929372
 21
963.2748191093146
  0
LINE
  5
4DF
100
AcDbEntity
  8
laser
  6
ByBlock
 62
  256
370
   -1
100
AcDbLine
 10
2035.164610929372
 20
963.2748191093146
 11
2028.439578037474
 21
1066.827139896412
  0
LINE
  5
4E0
100
AcDbEntity
  8
laser
  6
ByBlock
 62
  256
370
   -1
100
AcDbLine
 10
2028.439578037474
 20
1066.827139896412
 11
2106.129608851876
 21
1071.872589468457
  0
LINE
  5
4E1
100
AcDbEntity
  8
laser
  6
ByBlock
 62
  256
370
   -1
100
AcDbLine
 10
2691.092165965692
 20
1054.125843093612
 11
2559.469818911412
 21
1065.542998054652
  0
LINE
  5
4E2
100
AcDbEntity
  8
laser
  6
ByBlock
 62
  256
370
   -1
100
AcDbLine
 10
2685.98880003465
 20
965.7520823152972
 11
2685.844611374263
 21
963.2552019519931
  0
LINE
  5
4E3
100
AcDbEntity
  8
laser
  6
ByBlock
 62
  256
370
   -1
100
AcDbLine
 10
2685.844611374263
 20
963.2552019519931
 11
2556.841670401348
 21
974.4451450010288
  0
LINE
  5
4E4
100
AcDbEntity
  8
laser
  6
ByBlock
 62
  256
370
   -1
100
AcDbLine
 10
2556.841670401348
 20
974.4451450010288
 11
2556.913884840733
 21
976.9482685354415
  0
LINE
  5
4E5
100
AcDbEntity
  8
laser
  6
ByBlock
 62
  256
370
   -1
100
AcDbLine
 10
2556.913884840733
 20
976.9482685354415
 11
2685.98880003465
 21
965.7520823152972
  0
LINE
  5
4E6
100
AcDbEntity
  8
laser
  6
ByBlock
 62
  256
370
   -1
100
AcDbLine
 10
2679.74441422664
 20
857.6195546734975
 11
2679.600225566253
 21
855.1226743101934
  0
LINE
  5
4E7
100
AcDbEntity
  8
laser
  6
ByBlock
 62
  256
370
   -1
100
AcDbLine
 10
2679.600225566253
 20
855.1226743101934
 11
2553.714275922327
 21
866.042244023608
  0
LINE
  5
4E8
100
AcDbEntity
  8
laser
  6
ByBlock
 62
  256
370
   -1
100
AcDbLine
 10
2553.714275922327
 20
866.042244023608
 11
2553.786490361713
 21
868.5453675580206
  0
LINE
  5
4E9
100
AcDbEntity
  8
laser
  6
ByBlock
 62
  256
370
   -1
100
AcDbLine
 10
2553.786490361713
 20
868.5453675580206
 11
2679.74441422664
 21
857.6195546734975
  0
LINE
  5
4EA
100
AcDbEntity
  8
laser
  6
ByBlock
 62
  256
370
   -1
100
AcDbLine
 10
2674.496859635211
 20
766.7489135318788
 11
2674.352670974824
 21
764.2520331685746
  0
LINE
  5
4EB
100
AcDbEntity
  8
laser
  6
ByBlock
 62
  256
370
   -1
100
AcDbLine
 10
2674.352670974824
 20
764.2520331685746
 11
2551.086127412263
 21
774.9443909699844
  0
LINE
  5
4EC
100
AcDbEntity
  8
laser
  6
ByBlock
 62
  256
370
   -1
100
AcDbLine
 10
2551.086127412263
 20
774.9443909699844
 11
2551.158341851648
 21
777.4475145043971
  0
LINE
  5
4ED
100
AcDbEntity
  8
laser
  6
ByBlock
 62
  256
370
   -1
100
AcDbLine
 10
2551.158341851648
 20
777.4475145043971
 11
2674.496859635211
 21
766.7489135318788
  0
LINE
  5
4EE
100
AcDbEntity
  8
laser
  6
ByBlock
 62
  256
370
   -1
100
AcDbLine
 10
2668.252473827201
 20
658.6163858900791
 11
2668.108285166814
 21
656.1195055267749
  0
LINE
  5
4EF
100
AcDbEntity
  8
laser
  6
ByBlock
 62
  256
370
   -1
100
AcDbLine
 10
2668.108285166814
 20
656.1195055267749
 11
2547.958732933243
 21
666.5414899925636
  0
LINE
  5
4F0
100
AcDbEntity
  8
laser
  6
ByBlock
 62
  256
370
   -1
100
AcDbLine
 10
2547.958732933243
 20
666.5414899925636
 11
2548.030947372628
 21
669.0446135269765
  0
LINE
  5
4F1
100
AcDbEntity
  8
laser
  6
ByBlock
 62
  256
370
   -1
100
AcDbLine
 10
2548.030947372628
 20
669.0446135269765
 11
2668.252473827201
 21
658.6163858900791
  0
LINE
  5
4F2
100
AcDbEntity
  8
laser
  6
ByBlock
 62
  256
370
   -1
100
AcDbLine
 10
2545.536150376439
 20
669.2610166267486
 11
2545.463935937054
 21
666.7578930923357
  0
LINE
  5
4F3
100
AcDbEntity
  8
laser
  6
ByBlock
 62
  256
370
   -1
100
AcDbLine
 10
2545.463935937054
 20
666.7578930923357
 11
2326.912028261811
 21
685.715471746744
  0
LINE
  5
4F4
100
AcDbEntity
  8
laser
  6
ByBlock
 62
  256
370
   -1
100
AcDbLine
 10
2326.912028261811
 20
685.715471746744
 11
2339.778473540742
 21
672.5671068476165
  0
LINE
  5
4F5
100
AcDbEntity
  8
laser
  6
ByBlock
 62
  256
370
   -1
100
AcDbLine
 10
2337.991654410159
 20
670.8185996573022
 11
2325.125209131228
 21
683.9669645564297
  0
LINE
  5
4F6
100
AcDbEntity
  8
laser
  6
ByBlock
 62
  256
370
   -1
100
AcDbLine
 10
2325.125209131228
 20
683.9669645564297
 11
2328.06591826527
 21
638.685809730151
  0
LINE
  5
4F7
100
AcDbEntity
  8
laser
  6
ByBlock
 62
  256
370
   -1
100
AcDbLine
 10
2328.06591826527
 20
638.685809730151
 11
2325.571173692678
 21
638.5237927016572
  0
LINE
  5
4F8
100
AcDbEntity
  8
laser
  6
ByBlock
 62
  256
370
   -1
100
AcDbLine
 10
2325.571173692678
 20
638.5237927016572
 11
2322.492850151295
 21
685.9239395809082
  0
LINE
  5
4F9
100
AcDbEntity
  8
laser
  6
ByBlock
 62
  256
370
   -1
100
AcDbLine
 10
2322.492850151295
 20
685.9239395809082
 11
2276.967954417938
 21
682.9674010998776
  0
LINE
  5
4FA
100
AcDbEntity
  8
laser
  6
ByBlock
 62
  256
370
   -1
100
AcDbLine
 10
2276.967954417938
 20
682.9674010998776
 11
2276.903060308239
 21
685.4684531585647
  0
LINE
  5
4FB
100
AcDbEntity
  8
laser
  6
ByBlock
 62
  256
370
   -1
100
AcDbLine
 10
2276.903060308239
 20
685.4684531585647
 11
2323.108302174232
 21
688.4691755853057
  0
LINE
  5
4FC
100
AcDbEntity
  8
laser
  6
ByBlock
 62
  256
370
   -1
100
AcDbLine
 10
2323.108302174232
 20
688.4691755853057
 11
2371.891446970377
 21
737.2523203814512
  0
LINE
  5
4FD
100
AcDbEntity
  8
laser
  6
ByBlock
 62
  256
370
   -1
100
AcDbLine
 10
2371.891446970377
 20
737.2523203814512
 11
2373.659213923343
 21
735.484553428485
  0
LINE
  5
4FE
100
AcDbEntity
  8
laser
  6
ByBlock
 62
  256
370
   -1
100
AcDbLine
 10
2373.659213923343
 20
735.484553428485
 11
2326.440427286051
 21
688.2657667911919
  0
LINE
  5
4FF
100
AcDbEntity
  8
laser
  6
ByBlock
 62
  256
370
   -1
100
AcDbLine
 10
2326.440427286051
 20
688.2657667911919
 11
2545.536150376439
 21
669.2610166267486
  0
LINE
  5
500
100
AcDbEntity
  8
laser
  6
ByBlock
 62
  256
370
   -1
100
AcDbLine
 10
2274.480975873923
 20
778.816821582931
 11
2274.545869983622
 21
776.3157695242439
  0
LINE
  5
501
100
AcDbEntity
  8
laser
  6
ByBlock
 62
  256
370
   -1
100
AcDbLine
 10
2274.545869983622
 20
776.3157695242439
 11
2420.429035143749
 21
785.7899085548238
  0
LINE
  5
502
100
AcDbEntity
  8
laser
  6
ByBlock
 62
  256
370
   -1
100
AcDbLine
 10
2420.429035143749
 20
785.7899085548238
 11
2373.659213923343
 21
739.0200873344174
  0
LINE
  5
503
100
AcDbEntity
  8
laser
  6
ByBlock
 62
  256
370
   -1
100
AcDbLine
 10
2373.659213923343
 20
739.0200873344174
 11
2375.42698087631
 21
737.2523203814512
  0
LINE
  5
504
100
AcDbEntity
  8
laser
  6
ByBlock
 62
  256
370
   -1
100
AcDbLine
 10
2375.42698087631
 20
737.2523203814512
 11
2424.131334529452
 21
785.9566740345931
  0
LINE
  5
505
100
AcDbEntity
  8
laser
  6
ByBlock
 62
  256
370
   -1
100
AcDbLine
 10
2424.131334529452
 20
785.9566740345931
 11
2548.591330416074
 21
775.1607940697563
  0
LINE
  5
506
100
AcDbEntity
  8
laser
  6
ByBlock
 62
  256
370
   -1
100
AcDbLine
 10
2548.591330416074
 20
775.1607940697563
 11
2548.663544855459
 21
777.663917604169
  0
LINE
  5
507
100
AcDbEntity
  8
laser
  6
ByBlock
 62
  256
370
   -1
100
AcDbLine
 10
2548.663544855459
 20
777.663917604169
 11
2424.221019076789
 21
788.4582821809722
  0
LINE
  5
508
100
AcDbEntity
  8
laser
  6
ByBlock
 62
  256
370
   -1
100
AcDbLine
 10
2424.221019076789
 20
788.4582821809722
 11
2375.42698087631
 21
837.2523203814512
  0
LINE
  5
509
100
AcDbEntity
  8
laser
  6
ByBlock
 62
  256
370
   -1
100
AcDbLine
 10
2375.42698087631
 20
837.2523203814512
 11
2373.659213923343
 21
835.484553428485
  0
LINE
  5
50A
100
AcDbEntity
  8
laser
  6
ByBlock
 62
  256
370
   -1
100
AcDbLine
 10
2373.659213923343
 20
835.484553428485
 11
2420.823006486274
 21
788.3207608655543
  0
LINE
  5
50B
100
AcDbEntity
  8
laser
  6
ByBlock
 62
  256
370
   -1
100
AcDbLine
 10
2420.823006486274
 20
788.3207608655543
 11
2274.480975873923
 21
778.816821582931
  0
LINE
  5
50C
100
AcDbEntity
  8
laser
  6
ByBlock
 62
  256
370
   -1
100
AcDbLine
 10
2271.722445013361
 20
885.1320067323181
 11
2271.78733912306
 21
882.6309546736315
  0
LINE
  5
50D
100
AcDbEntity
  8
laser
  6
ByBlock
 62
  256
370
   -1
100
AcDbLine
 10
2271.78733912306
 20
882.6309546736315
 11
2323.175494567043
 21
885.9682727847853
  0
LINE
  5
50E
100
AcDbEntity
  8
laser
  6
ByBlock
 62
  256
370
   -1
100
AcDbLine
 10
2323.175494567043
 20
885.9682727847853
 11
2371.891446970377
 21
837.2523203814512
  0
LINE
  5
50F
100
AcDbEntity
  8
laser
  6
ByBlock
 62
  256
370
   -1
100
AcDbLine
 10
2371.891446970377
 20
837.2523203814512
 11
2373.659213923343
 21
839.0200873344174
  0
LINE
  5
510
100
AcDbEntity
  8
laser
  6
ByBlock
 62
  256
370
   -1
100
AcDbLine
 10
2373.659213923343
 20
839.0200873344174
 11
2326.968749622029
 21
885.7105516357315
  0
LINE
  5
511
100
AcDbEntity
  8
laser
  6
ByBlock
 62
  256
370
   -1
100
AcDbLine
 10
2326.968749622029
 20
885.7105516357315
 11
2551.219478926138
 21
866.2586471233803
  0
LINE
  5
512
100
AcDbEntity
  8
laser
  6
ByBlock
 62
  256
370
   -1
100
AcDbLine
 10
2551.219478926138
 20
866.2586471233803
 11
2551.291693365523
 21
868.761770657793
  0
LINE
  5
513
100
AcDbEntity
  8
laser
  6
ByBlock
 62
  256
370
   -1
100
AcDbLine
 10
2551.291693365523
 20
868.761770657793
 11
2326.440427286051
 21
888.2657667911922
  0
LINE
  5
514
100
AcDbEntity
  8
laser
  6
ByBlock
 62
  256
370
   -1
100
AcDbLine
 10
2326.440427286051
 20
888.2657667911922
 11
2373.659213923343
 21
935.484553428485
  0
LINE
  5
515
100
AcDbEntity
  8
laser
  6
ByBlock
 62
  256
370
   -1
100
AcDbLine
 10
2373.659213923343
 20
935.484553428485
 11
2371.891446970377
 21
937.2523203814512
  0
LINE
  5
516
100
AcDbEntity
  8
laser
  6
ByBlock
 62
  256
370
   -1
100
AcDbLine
 10
2371.891446970377
 20
937.2523203814512
 11
2323.108302174232
 21
888.4691755853059
  0
LINE
  5
517
100
AcDbEntity
  8
laser
  6
ByBlock
 62
  256
370
   -1
100
AcDbLine
 10
2323.108302174232
 20
888.4691755853059
 11
2271.722445013361
 21
885.1320067323181
  0
LINE
  5
518
100
AcDbEntity
  8
laser
  6
ByBlock
 62
  256
370
   -1
100
AcDbLine
 10
2269.300360579045
 20
978.4803751566847
 11
2269.365254688744
 21
975.9793230979976
  0
LINE
  5
519
100
AcDbEntity
  8
laser
  6
ByBlock
 62
  256
370
   -1
100
AcDbLine
 10
2269.365254688744
 20
975.9793230979976
 11
2420.429035143749
 21
985.7899085548238
  0
LINE
  5
51A
100
AcDbEntity
  8
laser
  6
ByBlock
 62
  256
370
   -1
100
AcDbLine
 10
2420.429035143749
 20
985.7899085548238
 11
2373.659213923343
 21
939.0200873344174
  0
LINE
  5
51B
100
AcDbEntity
  8
laser
  6
ByBlock
 62
  256
370
   -1
100
AcDbLine
 10
2373.659213923343
 20
939.0200873344174
 11
2375.42698087631
 21
937.2523203814512
  0
LINE
  5
51C
100
AcDbEntity
  8
laser
  6
ByBlock
 62
  256
370
   -1
100
AcDbLine
 10
2375.42698087631
 20
937.2523203814512
 11
2424.131334529452
 21
985.9566740345927
  0
LINE
  5
51D
100
AcDbEntity
  8
laser
  6
ByBlock
 62
  256
370
   -1
100
AcDbLine
 10
2424.131334529452
 20
985.9566740345927
 11
2554.346873405158
 21
974.6615481008007
  0
LINE
  5
51E
100
AcDbEntity
  8
laser
  6
ByBlock
 62
  256
370
   -1
100
AcDbLine
 10
2554.346873405158
 20
974.6615481008007
 11
2554.419087844543
 21
977.1646716352138
  0
LINE
  5
51F
100
AcDbEntity
  8
laser
  6
ByBlock
 62
  256
370
   -1
100
AcDbLine
 10
2554.419087844543
 20
977.1646716352138
 11
2424.221019076789
 21
988.4582821809722
  0
LINE
  5
520
100
AcDbEntity
  8
laser
  6
ByBlock
 62
  256
370
   -1
100
AcDbLine
 10
2424.221019076789
 20
988.4582821809722
 11
2375.42698087631
 21
1037.252320381451
  0
LINE
  5
521
100
AcDbEntity
  8
laser
  6
ByBlock
 62
  256
370
   -1
100
AcDbLine
 10
2373.659213923343
 20
1035.484553428485
 11
2420.823006486274
 21
988.3207608655543
  0
LINE
  5
522
100
AcDbEntity
  8
laser
  6
ByBlock
 62
  256
370
   -1
100
AcDbLine
 10
2420.823006486274
 20
988.3207608655543
 11
2269.300360579045
 21
978.4803751566847
  0
LINE
  5
523
100
AcDbEntity
  8
laser
  6
ByBlock
 62
  256
370
   -1
100
AcDbLine
 10
2266.606723828182
 20
1082.294508247385
 11
2323.175494567043
 21
1085.968272784785
  0
LINE
  5
524
100
AcDbEntity
  8
laser
  6
ByBlock
 62
  256
370
   -1
100
AcDbLine
 10
2323.175494567043
 20
1085.968272784785
 11
2371.891446970377
 21
1037.252320381451
  0
LINE
  5
525
100
AcDbEntity
  8
laser
  6
ByBlock
 62
  256
370
   -1
100
AcDbLine
 10
2373.659213923343
 20
1039.020087334417
 11
2326.968749622029
 21
1085.710551635731
  0
LINE
  5
526
100
AcDbEntity
  8
laser
  6
ByBlock
 62
  256
370
   -1
100
AcDbLine
 10
2326.968749622029
 20
1085.710551635731
 11
2556.975021915222
 21
1065.759401154425
  0
LINE
  5
527
100
AcDbEntity
  8
laser
  6
ByBlock
 62
  256
370
   -1
100
AcDbLine
 10
2108.624563287902
 20
1072.034620126181
 11
2264.110089424863
 21
1082.132368486984
  0
LINE
  5
528
100
AcDbEntity
  8
laser
  6
ByBlock
 62
  256
370
   -1
100
AcDbLine
 10
2114.006400423008
 20
968.3950677292464
 11
2114.136057671454
 21
965.8982216046702
  0
LINE
  5
529
100
AcDbEntity
  8
laser
  6
ByBlock
 62
  256
370
   -1
100
AcDbLine
 10
2114.136057671454
 20
965.8982216046702
 11
2266.868620285426
 21
975.8171833375968
  0
LINE
  5
52A
100
AcDbEntity
  8
laser
  6
ByBlock
 62
  256
370
   -1
100
AcDbLine
 10
2266.868620285426
 20
975.8171833375968
 11
2266.803726175726
 21
978.3182353962839
  0
LINE
  5
52B
100
AcDbEntity
  8
laser
  6
ByBlock
 62
  256
370
   -1
100
AcDbLine
 10
2266.803726175726
 20
978.3182353962839
 11
2114.006400423008
 21
968.3950677292464
  0
LINE
  5
52C
100
AcDbEntity
  8
laser
  6
ByBlock
 62
  256
370
   -1
100
AcDbLine
 10
2118.845680978855
 20
875.2036800784631
 11
2118.975338227301
 21
872.7068339538869
  0
LINE
  5
52D
100
AcDbEntity
  8
laser
  6
ByBlock
 62
  256
370
   -1
100
AcDbLine
 10
2118.975338227301
 20
872.7068339538869
 11
2269.290704719741
 21
882.4688149132307
  0
LINE
  5
52E
100
AcDbEntity
  8
laser
  6
ByBlock
 62
  256
370
   -1
100
AcDbLine
 10
2269.290704719741
 20
882.4688149132307
 11
2269.225810610042
 21
884.9698669719178
  0
LINE
  5
52F
100
AcDbEntity
  8
laser
  6
ByBlock
 62
  256
370
   -1
100
AcDbLine
 10
2269.225810610042
 20
884.9698669719178
 11
2118.845680978855
 21
875.2036800784631
  0
LINE
  5
530
100
AcDbEntity
  8
laser
  6
ByBlock
 62
  256
370
   -1
100
AcDbLine
 10
2124.357175362407
 20
769.0672815569524
 11
2124.486832610853
 21
766.5704354323761
  0
LINE
  5
531
100
AcDbEntity
  8
laser
  6
ByBlock
 62
  256
370
   -1
100
AcDbLine
 10
2124.486832610853
 20
766.5704354323761
 11
2272.049235580304
 21
776.1536297638431
  0
LINE
  5
532
100
AcDbEntity
  8
laser
  6
ByBlock
 62
  256
370
   -1
100
AcDbLine
 10
2272.049235580304
 20
776.1536297638431
 11
2271.984341470605
 21
778.6546818225302
  0
LINE
  5
533
100
AcDbEntity
  8
laser
  6
ByBlock
 62
  256
370
   -1
100
AcDbLine
 10
2271.984341470605
 20
778.6546818225302
 11
2124.357175362407
 21
769.0672815569524
  0
LINE
  5
534
100
AcDbEntity
  8
laser
  6
ByBlock
 62
  256
370
   -1
100
AcDbLine
 10
2129.196455918254
 20
675.8758939061688
 11
2129.326113166699
 21
673.3790477815926
  0
LINE
  5
535
100
AcDbEntity
  8
laser
  6
ByBlock
 62
  256
370
   -1
100
AcDbLine
 10
2129.326113166699
 20
673.3790477815926
 11
2274.471320014619
 21
682.8052613394768
  0
LINE
  5
536
100
AcDbEntity
  8
laser
  6
ByBlock
 62
  256
370
   -1
100
AcDbLine
 10
2274.471320014619
 20
682.8052613394768
 11
2274.406425904921
 21
685.3063133981639
  0
LINE
  5
537
100
AcDbEntity
  8
laser
  6
ByBlock
 62
  256
370
   -1
100
AcDbLine
 10
2274.406425904921
 20
685.3063133981639
 11
2129.196455918254
 21
675.8758939061688
  0
LINE
  5
538
100
AcDbEntity
  8
laser
  6
ByBlock
 62
  256
370
   -1
100
AcDbLine
 10
2134.382745856067
 20
576.0020489231213
 11
2134.512403104512
 21
573.505202798545
  0
LINE
  5
539
100
AcDbEntity
  8
laser
  6
ByBlock
 62
  256
370
   -1
100
AcDbLine
 10
2134.512403104512
 20
573.505202798545
 11
2277.067084402582
 21
582.7631789919972
  0
LINE
  5
53A
100
AcDbEntity
  8
laser
  6
ByBlock
 62
  256
370
   -1
100
AcDbLine
 10
2277.067084402582
 20
582.7631789919972
 11
2277.002190292883
 21
585.2642310506842
  0
LINE
  5
53B
100
AcDbEntity
  8
laser
  6
ByBlock
 62
  256
370
   -1
100
AcDbLine
 10
2277.002190292883
 20
585.2642310506842
 11
2134.382745856067
 21
576.0020489231213
  0
LINE
  5
53C
100
AcDbEntity
  8
laser
  6
ByBlock
 62
  256
370
   -1
100
AcDbLine
 10
2339.778473540742
 20
672.5671068476165
 11
2341.526980731056
 21
670.7802877170329
  0
LINE
  5
53D
100
AcDbEntity
  8
laser
  6
ByBlock
 62
  256
370
   -1
100
AcDbLine
 10
2337.991654410159
 20
670.8185996573022
 11
2339.740161600473
 21
669.0317805267186
  0
LINE
  5
53E
100
AcDbEntity
  8
laser
  6
ByBlock
 62
  256
370
   -1
100
AcDbLine
 10
2693.583849817778
 20
1053.90971003346
 11
2691.092165965692
 21
1054.125843093612
  0
LINE
  5
53F
100
AcDbEntity
  8
laser
  6
ByBlock
 62
  256
370
   -1
100
AcDbLine
 10
2559.469818911412
 20
1065.542998054652
 11
2556.975021915222
 21
1065.759401154425
  0
LINE
  5
540
100
AcDbEntity
  8
laser
  6
ByBlock
 62
  256
370
   -1
100
AcDbLine
 10
2264.110089424863
 20
1082.132368486984
 11
2266.606723828182
 21
1082.294508247385
  0
LINE
  5
541
100
AcDbEntity
  8
laser
  6
ByBlock
 62
  256
370
   -1
100
AcDbLine
 10
2106.129608851876
 20
1071.872589468457
 11
2108.624563287902
 21
1072.034620126181
  0
LWPOLYLINE
  5
542
100
AcDbEntity
  8
laser
  6
ByBlock
 62
  256
370
   -1
100
AcDbPolyline
 90
    4
 70
    1
 43
0
 10
2018.018582526143
 20
419.3203152112873
 10
2078.018582526143
 20
419.3203152112873
 10
2078.018582526143
 20
494.3203152112873
 10
2018.018582526143
 20
494.3203152112873
  0
LWPOLYLINE
  5
543
100
AcDbEntity
  8
laser
  6
ByBlock
 62
  256
370
   -1
100
AcDbPolyline
 90
    4
 70
    1
 43
0
 10
2078.018582526143
 20
419.3203152112873
 10
2138.018582526143
 20
419.3203152112873
 10
2138.018582526143
 20
494.3203152112873
 10
2078.018582526143
 20
494.3203152112873
  0
LWPOLYLINE
  5
544
100
AcDbEntity
  8
laser
  6
ByBlock
 62
  256
370
   -1
100
AcDbPolyline
 90
    4
 70
    1
 43
0
 10
2138.018582526143
 20
419.3203152112873
 10
2198.018582526143
 20
419.3203152112873
 10
2198.018582526143
 20
494.3203152112873
 10
2138.018582526143
 20
494.3203152112873
  0
LWPOLYLINE
  5
545
100
AcDbEntity
  8
laser
  6
ByBlock
 62
  256
370
   -1
100
AcDbPolyline
 90
    4
 70
    1
 43
0
 10
2198.018582526143
 20
419.3203152112873
 10
2258.018582526143
 20
419.3203152112873
 10
2258.018582526143
 20
494.3203152112873
 10
2198.018582526143
 20
494.3203152112873
  0
LWPOLYLINE
  5
546
100
AcDbEntity
  8
laser
  6
ByBlock
 62
  256
370
   -1
100
AcDbPolyline
 90
    4
 70
    1
 43
0
 10
2258.018582526143
 20
419.3203152112873
 10
2318.018582526143
 20
419.3203152112873
 10
2318.018582526143
 20
494.3203152112873
 10
2258.018582526143
 20
494.3203152112873
  0
LWPOLYLINE
  5
547
100
AcDbEntity
  8
laser
  6
ByBlock
 62
  256
370
   -1
100
AcDbPolyline
 90
    4
 70
    1
 43
0
 10
2318.018582526143
 20
419.3203152112873
 10
2378.018582526143
 20
419.3203152112873
 10
2378.018582526143
 20
494.3203152112873
 10
2318.018582526143
 20
494.3203152112873
  0
LWPOLYLINE
  5
548
100
AcDbEntity
  8
laser
  6
ByBlock
 62
  256
370
   -1
100
AcDbPolyline
 90
    4
 70
    1
 43
0
 10
2378.018582526143
 20
419.3203152112873
 10
2438.018582526143
 20
419.3203152112873
 10
2438.018582526143
 20
494.3203152112873
 10
2378.018582526143
 20
494.3203152112873
  0
LWPOLYLINE
  5
549
100
AcDbEntity
  8
laser
  6
ByBlock
 62
  256
370
   -1
100
AcDbPolyline
 90
    4
 70
    1
 43
0
 10
2438.018582526143
 20
419.3203152112873
 10
2498.018582526143
 20
419.3203152112873
 10
2498.018582526143
 20
494.3203152112873
 10
2438.018582526143
 20
494.3203152112873
  0
LWPOLYLINE
  5
54A
100
AcDbEntity
  8
laser
  6
ByBlock
 62
  256
370
   -1
100
AcDbPolyline
 90
    4
 70
    1
 43
0
 10
2498.018582526143
 20
419.3203152112873
 10
2558.018582526143
 20
419.3203152112873
 10
2558.018582526143
 20
494.3203152112873
 10
2498.018582526143
 20
494.3203152112873
  0
LWPOLYLINE
  5
54B
100
AcDbEntity
  8
laser
  6
ByBlock
 62
  256
370
   -1
100
AcDbPolyline
 90
    4
 70
    1
 43
0
 10
2558.018582526143
 20
419.3203152112873
 10
2618.018582526143
 20
419.3203152112873
 10
2618.018582526143
 20
494.3203152112873
 10
2558.018582526143
 20
494.3203152112873
  0
LWPOLYLINE
  5
54C
100
AcDbEntity
  8
laser
  6
ByBlock
 62
  256
370
   -1
100
AcDbPolyline
 90
    4
 70
    1
 43
0
 10
2618.018582526143
 20
419.3203152112873
 10
2678.018582526143
 20
419.3203152112873
 10
2678.018582526143
 20
494.3203152112873
 10
2618.018582526143
 20
494.3203152112873
  0
LWPOLYLINE
  5
54D
100
AcDbEntity
  8
laser
  6
ByBlock
 62
  256
370
   -1
100
AcDbPolyline
 90
    4
 70
    1
 43
0
 10
2678.018582526143
 20
419.3203152112873
 10
2738.018582526143
 20
419.3203152112873
 10
2738.018582526143
 20
494.3203152112873
 10
2678.018582526143
 20
494.3203152112873
  0
LWPOLYLINE
  5
54E
100
AcDbEntity
  8
laser
  6
ByBlock
 62
  256
370
   -1
100
AcDbPolyline
 90
    4
 70
    1
 43
0
 10
2738.018582526143
 20
419.3203152112873
 10
2798.018582526143
 20
419.3203152112873
 10
2798.018582526143
 20
494.3203152112873
 10
2738.018582526143
 20
494.3203152112873
  0
LWPOLYLINE
  5
54F
100
AcDbEntity
  8
laser
  6
ByBlock
 62
  256
370
   -1
100
AcDbPolyline
 90
    4
 70
    1
 43
0
 10
2798.018582526143
 20
419.3203152112873
 10
2858.018582526143
 20
419.3203152112873
 10
2858.018582526143
 20
494.3203152112873
 10
2798.018582526143
 20
494.3203152112873
  0
LWPOLYLINE
  5
550
100
AcDbEntity
  8
laser
  6
ByBlock
 62
  256
370
   -1
100
AcDbPolyline
 90
    4
 70
    1
 43
0
 10
2858.018582526143
 20
419.3203152112873
 10
2918.018582526143
 20
419.3203152112873
 10
2918.018582526143
 20
494.3203152112873
 10
2858.018582526143
 20
494.3203152112873
  0
LWPOLYLINE
  5
551
100
AcDbEntity
  8
laser
  6
ByBlock
 62
  256
370
   -1
100
AcDbPolyline
 90
    4
 70
    1
 43
0
 10
2918.018582526143
 20
419.3203152112873
 10
2978.018582526143
 20
419.3203152112873
 10
2978.018582526143
 20
494.3203152112873
 10
2918.018582526143
 20
494.3203152112873
  0
MTEXT
  5
552
100
AcDbEntity
  8
label
  6
ByLayer
 62
  256
370
   -1
100
AcDbMText
 10
2662.196419829863
 20
2084.899613771519
 30
0
 40
10
 41
118.8888888888909
 71
    5
 72
    1
  1
cam03-A-FEUILLE1\P
  7
standard
210
0
220
0
230
1
 50
0
 73
    2
 44
1
  0
MTEXT
  5
553
100
AcDbEntity
  8
label
  6
ByLayer
 62
  256
370
   -1
100
AcDbMText
 10
2665.037720633449
 20
1308.566298021532
 30
0
 40
10
 41
121.1111111111131
 71
    5
 72
    1
  1
cam03-A-FEUILLE2\P
  7
standard
210
0
220
0
230
1
 50
0
 73
    2
 44
1
  0
MTEXT
  5
554
100
AcDbEntity
  8
label
  6
ByLayer
 62
  256
370
   -1
100
AcDbMText
 10
2569.227471452682
 20
723.6195135494795
 30
0
 40
10
 41
121.1111111111138
 71
    5
 72
    1
  1
cam03-A-FEUILLE3\P
  7
standard
210
0
220
0
230
1
 50
0
 73
    2
 44
1
  0
ENDSEC
  0
SECTION
  2
OBJECTS
  0
DICTIONARY
  5
C
330
0
100
AcDbDictionary
281
    1
  3
ACAD_GROUP
350
D
  0
DICTIONARY
  5
D
330
C
100
AcDbDictionary
281
    1
  0
PLOTSETTINGS
  5
555
100
AcDbPlotSettings
  6
1x1
 40
0
 41
0
 42
0
 43
0
  0
ENDSEC
  0
EOF
