  0
SECTION
  2
HEADER
  9
$ACADVER
  1
AC1014
  9
$HANDSEED
  5
FFFF
  9
$INSUNITS
 70
     4
  9
$MEASUREMENT
 70
     1
  0
ENDSEC
  0
SECTION
  2
TABLES
  0
TABLE
  2
VPORT
  5
8
330
0
100
AcDbSymbolTable
 70
     4
  0
VPORT
  5
2E
330
8
100
AcDbSymbolTableRecord
100
AcDbViewportTableRecord
  2
*ACTIVE
 70
     0
 10
0.0
 20
0.0
 11
1.0
 21
1.0
 12
210.0
 22
148.5
 13
0.0
 23
0.0
 14
10.0
 24
10.0
 15
10.0
 25
10.0
 16
0.0
 26
0.0
 36
1.0
 17
0.0
 27
0.0
 37
0.0
 40
341.0
 41
1.24
 42
50.0
 43
0.0
 44
0.0
 50
0.0
 51
0.0
 71
     0
 72
   100
 73
     1
 74
     3
 75
     0
 76
     0
 77
     0
 78
     0
  0
ENDTAB
  0
TABLE
  2
LTYPE
  5
5
330
0
100
AcDbSymbolTable
 70
     1
  0
LTYPE
  5
14
330
5
100
AcDbSymbolTableRecord
100
AcDbLinetypeTableRecord
  2
BYBLOCK
 70
     0
  3

 72
    65
 73
     0
 40
0.0
  0
LTYPE
  5
15
330
5
100
AcDbSymbolTableRecord
100
AcDbLinetypeTableRecord
  2
BYLAYER
 70
     0
  3

 72
    65
 73
     0
 40
0.0
  0
LTYPE
  5
16
330
5
100
AcDbSymbolTableRecord
100
AcDbLinetypeTableRecord
  2
CONTINUOUS
 70
     0
  3
Solid line
 72
    65
 73
     0
 40
0.0
  0
ENDTAB
  0
TABLE
  2
LAYER
  5
2
100
AcDbSymbolTable
 70
1
  0
LAYER
  5
50
100
AcDbSymbolTableRecord
100
AcDbLayerTableRecord
  2
0
 70
0
  6
CONTINUOUS
  0
ENDTAB
  0
TABLE
  2
STYLE
  5
3
330
0
100
AcDbSymbolTable
 70
     1
  0
STYLE
  5
11
330
3
100
AcDbSymbolTableRecord
100
AcDbTextStyleTableRecord
  2
STANDARD
 70
     0
 40
0.0
 41
1.0
 50
0.0
 71
     0
 42
2.5
  3
txt
  4

  0
ENDTAB
  0
TABLE
  2
VIEW
  5
6
330
0
100
AcDbSymbolTable
 70
     0
  0
ENDTAB
  0
TABLE
  2
UCS
  5
7
330
0
100
AcDbSymbolTable
 70
     0
  0
ENDTAB
  0
TABLE
  2
APPID
  5
9
330
0
100
AcDbSymbolTable
 70
     2
  0
APPID
  5
12
330
9
100
AcDbSymbolTableRecord
100
AcDbRegAppTableRecord
  2
ACAD
 70
     0
  0
ENDTAB
  0
TABLE
  2
DIMSTYLE
  5
A
330
0
100
AcDbSymbolTable
 70
     1
  0
DIMSTYLE
105
27
330
A
100
AcDbSymbolTableRecord
100
AcDbDimStyleTableRecord
  2
ISO-25
 70
     0
  3

  4

  5

  6

  7

 40
1.0
 41
2.5
 42
0.625
 43
3.75
 44
1.25
 45
0.0
 46
0.0
 47
0.0
 48
0.0
140
2.5
141
2.5
142
0.0
143
0.03937007874016
144
1.0
145
0.0
146
1.0
147
0.625
 71
     0
 72
     0
 73
     0
 74
     0
 75
     0
 76
     0
 77
     1
 78
     8
170
     0
171
     3
172
     1
173
     0
174
     0
175
     0
176
     0
177
     0
178
     0
270
     2
271
     2
272
     2
273
     2
274
     3
340
11
275
     0
280
     0
281
     0
282
     0
283
     0
284
     8
285
     0
286
     0
287
     3
288
     0
  0
ENDTAB
  0
TABLE
  2
BLOCK_RECORD
  5
1
330
0
100
AcDbSymbolTable
 70
     1
  0
BLOCK_RECORD
  5
1F
330
1
100
AcDbSymbolTableRecord
100
AcDbBlockTableRecord
  2
*MODEL_SPACE
  0
BLOCK_RECORD
  5
1B
330
1
100
AcDbSymbolTableRecord
100
AcDbBlockTableRecord
  2
*PAPER_SPACE
  0
ENDTAB
  0
ENDSEC
  0
SECTION
  2
BLOCKS
  0
BLOCK
  5
20
330
1F
100
AcDbEntity
  8
0
100
AcDbBlockBegin
  2
*MODEL_SPACE
 70
     0
 10
0.0
 20
0.0
 30
0.0
  3
*MODEL_SPACE
  1

  0
ENDBLK
  5
21
330
1F
100
AcDbEntity
  8
0
100
AcDbBlockEnd
  0
BLOCK
  5
1C
330
1B
100
AcDbEntity
 67
     1
  8
0
100
AcDbBlockBegin
  2
*PAPER_SPACE
  1

  0
ENDBLK
  5
1D
330
1B
100
AcDbEntity
 67
     1
  8
0
100
AcDbBlockEnd
  0
ENDSEC
  0
SECTION
  2
ENTITIES
  0
SPLINE
  5
100
100
AcDbEntity
  8
0
 62
7
100
AcDbSpline
 70
8
 71
3
 72
8
 73
4
 74
0
 40
0
 40
0
 40
0
 40
0
 40
1
 40
1
 40
1
 40
1
 10
754.499821
 20
489.000265
 30
0.0
 10
753.488665
 20
489.000265
 30
0.0
 10
752.577074
 20
488.391159
 30
0.0
 10
752.190122
 20
487.456973
 30
0.0
  0
SPLINE
  5
101
100
AcDbEntity
  8
0
 62
7
100
AcDbSpline
 70
8
 71
3
 72
8
 73
4
 74
0
 40
0
 40
0
 40
0
 40
0
 40
1
 40
1
 40
1
 40
1
 10
752.190122
 20
487.456973
 30
0.0
 10
751.803169
 20
486.522787
 30
0.0
 10
752.017059
 20
485.447492
 30
0.0
 10
752.732054
 20
484.732497
 30
0.0
  0
SPLINE
  5
102
100
AcDbEntity
  8
0
 62
7
100
AcDbSpline
 70
8
 71
3
 72
8
 73
4
 74
0
 40
0
 40
0
 40
0
 40
0
 40
1
 40
1
 40
1
 40
1
 10
752.732054
 20
484.732497
 30
0.0
 10
753.447049
 20
484.017502
 30
0.0
 10
754.522344
 20
483.803613
 30
0.0
 10
755.456530
 20
484.190565
 30
0.0
  0
SPLINE
  5
103
100
AcDbEntity
  8
0
 62
7
100
AcDbSpline
 70
8
 71
3
 72
8
 73
4
 74
0
 40
0
 40
0
 40
0
 40
0
 40
1
 40
1
 40
1
 40
1
 10
755.456530
 20
484.190565
 30
0.0
 10
756.390716
 20
484.577518
 30
0.0
 10
756.999821
 20
485.489109
 30
0.0
 10
756.999821
 20
486.500264
 30
0.0
  0
SPLINE
  5
104
100
AcDbEntity
  8
0
 62
7
100
AcDbSpline
 70
8
 71
3
 72
8
 73
4
 74
0
 40
0
 40
0
 40
0
 40
0
 40
1
 40
1
 40
1
 40
1
 10
756.999821
 20
486.500264
 30
0.0
 10
756.999821
 20
487.163306
 30
0.0
 10
756.736429
 20
487.799191
 30
0.0
 10
756.267588
 20
488.268032
 30
0.0
  0
SPLINE
  5
105
100
AcDbEntity
  8
0
 62
7
100
AcDbSpline
 70
8
 71
3
 72
8
 73
4
 74
0
 40
0
 40
0
 40
0
 40
0
 40
1
 40
1
 40
1
 40
1
 10
756.267588
 20
488.268032
 30
0.0
 10
755.798747
 20
488.736873
 30
0.0
 10
755.162862
 20
489.000265
 30
0.0
 10
754.499821
 20
489.000265
 30
0.0
  0
LWPOLYLINE
  5
106
100
AcDbEntity
  8
0
 62
7
100
AcDbPolyline
 90
1
 70
1
 10
754.499821
 20
489.000265
 30
0.0
  0
SPLINE
  5
107
100
AcDbEntity
  8
0
 62
7
100
AcDbSpline
 70
8
 71
3
 72
8
 73
4
 74
0
 40
0
 40
0
 40
0
 40
0
 40
1
 40
1
 40
1
 40
1
 10
458.999852
 20
369.001400
 30
0.0
 10
458.999852
 20
367.675318
 30
0.0
 10
458.473068
 20
366.403548
 30
0.0
 10
457.535386
 20
365.465867
 30
0.0
  0
SPLINE
  5
108
100
AcDbEntity
  8
0
 62
7
100
AcDbSpline
 70
8
 71
3
 72
8
 73
4
 74
0
 40
0
 40
0
 40
0
 40
0
 40
1
 40
1
 40
1
 40
1
 10
457.535386
 20
365.465867
 30
0.0
 10
456.597704
 20
364.528185
 30
0.0
 10
455.325934
 20
364.001401
 30
0.0
 10
453.999852
 20
364.001401
 30
0.0
  0
LWPOLYLINE
  5
109
100
AcDbEntity
  8
0
 62
7
100
AcDbPolyline
 90
2
 70
0
 10
458.999852
 20
499.001399
 30
0.0
 10
458.999852
 20
369.001400
 30
0.0
  0
SPLINE
  5
10a
100
AcDbEntity
  8
0
 62
7
100
AcDbSpline
 70
8
 71
3
 72
8
 73
4
 74
0
 40
0
 40
0
 40
0
 40
0
 40
1
 40
1
 40
1
 40
1
 10
147.999833
 20
364.001401
 30
0.0
 10
146.673751
 20
364.001401
 30
0.0
 10
145.401981
 20
364.528185
 30
0.0
 10
144.464299
 20
365.465867
 30
0.0
  0
SPLINE
  5
10b
100
AcDbEntity
  8
0
 62
7
100
AcDbSpline
 70
8
 71
3
 72
8
 73
4
 74
0
 40
0
 40
0
 40
0
 40
0
 40
1
 40
1
 40
1
 40
1
 10
144.464299
 20
365.465867
 30
0.0
 10
143.526618
 20
366.403548
 30
0.0
 10
142.999833
 20
367.675318
 30
0.0
 10
142.999833
 20
369.001400
 30
0.0
  0
LWPOLYLINE
  5
10c
100
AcDbEntity
  8
0
 62
7
100
AcDbPolyline
 90
2
 70
0
 10
453.999852
 20
364.001401
 30
0.0
 10
147.999833
 20
364.001401
 30
0.0
  0
SPLINE
  5
10d
100
AcDbEntity
  8
0
 62
7
100
AcDbSpline
 70
8
 71
3
 72
8
 73
4
 74
0
 40
0
 40
0
 40
0
 40
0
 40
1
 40
1
 40
1
 40
1
 10
142.999833
 20
499.001399
 30
0.0
 10
142.999833
 20
500.327481
 30
0.0
 10
143.526618
 20
501.599250
 30
0.0
 10
144.464299
 20
502.536932
 30
0.0
  0
SPLINE
  5
10e
100
AcDbEntity
  8
0
 62
7
100
AcDbSpline
 70
8
 71
3
 72
8
 73
4
 74
0
 40
0
 40
0
 40
0
 40
0
 40
1
 40
1
 40
1
 40
1
 10
144.464299
 20
502.536932
 30
0.0
 10
145.401981
 20
503.474614
 30
0.0
 10
146.673751
 20
504.001398
 30
0.0
 10
147.999833
 20
504.001398
 30
0.0
  0
LWPOLYLINE
  5
10f
100
AcDbEntity
  8
0
 62
7
100
AcDbPolyline
 90
2
 70
0
 10
142.999833
 20
369.001400
 30
0.0
 10
142.999833
 20
499.001399
 30
0.0
  0
SPLINE
  5
110
100
AcDbEntity
  8
0
 62
7
100
AcDbSpline
 70
8
 71
3
 72
8
 73
4
 74
0
 40
0
 40
0
 40
0
 40
0
 40
1
 40
1
 40
1
 40
1
 10
453.999852
 20
504.001398
 30
0.0
 10
455.325934
 20
504.001398
 30
0.0
 10
456.597704
 20
503.474614
 30
0.0
 10
457.535386
 20
502.536932
 30
0.0
  0
SPLINE
  5
111
100
AcDbEntity
  8
0
 62
7
100
AcDbSpline
 70
8
 71
3
 72
8
 73
4
 74
0
 40
0
 40
0
 40
0
 40
0
 40
1
 40
1
 40
1
 40
1
 10
457.535386
 20
502.536932
 30
0.0
 10
458.473068
 20
501.599250
 30
0.0
 10
458.999852
 20
500.327481
 30
0.0
 10
458.999852
 20
499.001399
 30
0.0
  0
LWPOLYLINE
  5
112
100
AcDbEntity
  8
0
 62
7
100
AcDbPolyline
 90
2
 70
0
 10
147.999833
 20
504.001398
 30
0.0
 10
453.999852
 20
504.001398
 30
0.0
  0
SPLINE
  5
113
100
AcDbEntity
  8
0
 62
7
100
AcDbSpline
 70
8
 71
3
 72
8
 73
4
 74
0
 40
0
 40
0
 40
0
 40
0
 40
1
 40
1
 40
1
 40
1
 10
138.000239
 20
362.000630
 30
0.0
 10
135.230240
 20
362.000630
 30
0.0
 10
133.000546
 20
359.770407
 30
0.0
 10
133.000546
 20
357.000408
 30
0.0
  0
LWPOLYLINE
  5
114
100
AcDbEntity
  8
0
 62
7
100
AcDbPolyline
 90
1
 70
1
 10
458.999852
 20
499.001399
 30
0.0
  0
SPLINE
  5
115
100
AcDbEntity
  8
0
 62
7
100
AcDbSpline
 70
8
 71
3
 72
8
 73
4
 74
0
 40
0
 40
0
 40
0
 40
0
 40
1
 40
1
 40
1
 40
1
 10
133.000546
 20
343.000237
 30
0.0
 10
133.000546
 20
340.230238
 30
0.0
 10
135.230240
 20
338.000015
 30
0.0
 10
138.000239
 20
338.000015
 30
0.0
  0
LWPOLYLINE
  5
116
100
AcDbEntity
  8
0
 62
7
100
AcDbPolyline
 90
2
 70
0
 10
133.000546
 20
357.000408
 30
0.0
 10
133.000546
 20
343.000237
 30
0.0
  0
SPLINE
  5
117
100
AcDbEntity
  8
0
 62
7
100
AcDbSpline
 70
8
 71
3
 72
8
 73
4
 74
0
 40
0
 40
0
 40
0
 40
0
 40
1
 40
1
 40
1
 40
1
 10
143.000460
 20
167.000660
 30
0.0
 10
143.000460
 20
164.230661
 30
0.0
 10
145.230154
 20
162.000438
 30
0.0
 10
148.000153
 20
162.000438
 30
0.0
  0
LWPOLYLINE
  5
118
100
AcDbEntity
  8
0
 62
7
100
AcDbPolyline
 90
3
 70
0
 10
138.000239
 20
338.000015
 30
0.0
 10
143.000460
 20
338.000015
 30
0.0
 10
143.000460
 20
167.000660
 30
0.0
  0
SPLINE
  5
119
100
AcDbEntity
  8
0
 62
7
100
AcDbSpline
 70
8
 71
3
 72
8
 73
4
 74
0
 40
0
 40
0
 40
0
 40
0
 40
1
 40
1
 40
1
 40
1
 10
678.000357
 20
162.000438
 30
0.0
 10
680.770356
 20
162.000438
 30
0.0
 10
683.000050
 20
164.230661
 30
0.0
 10
683.000050
 20
167.000660
 30
0.0
  0
LWPOLYLINE
  5
11a
100
AcDbEntity
  8
0
 62
7
100
AcDbPolyline
 90
2
 70
0
 10
148.000153
 20
162.000438
 30
0.0
 10
678.000357
 20
162.000438
 30
0.0
  0
SPLINE
  5
11b
100
AcDbEntity
  8
0
 62
7
100
AcDbSpline
 70
8
 71
3
 72
8
 73
4
 74
0
 40
0
 40
0
 40
0
 40
0
 40
1
 40
1
 40
1
 40
1
 10
683.000050
 20
333.000323
 30
0.0
 10
683.000050
 20
335.770321
 30
0.0
 10
680.769827
 20
338.000518
 30
0.0
 10
677.999828
 20
338.000518
 30
0.0
  0
LWPOLYLINE
  5
11c
100
AcDbEntity
  8
0
 62
7
100
AcDbPolyline
 90
4
 70
0
 10
683.000050
 20
167.000660
 30
0.0
 10
683.000050
 20
318.990335
 30
0.0
 10
683.000050
 20
319.000654
 30
0.0
 10
683.000050
 20
333.000323
 30
0.0
  0
SPLINE
  5
11d
100
AcDbEntity
  8
0
 62
7
100
AcDbSpline
 70
8
 71
3
 72
8
 73
4
 74
0
 40
0
 40
0
 40
0
 40
0
 40
1
 40
1
 40
1
 40
1
 10
627.999780
 20
338.000518
 30
0.0
 10
625.230522
 20
338.000518
 30
0.0
 10
623.001278
 20
340.229709
 30
0.0
 10
623.000087
 20
342.998676
 30
0.0
  0
LWPOLYLINE
  5
11e
100
AcDbEntity
  8
0
 62
7
100
AcDbPolyline
 90
2
 70
0
 10
677.999828
 20
338.000518
 30
0.0
 10
627.999780
 20
338.000518
 30
0.0
  0
SPLINE
  5
11f
100
AcDbEntity
  8
0
 62
7
100
AcDbSpline
 70
8
 71
3
 72
8
 73
4
 74
0
 40
0
 40
0
 40
0
 40
0
 40
1
 40
1
 40
1
 40
1
 10
623.000087
 20
357.000990
 30
0.0
 10
623.000087
 20
359.770962
 30
0.0
 10
620.770394
 20
362.001185
 30
0.0
 10
618.000395
 20
362.001185
 30
0.0
  0
LWPOLYLINE
  5
120
100
AcDbEntity
  8
0
 62
7
100
AcDbPolyline
 90
3
 70
0
 10
623.000087
 20
342.998676
 30
0.0
 10
623.000087
 20
343.001322
 30
0.0
 10
623.000087
 20
357.000990
 30
0.0
  0
LWPOLYLINE
  5
121
100
AcDbEntity
  8
0
 62
7
100
AcDbPolyline
 90
6
 70
0
 10
618.000395
 20
362.001185
 30
0.0
 10
614.804735
 20
362.001185
 30
0.0
 10
558.000433
 20
362.001185
 30
0.0
 10
148.508629
 20
362.001185
 30
0.0
 10
148.000153
 20
362.001185
 30
0.0
 10
138.000239
 20
362.000630
 30
0.0
  0
SPLINE
  5
122
100
AcDbEntity
  8
0
 62
7
100
AcDbSpline
 70
8
 71
3
 72
8
 73
4
 74
0
 40
0
 40
0
 40
0
 40
0
 40
1
 40
1
 40
1
 40
1
 10
678.000061
 20
159.999952
 30
0.0
 10
679.326143
 20
159.999952
 30
0.0
 10
680.597912
 20
159.473168
 30
0.0
 10
681.535594
 20
158.535486
 30
0.0
  0
SPLINE
  5
123
100
AcDbEntity
  8
0
 62
7
100
AcDbSpline
 70
8
 71
3
 72
8
 73
4
 74
0
 40
0
 40
0
 40
0
 40
0
 40
1
 40
1
 40
1
 40
1
 10
681.535594
 20
158.535486
 30
0.0
 10
682.473276
 20
157.597804
 30
0.0
 10
683.000060
 20
156.326035
 30
0.0
 10
683.000060
 20
154.999952
 30
0.0
  0
LWPOLYLINE
  5
124
100
AcDbEntity
  8
0
 62
7
100
AcDbPolyline
 90
2
 70
0
 10
158.000076
 20
159.999952
 30
0.0
 10
678.000061
 20
159.999952
 30
0.0
  0
SPLINE
  5
125
100
AcDbEntity
  8
0
 62
7
100
AcDbSpline
 70
8
 71
3
 72
8
 73
4
 74
0
 40
0
 40
0
 40
0
 40
0
 40
1
 40
1
 40
1
 40
1
 10
683.000060
 20
4.999958
 30
0.0
 10
683.000060
 20
3.673875
 30
0.0
 10
682.473276
 20
2.402106
 30
0.0
 10
681.535594
 20
1.464424
 30
0.0
  0
SPLINE
  5
126
100
AcDbEntity
  8
0
 62
7
100
AcDbSpline
 70
8
 71
3
 72
8
 73
4
 74
0
 40
0
 40
0
 40
0
 40
0
 40
1
 40
1
 40
1
 40
1
 10
681.535594
 20
1.464424
 30
0.0
 10
680.597912
 20
0.526742
 30
0.0
 10
679.326143
 20
-0.000042
 30
0.0
 10
678.000061
 20
-0.000042
 30
0.0
  0
LWPOLYLINE
  5
127
100
AcDbEntity
  8
0
 62
7
100
AcDbPolyline
 90
2
 70
0
 10
683.000060
 20
154.999952
 30
0.0
 10
683.000060
 20
4.999958
 30
0.0
  0
SPLINE
  5
128
100
AcDbEntity
  8
0
 62
7
100
AcDbSpline
 70
8
 71
3
 72
8
 73
4
 74
0
 40
0
 40
0
 40
0
 40
0
 40
1
 40
1
 40
1
 40
1
 10
158.000076
 20
-0.000042
 30
0.0
 10
156.673993
 20
-0.000042
 30
0.0
 10
155.402224
 20
0.526742
 30
0.0
 10
154.464542
 20
1.464424
 30
0.0
  0
SPLINE
  5
129
100
AcDbEntity
  8
0
 62
7
100
AcDbSpline
 70
8
 71
3
 72
8
 73
4
 74
0
 40
0
 40
0
 40
0
 40
0
 40
1
 40
1
 40
1
 40
1
 10
154.464542
 20
1.464424
 30
0.0
 10
153.526860
 20
2.402106
 30
0.0
 10
153.000076
 20
3.673875
 30
0.0
 10
153.000076
 20
4.999958
 30
0.0
  0
LWPOLYLINE
  5
12a
100
AcDbEntity
  8
0
 62
7
100
AcDbPolyline
 90
2
 70
0
 10
678.000061
 20
-0.000042
 30
0.0
 10
158.000076
 20
-0.000042
 30
0.0
  0
SPLINE
  5
12b
100
AcDbEntity
  8
0
 62
7
100
AcDbSpline
 70
8
 71
3
 72
8
 73
4
 74
0
 40
0
 40
0
 40
0
 40
0
 40
1
 40
1
 40
1
 40
1
 10
153.000076
 20
154.999952
 30
0.0
 10
153.000076
 20
156.326035
 30
0.0
 10
153.526860
 20
157.597804
 30
0.0
 10
154.464542
 20
158.535486
 30
0.0
  0
SPLINE
  5
12c
100
AcDbEntity
  8
0
 62
7
100
AcDbSpline
 70
8
 71
3
 72
8
 73
4
 74
0
 40
0
 40
0
 40
0
 40
0
 40
1
 40
1
 40
1
 40
1
 10
154.464542
 20
158.535486
 30
0.0
 10
155.402224
 20
159.473168
 30
0.0
 10
156.673993
 20
159.999952
 30
0.0
 10
158.000076
 20
159.999952
 30
0.0
  0
LWPOLYLINE
  5
12d
100
AcDbEntity
  8
0
 62
7
100
AcDbPolyline
 90
2
 70
0
 10
153.000076
 20
4.999958
 30
0.0
 10
153.000076
 20
154.999952
 30
0.0
  0
LWPOLYLINE
  5
12e
100
AcDbEntity
  8
0
 62
7
100
AcDbPolyline
 90
1
 70
1
 10
158.000076
 20
159.999952
 30
0.0
  0
SPLINE
  5
12f
100
AcDbEntity
  8
0
 62
7
100
AcDbSpline
 70
8
 71
3
 72
8
 73
4
 74
0
 40
0
 40
0
 40
0
 40
0
 40
1
 40
1
 40
1
 40
1
 10
909.999999
 20
159.999952
 30
0.0
 10
911.326082
 20
159.999952
 30
0.0
 10
912.597851
 20
159.473168
 30
0.0
 10
913.535533
 20
158.535486
 30
0.0
  0
SPLINE
  5
130
100
AcDbEntity
  8
0
 62
7
100
AcDbSpline
 70
8
 71
3
 72
8
 73
4
 74
0
 40
0
 40
0
 40
0
 40
0
 40
1
 40
1
 40
1
 40
1
 10
913.535533
 20
158.535486
 30
0.0
 10
914.473215
 20
157.597804
 30
0.0
 10
914.999999
 20
156.326035
 30
0.0
 10
914.999999
 20
154.999952
 30
0.0
  0
LWPOLYLINE
  5
131
100
AcDbEntity
  8
0
 62
7
100
AcDbPolyline
 90
2
 70
0
 10
690.000006
 20
159.999952
 30
0.0
 10
909.999999
 20
159.999952
 30
0.0
  0
SPLINE
  5
132
100
AcDbEntity
  8
0
 62
7
100
AcDbSpline
 70
8
 71
3
 72
8
 73
4
 74
0
 40
0
 40
0
 40
0
 40
0
 40
1
 40
1
 40
1
 40
1
 10
914.999999
 20
4.999958
 30
0.0
 10
914.999999
 20
3.673875
 30
0.0
 10
914.473215
 20
2.402106
 30
0.0
 10
913.535533
 20
1.464424
 30
0.0
  0
SPLINE
  5
133
100
AcDbEntity
  8
0
 62
7
100
AcDbSpline
 70
8
 71
3
 72
8
 73
4
 74
0
 40
0
 40
0
 40
0
 40
0
 40
1
 40
1
 40
1
 40
1
 10
913.535533
 20
1.464424
 30
0.0
 10
912.597851
 20
0.526742
 30
0.0
 10
911.326082
 20
-0.000042
 30
0.0
 10
909.999999
 20
-0.000042
 30
0.0
  0
LWPOLYLINE
  5
134
100
AcDbEntity
  8
0
 62
7
100
AcDbPolyline
 90
2
 70
0
 10
914.999999
 20
154.999952
 30
0.0
 10
914.999999
 20
4.999958
 30
0.0
  0
SPLINE
  5
135
100
AcDbEntity
  8
0
 62
7
100
AcDbSpline
 70
8
 71
3
 72
8
 73
4
 74
0
 40
0
 40
0
 40
0
 40
0
 40
1
 40
1
 40
1
 40
1
 10
690.000006
 20
-0.000042
 30
0.0
 10
688.673923
 20
-0.000042
 30
0.0
 10
687.402154
 20
0.526742
 30
0.0
 10
686.464472
 20
1.464424
 30
0.0
  0
SPLINE
  5
136
100
AcDbEntity
  8
0
 62
7
100
AcDbSpline
 70
8
 71
3
 72
8
 73
4
 74
0
 40
0
 40
0
 40
0
 40
0
 40
1
 40
1
 40
1
 40
1
 10
686.464472
 20
1.464424
 30
0.0
 10
685.526790
 20
2.402106
 30
0.0
 10
685.000006
 20
3.673875
 30
0.0
 10
685.000006
 20
4.999958
 30
0.0
  0
LWPOLYLINE
  5
137
100
AcDbEntity
  8
0
 62
7
100
AcDbPolyline
 90
2
 70
0
 10
909.999999
 20
-0.000042
 30
0.0
 10
690.000006
 20
-0.000042
 30
0.0
  0
SPLINE
  5
138
100
AcDbEntity
  8
0
 62
7
100
AcDbSpline
 70
8
 71
3
 72
8
 73
4
 74
0
 40
0
 40
0
 40
0
 40
0
 40
1
 40
1
 40
1
 40
1
 10
685.000006
 20
154.999952
 30
0.0
 10
685.000006
 20
156.326035
 30
0.0
 10
685.526790
 20
157.597804
 30
0.0
 10
686.464472
 20
158.535486
 30
0.0
  0
SPLINE
  5
139
100
AcDbEntity
  8
0
 62
7
100
AcDbSpline
 70
8
 71
3
 72
8
 73
4
 74
0
 40
0
 40
0
 40
0
 40
0
 40
1
 40
1
 40
1
 40
1
 10
686.464472
 20
158.535486
 30
0.0
 10
687.402154
 20
159.473168
 30
0.0
 10
688.673923
 20
159.999952
 30
0.0
 10
690.000006
 20
159.999952
 30
0.0
  0
LWPOLYLINE
  5
13a
100
AcDbEntity
  8
0
 62
7
100
AcDbPolyline
 90
2
 70
0
 10
685.000006
 20
4.999958
 30
0.0
 10
685.000006
 20
154.999952
 30
0.0
  0
LWPOLYLINE
  5
13b
100
AcDbEntity
  8
0
 62
7
100
AcDbPolyline
 90
1
 70
1
 10
690.000006
 20
159.999952
 30
0.0
  0
SPLINE
  5
13c
100
AcDbEntity
  8
0
 62
7
100
AcDbSpline
 70
8
 71
3
 72
8
 73
4
 74
0
 40
0
 40
0
 40
0
 40
0
 40
1
 40
1
 40
1
 40
1
 10
909.999999
 20
322.000258
 30
0.0
 10
911.326082
 20
322.000258
 30
0.0
 10
912.597851
 20
321.473474
 30
0.0
 10
913.535533
 20
320.535792
 30
0.0
  0
SPLINE
  5
13d
100
AcDbEntity
  8
0
 62
7
100
AcDbSpline
 70
8
 71
3
 72
8
 73
4
 74
0
 40
0
 40
0
 40
0
 40
0
 40
1
 40
1
 40
1
 40
1
 10
913.535533
 20
320.535792
 30
0.0
 10
914.473215
 20
319.598110
 30
0.0
 10
914.999999
 20
318.326340
 30
0.0
 10
914.999999
 20
317.000258
 30
0.0
  0
LWPOLYLINE
  5
13e
100
AcDbEntity
  8
0
 62
7
100
AcDbPolyline
 90
2
 70
0
 10
690.000006
 20
322.000258
 30
0.0
 10
909.999999
 20
322.000258
 30
0.0
  0
SPLINE
  5
13f
100
AcDbEntity
  8
0
 62
7
100
AcDbSpline
 70
8
 71
3
 72
8
 73
4
 74
0
 40
0
 40
0
 40
0
 40
0
 40
1
 40
1
 40
1
 40
1
 10
914.999999
 20
167.000264
 30
0.0
 10
914.999999
 20
165.674181
 30
0.0
 10
914.473215
 20
164.402411
 30
0.0
 10
913.535533
 20
163.464730
 30
0.0
  0
SPLINE
  5
140
100
AcDbEntity
  8
0
 62
7
100
AcDbSpline
 70
8
 71
3
 72
8
 73
4
 74
0
 40
0
 40
0
 40
0
 40
0
 40
1
 40
1
 40
1
 40
1
 10
913.535533
 20
163.464730
 30
0.0
 10
912.597851
 20
162.527048
 30
0.0
 10
911.326082
 20
162.000263
 30
0.0
 10
909.999999
 20
162.000263
 30
0.0
  0
LWPOLYLINE
  5
141
100
AcDbEntity
  8
0
 62
7
100
AcDbPolyline
 90
2
 70
0
 10
914.999999
 20
317.000258
 30
0.0
 10
914.999999
 20
167.000264
 30
0.0
  0
SPLINE
  5
142
100
AcDbEntity
  8
0
 62
7
100
AcDbSpline
 70
8
 71
3
 72
8
 73
4
 74
0
 40
0
 40
0
 40
0
 40
0
 40
1
 40
1
 40
1
 40
1
 10
690.000006
 20
162.000263
 30
0.0
 10
688.673923
 20
162.000263
 30
0.0
 10
687.402154
 20
162.527048
 30
0.0
 10
686.464472
 20
163.464730
 30
0.0
  0
SPLINE
  5
143
100
AcDbEntity
  8
0
 62
7
100
AcDbSpline
 70
8
 71
3
 72
8
 73
4
 74
0
 40
0
 40
0
 40
0
 40
0
 40
1
 40
1
 40
1
 40
1
 10
686.464472
 20
163.464730
 30
0.0
 10
685.526790
 20
164.402411
 30
0.0
 10
685.000006
 20
165.674181
 30
0.0
 10
685.000006
 20
167.000264
 30
0.0
  0
LWPOLYLINE
  5
144
100
AcDbEntity
  8
0
 62
7
100
AcDbPolyline
 90
2
 70
0
 10
909.999999
 20
162.000263
 30
0.0
 10
690.000006
 20
162.000263
 30
0.0
  0
SPLINE
  5
145
100
AcDbEntity
  8
0
 62
7
100
AcDbSpline
 70
8
 71
3
 72
8
 73
4
 74
0
 40
0
 40
0
 40
0
 40
0
 40
1
 40
1
 40
1
 40
1
 10
685.000006
 20
317.000258
 30
0.0
 10
685.000006
 20
318.326340
 30
0.0
 10
685.526790
 20
319.598110
 30
0.0
 10
686.464472
 20
320.535792
 30
0.0
  0
SPLINE
  5
146
100
AcDbEntity
  8
0
 62
7
100
AcDbSpline
 70
8
 71
3
 72
8
 73
4
 74
0
 40
0
 40
0
 40
0
 40
0
 40
1
 40
1
 40
1
 40
1
 10
686.464472
 20
320.535792
 30
0.0
 10
687.402154
 20
321.473474
 30
0.0
 10
688.673923
 20
322.000258
 30
0.0
 10
690.000006
 20
322.000258
 30
0.0
  0
LWPOLYLINE
  5
147
100
AcDbEntity
  8
0
 62
7
100
AcDbPolyline
 90
2
 70
0
 10
685.000006
 20
167.000264
 30
0.0
 10
685.000006
 20
317.000258
 30
0.0
  0
SPLINE
  5
148
100
AcDbEntity
  8
0
 62
7
100
AcDbSpline
 70
8
 71
3
 72
8
 73
4
 74
0
 40
0
 40
0
 40
0
 40
0
 40
1
 40
1
 40
1
 40
1
 10
754.500165
 20
649.000402
 30
0.0
 10
711.402426
 20
649.000455
 30
0.0
 10
670.069852
 20
631.879950
 30
0.0
 10
639.595156
 20
601.405255
 30
0.0
  0
SPLINE
  5
149
100
AcDbEntity
  8
0
 62
7
100
AcDbSpline
 70
8
 71
3
 72
8
 73
4
 74
0
 40
0
 40
0
 40
0
 40
0
 40
1
 40
1
 40
1
 40
1
 10
639.595156
 20
601.405255
 30
0.0
 10
609.120460
 20
570.930532
 30
0.0
 10
591.999956
 20
529.597951
 30
0.0
 10
592.000009
 20
486.500212
 30
0.0
  0
SPLINE
  5
14a
100
AcDbEntity
  8
0
 62
7
100
AcDbSpline
 70
8
 71
3
 72
8
 73
4
 74
0
 40
0
 40
0
 40
0
 40
0
 40
1
 40
1
 40
1
 40
1
 10
592.000009
 20
486.500212
 30
0.0
 10
591.999956
 20
443.402473
 30
0.0
 10
609.120460
 20
402.069899
 30
0.0
 10
639.595156
 20
371.595203
 30
0.0
  0
SPLINE
  5
14b
100
AcDbEntity
  8
0
 62
7
100
AcDbSpline
 70
8
 71
3
 72
8
 73
4
 74
0
 40
0
 40
0
 40
0
 40
0
 40
1
 40
1
 40
1
 40
1
 10
639.595156
 20
371.595203
 30
0.0
 10
670.069852
 20
341.120507
 30
0.0
 10
711.402426
 20
324.000003
 30
0.0
 10
754.500165
 20
324.000056
 30
0.0
  0
SPLINE
  5
14c
100
AcDbEntity
  8
0
 62
7
100
AcDbSpline
 70
8
 71
3
 72
8
 73
4
 74
0
 40
0
 40
0
 40
0
 40
0
 40
1
 40
1
 40
1
 40
1
 10
754.500165
 20
324.000056
 30
0.0
 10
797.597798
 20
324.000162
 30
0.0
 10
838.930213
 20
341.120719
 30
0.0
 10
869.404803
 20
371.595388
 30
0.0
  0
SPLINE
  5
14d
100
AcDbEntity
  8
0
 62
7
100
AcDbSpline
 70
8
 71
3
 72
8
 73
4
 74
0
 40
0
 40
0
 40
0
 40
0
 40
1
 40
1
 40
1
 40
1
 10
869.404803
 20
371.595388
 30
0.0
 10
899.879393
 20
402.070084
 30
0.0
 10
916.999818
 20
443.402578
 30
0.0
 10
916.999765
 20
486.500212
 30
0.0
  0
SPLINE
  5
14e
100
AcDbEntity
  8
0
 62
7
100
AcDbSpline
 70
8
 71
3
 72
8
 73
4
 74
0
 40
0
 40
0
 40
0
 40
0
 40
1
 40
1
 40
1
 40
1
 10
916.999765
 20
486.500212
 30
0.0
 10
916.999818
 20
529.597871
 30
0.0
 10
899.879393
 20
570.930373
 30
0.0
 10
869.404803
 20
601.405069
 30
0.0
  0
SPLINE
  5
14f
100
AcDbEntity
  8
0
 62
7
100
AcDbSpline
 70
8
 71
3
 72
8
 73
4
 74
0
 40
0
 40
0
 40
0
 40
0
 40
1
 40
1
 40
1
 40
1
 10
869.404803
 20
601.405069
 30
0.0
 10
838.930239
 20
631.879739
 30
0.0
 10
797.597825
 20
649.000296
 30
0.0
 10
754.500165
 20
649.000402
 30
0.0
  0
LWPOLYLINE
  5
150
100
AcDbEntity
  8
0
 62
7
100
AcDbPolyline
 90
1
 70
1
 10
690.000006
 20
322.000258
 30
0.0
  0
LWPOLYLINE
  5
151
100
AcDbEntity
  8
0
 62
7
100
AcDbPolyline
 90
1
 70
1
 10
754.500165
 20
649.000402
 30
0.0
  0
ENDSEC
  0
SECTION
  2
OBJECTS
  0
DICTIONARY
  5
C
330
0
100
AcDbDictionary
  3
ACAD_GROUP
350
D
  3
ACAD_MLINESTYLE
350
17
  0
DICTIONARY
  5
D
330
C
100
AcDbDictionary
  0
DICTIONARY
  5
1A
330
C
100
AcDbDictionary
  0
DICTIONARY
  5
17
330
C
100
AcDbDictionary
  3
STANDARD
350
18
  0
DICTIONARY
  5
19
330
C
100
AcDbDictionary
  0
ENDSEC
  0
EOF
