  0
SECTION
  2
HEADER
  9
$ACADVER
  1
AC1014
  9
$HANDSEED
  5
FFFF
  9
$INSUNITS
 70
     4
  9
$MEASUREMENT
 70
     1
  0
ENDSEC
  0
SECTION
  2
TABLES
  0
TABLE
  2
VPORT
  5
8
330
0
100
AcDbSymbolTable
 70
     4
  0
VPORT
  5
2E
330
8
100
AcDbSymbolTableRecord
100
AcDbViewportTableRecord
  2
*ACTIVE
 70
     0
 10
0.0
 20
0.0
 11
1.0
 21
1.0
 12
210.0
 22
148.5
 13
0.0
 23
0.0
 14
10.0
 24
10.0
 15
10.0
 25
10.0
 16
0.0
 26
0.0
 36
1.0
 17
0.0
 27
0.0
 37
0.0
 40
341.0
 41
1.24
 42
50.0
 43
0.0
 44
0.0
 50
0.0
 51
0.0
 71
     0
 72
   100
 73
     1
 74
     3
 75
     0
 76
     0
 77
     0
 78
     0
  0
ENDTAB
  0
TABLE
  2
LTYPE
  5
5
330
0
100
AcDbSymbolTable
 70
     1
  0
LTYPE
  5
14
330
5
100
AcDbSymbolTableRecord
100
AcDbLinetypeTableRecord
  2
BYBLOCK
 70
     0
  3

 72
    65
 73
     0
 40
0.0
  0
LTYPE
  5
15
330
5
100
AcDbSymbolTableRecord
100
AcDbLinetypeTableRecord
  2
BYLAYER
 70
     0
  3

 72
    65
 73
     0
 40
0.0
  0
LTYPE
  5
16
330
5
100
AcDbSymbolTableRecord
100
AcDbLinetypeTableRecord
  2
CONTINUOUS
 70
     0
  3
Solid line
 72
    65
 73
     0
 40
0.0
  0
ENDTAB
  0
TABLE
  2
LAYER
  5
2
100
AcDbSymbolTable
 70
1
  0
LAYER
  5
50
100
AcDbSymbolTableRecord
100
AcDbLayerTableRecord
  2
0
 70
0
  6
CONTINUOUS
  0
ENDTAB
  0
TABLE
  2
STYLE
  5
3
330
0
100
AcDbSymbolTable
 70
     1
  0
STYLE
  5
11
330
3
100
AcDbSymbolTableRecord
100
AcDbTextStyleTableRecord
  2
STANDARD
 70
     0
 40
0.0
 41
1.0
 50
0.0
 71
     0
 42
2.5
  3
txt
  4

  0
ENDTAB
  0
TABLE
  2
VIEW
  5
6
330
0
100
AcDbSymbolTable
 70
     0
  0
ENDTAB
  0
TABLE
  2
UCS
  5
7
330
0
100
AcDbSymbolTable
 70
     0
  0
ENDTAB
  0
TABLE
  2
APPID
  5
9
330
0
100
AcDbSymbolTable
 70
     2
  0
APPID
  5
12
330
9
100
AcDbSymbolTableRecord
100
AcDbRegAppTableRecord
  2
ACAD
 70
     0
  0
ENDTAB
  0
TABLE
  2
DIMSTYLE
  5
A
330
0
100
AcDbSymbolTable
 70
     1
  0
DIMSTYLE
105
27
330
A
100
AcDbSymbolTableRecord
100
AcDbDimStyleTableRecord
  2
ISO-25
 70
     0
  3

  4

  5

  6

  7

 40
1.0
 41
2.5
 42
0.625
 43
3.75
 44
1.25
 45
0.0
 46
0.0
 47
0.0
 48
0.0
140
2.5
141
2.5
142
0.0
143
0.03937007874016
144
1.0
145
0.0
146
1.0
147
0.625
 71
     0
 72
     0
 73
     0
 74
     0
 75
     0
 76
     0
 77
     1
 78
     8
170
     0
171
     3
172
     1
173
     0
174
     0
175
     0
176
     0
177
     0
178
     0
270
     2
271
     2
272
     2
273
     2
274
     3
340
11
275
     0
280
     0
281
     0
282
     0
283
     0
284
     8
285
     0
286
     0
287
     3
288
     0
  0
ENDTAB
  0
TABLE
  2
BLOCK_RECORD
  5
1
330
0
100
AcDbSymbolTable
 70
     1
  0
BLOCK_RECORD
  5
1F
330
1
100
AcDbSymbolTableRecord
100
AcDbBlockTableRecord
  2
*MODEL_SPACE
  0
BLOCK_RECORD
  5
1B
330
1
100
AcDbSymbolTableRecord
100
AcDbBlockTableRecord
  2
*PAPER_SPACE
  0
ENDTAB
  0
ENDSEC
  0
SECTION
  2
BLOCKS
  0
BLOCK
  5
20
330
1F
100
AcDbEntity
  8
0
100
AcDbBlockBegin
  2
*MODEL_SPACE
 70
     0
 10
0.0
 20
0.0
 30
0.0
  3
*MODEL_SPACE
  1

  0
ENDBLK
  5
21
330
1F
100
AcDbEntity
  8
0
100
AcDbBlockEnd
  0
BLOCK
  5
1C
330
1B
100
AcDbEntity
 67
     1
  8
0
100
AcDbBlockBegin
  2
*PAPER_SPACE
  1

  0
ENDBLK
  5
1D
330
1B
100
AcDbEntity
 67
     1
  8
0
100
AcDbBlockEnd
  0
ENDSEC
  0
SECTION
  2
ENTITIES
  0
SPLINE
  5
100
100
AcDbEntity
  8
0
 62
7
100
AcDbSpline
 70
8
 71
3
 72
8
 73
4
 74
0
 40
0
 40
0
 40
0
 40
0
 40
1
 40
1
 40
1
 40
1
 10
37.499845
 20
800.000000
 30
0.0
 10
34.729926
 20
800.000000
 30
0.0
 10
32.500021
 20
797.769777
 30
0.0
 10
32.500021
 20
794.999778
 30
0.0
  0
SPLINE
  5
101
100
AcDbEntity
  8
0
 62
7
100
AcDbSpline
 70
8
 71
3
 72
8
 73
4
 74
0
 40
0
 40
0
 40
0
 40
0
 40
1
 40
1
 40
1
 40
1
 10
14.999971
 20
789.982015
 30
0.0
 10
12.230052
 20
789.982015
 30
0.0
 10
10.000146
 20
787.751792
 30
0.0
 10
10.000146
 20
784.981793
 30
0.0
  0
LWPOLYLINE
  5
102
100
AcDbEntity
  8
0
 62
7
100
AcDbPolyline
 90
3
 70
0
 10
32.500021
 20
794.999778
 30
0.0
 10
32.500021
 20
789.982015
 30
0.0
 10
14.999971
 20
789.982015
 30
0.0
  0
SPLINE
  5
103
100
AcDbEntity
  8
0
 62
7
100
AcDbSpline
 70
8
 71
3
 72
8
 73
4
 74
0
 40
0
 40
0
 40
0
 40
0
 40
1
 40
1
 40
1
 40
1
 10
10.000146
 20
245.000256
 30
0.0
 10
10.000146
 20
242.230257
 30
0.0
 10
12.230052
 20
240.000061
 30
0.0
 10
14.999971
 20
240.000061
 30
0.0
  0
LWPOLYLINE
  5
104
100
AcDbEntity
  8
0
 62
7
100
AcDbPolyline
 90
2
 70
0
 10
10.000146
 20
784.981793
 30
0.0
 10
10.000146
 20
245.000256
 30
0.0
  0
SPLINE
  5
105
100
AcDbEntity
  8
0
 62
7
100
AcDbSpline
 70
8
 71
3
 72
8
 73
4
 74
0
 40
0
 40
0
 40
0
 40
0
 40
1
 40
1
 40
1
 40
1
 10
32.500021
 20
234.999839
 30
0.0
 10
32.500021
 20
232.229840
 30
0.0
 10
34.729926
 20
229.999644
 30
0.0
 10
37.499845
 20
229.999644
 30
0.0
  0
LWPOLYLINE
  5
106
100
AcDbEntity
  8
0
 62
7
100
AcDbPolyline
 90
3
 70
0
 10
14.999971
 20
240.000061
 30
0.0
 10
32.500021
 20
240.000061
 30
0.0
 10
32.500021
 20
234.999839
 30
0.0
  0
SPLINE
  5
107
100
AcDbEntity
  8
0
 62
7
100
AcDbSpline
 70
8
 71
3
 72
8
 73
4
 74
0
 40
0
 40
0
 40
0
 40
0
 40
1
 40
1
 40
1
 40
1
 10
772.500037
 20
229.999644
 30
0.0
 10
775.269957
 20
229.999644
 30
0.0
 10
777.500127
 20
232.229840
 30
0.0
 10
777.500127
 20
234.999839
 30
0.0
  0
LWPOLYLINE
  5
108
100
AcDbEntity
  8
0
 62
7
100
AcDbPolyline
 90
2
 70
0
 10
37.499845
 20
229.999644
 30
0.0
 10
772.500037
 20
229.999644
 30
0.0
  0
SPLINE
  5
109
100
AcDbEntity
  8
0
 62
7
100
AcDbSpline
 70
8
 71
3
 72
8
 73
4
 74
0
 40
0
 40
0
 40
0
 40
0
 40
1
 40
1
 40
1
 40
1
 10
794.999911
 20
240.000061
 30
0.0
 10
797.769830
 20
240.000061
 30
0.0
 10
800.000000
 20
242.230257
 30
0.0
 10
800.000000
 20
245.000256
 30
0.0
  0
LWPOLYLINE
  5
10a
100
AcDbEntity
  8
0
 62
7
100
AcDbPolyline
 90
3
 70
0
 10
777.500127
 20
234.999839
 30
0.0
 10
777.500127
 20
240.000061
 30
0.0
 10
794.999911
 20
240.000061
 30
0.0
  0
SPLINE
  5
10b
100
AcDbEntity
  8
0
 62
7
100
AcDbSpline
 70
8
 71
3
 72
8
 73
4
 74
0
 40
0
 40
0
 40
0
 40
0
 40
1
 40
1
 40
1
 40
1
 10
800.000000
 20
784.981793
 30
0.0
 10
800.000000
 20
787.751792
 30
0.0
 10
797.769830
 20
789.982015
 30
0.0
 10
794.999911
 20
789.982015
 30
0.0
  0
LWPOLYLINE
  5
10c
100
AcDbEntity
  8
0
 62
7
100
AcDbPolyline
 90
2
 70
0
 10
800.000000
 20
245.000256
 30
0.0
 10
800.000000
 20
784.981793
 30
0.0
  0
SPLINE
  5
10d
100
AcDbEntity
  8
0
 62
7
100
AcDbSpline
 70
8
 71
3
 72
8
 73
4
 74
0
 40
0
 40
0
 40
0
 40
0
 40
1
 40
1
 40
1
 40
1
 10
777.500127
 20
794.999778
 30
0.0
 10
777.500127
 20
797.769777
 30
0.0
 10
775.269957
 20
800.000000
 30
0.0
 10
772.500037
 20
800.000000
 30
0.0
  0
LWPOLYLINE
  5
10e
100
AcDbEntity
  8
0
 62
7
100
AcDbPolyline
 90
3
 70
0
 10
794.999911
 20
789.982015
 30
0.0
 10
777.500127
 20
789.982015
 30
0.0
 10
777.500127
 20
794.999778
 30
0.0
  0
SPLINE
  5
10f
100
AcDbEntity
  8
0
 62
7
100
AcDbSpline
 70
8
 71
3
 72
8
 73
4
 74
0
 40
0
 40
0
 40
0
 40
0
 40
1
 40
1
 40
1
 40
1
 10
510.320513
 20
169.999814
 30
0.0
 10
510.320513
 20
174.154614
 30
0.0
 10
506.975390
 20
177.499419
 30
0.0
 10
502.820379
 20
177.499419
 30
0.0
  0
LWPOLYLINE
  5
110
100
AcDbEntity
  8
0
 62
7
100
AcDbPolyline
 90
2
 70
0
 10
772.500037
 20
800.000000
 30
0.0
 10
37.499845
 20
800.000000
 30
0.0
  0
SPLINE
  5
111
100
AcDbEntity
  8
0
 62
7
100
AcDbSpline
 70
8
 71
3
 72
8
 73
4
 74
0
 40
0
 40
0
 40
0
 40
0
 40
1
 40
1
 40
1
 40
1
 10
109.631785
 20
177.499419
 30
0.0
 10
108.768186
 20
178.989947
 30
0.0
 10
107.174338
 20
179.999516
 30
0.0
 10
105.320934
 20
179.999516
 30
0.0
  0
LWPOLYLINE
  5
112
100
AcDbEntity
  8
0
 62
7
100
AcDbPolyline
 90
2
 70
0
 10
502.820379
 20
177.499419
 30
0.0
 10
109.631785
 20
177.499419
 30
0.0
  0
SPLINE
  5
113
100
AcDbEntity
  8
0
 62
7
100
AcDbSpline
 70
8
 71
3
 72
8
 73
4
 74
0
 40
0
 40
0
 40
0
 40
0
 40
1
 40
1
 40
1
 40
1
 10
15.321440
 20
179.999516
 30
0.0
 10
12.551256
 20
179.999516
 30
0.0
 10
10.320556
 20
177.769135
 30
0.0
 10
10.320556
 20
174.999321
 30
0.0
  0
LWPOLYLINE
  5
114
100
AcDbEntity
  8
0
 62
7
100
AcDbPolyline
 90
2
 70
0
 10
105.320934
 20
179.999516
 30
0.0
 10
15.321440
 20
179.999516
 30
0.0
  0
SPLINE
  5
115
100
AcDbEntity
  8
0
 62
7
100
AcDbSpline
 70
8
 71
3
 72
8
 73
4
 74
0
 40
0
 40
0
 40
0
 40
0
 40
1
 40
1
 40
1
 40
1
 10
10.320556
 20
164.999407
 30
0.0
 10
10.320556
 20
162.229170
 30
0.0
 10
12.551256
 20
159.999873
 30
0.0
 10
15.321440
 20
159.999873
 30
0.0
  0
LWPOLYLINE
  5
116
100
AcDbEntity
  8
0
 62
7
100
AcDbPolyline
 90
2
 70
0
 10
10.320556
 20
174.999321
 30
0.0
 10
10.320556
 20
164.999407
 30
0.0
  0
SPLINE
  5
117
100
AcDbEntity
  8
0
 62
7
100
AcDbSpline
 70
8
 71
3
 72
8
 73
4
 74
0
 40
0
 40
0
 40
0
 40
0
 40
1
 40
1
 40
1
 40
1
 10
105.320934
 20
159.999873
 30
0.0
 10
107.174338
 20
159.999873
 30
0.0
 10
108.768186
 20
161.009680
 30
0.0
 10
109.631785
 20
162.499971
 30
0.0
  0
LWPOLYLINE
  5
118
100
AcDbEntity
  8
0
 62
7
100
AcDbPolyline
 90
2
 70
0
 10
15.321440
 20
159.999873
 30
0.0
 10
105.320934
 20
159.999873
 30
0.0
  0
SPLINE
  5
119
100
AcDbEntity
  8
0
 62
7
100
AcDbSpline
 70
8
 71
3
 72
8
 73
4
 74
0
 40
0
 40
0
 40
0
 40
0
 40
1
 40
1
 40
1
 40
1
 10
502.820379
 20
162.499971
 30
0.0
 10
506.975390
 20
162.499971
 30
0.0
 10
510.320513
 20
165.844564
 30
0.0
 10
510.320513
 20
169.999814
 30
0.0
  0
LWPOLYLINE
  5
11a
100
AcDbEntity
  8
0
 62
7
100
AcDbPolyline
 90
2
 70
0
 10
109.631785
 20
162.499971
 30
0.0
 10
502.820379
 20
162.499971
 30
0.0
  0
SPLINE
  5
11b
100
AcDbEntity
  8
0
 62
7
100
AcDbSpline
 70
8
 71
3
 72
8
 73
4
 74
0
 40
0
 40
0
 40
0
 40
0
 40
1
 40
1
 40
1
 40
1
 10
504.820097
 20
169.999814
 30
0.0
 10
504.820117
 20
168.895340
 30
0.0
 10
503.924852
 20
167.999934
 30
0.0
 10
502.820379
 20
167.999778
 30
0.0
  0
SPLINE
  5
11c
100
AcDbEntity
  8
0
 62
7
100
AcDbSpline
 70
8
 71
3
 72
8
 73
4
 74
0
 40
0
 40
0
 40
0
 40
0
 40
1
 40
1
 40
1
 40
1
 10
502.820379
 20
167.999778
 30
0.0
 10
502.289851
 20
167.999642
 30
0.0
 10
501.781006
 20
168.210301
 30
0.0
 10
501.405821
 20
168.585396
 30
0.0
  0
SPLINE
  5
11d
100
AcDbEntity
  8
0
 62
7
100
AcDbSpline
 70
8
 71
3
 72
8
 73
4
 74
0
 40
0
 40
0
 40
0
 40
0
 40
1
 40
1
 40
1
 40
1
 10
501.405821
 20
168.585396
 30
0.0
 10
501.030637
 20
168.960491
 30
0.0
 10
500.819857
 20
169.469286
 30
0.0
 10
500.819867
 20
169.999814
 30
0.0
  0
SPLINE
  5
11e
100
AcDbEntity
  8
0
 62
7
100
AcDbSpline
 70
8
 71
3
 72
8
 73
4
 74
0
 40
0
 40
0
 40
0
 40
0
 40
1
 40
1
 40
1
 40
1
 10
500.819867
 20
169.999814
 30
0.0
 10
500.819801
 20
170.530378
 30
0.0
 10
501.030556
 20
171.039227
 30
0.0
 10
501.405747
 20
171.414368
 30
0.0
  0
SPLINE
  5
11f
100
AcDbEntity
  8
0
 62
7
100
AcDbSpline
 70
8
 71
3
 72
8
 73
4
 74
0
 40
0
 40
0
 40
0
 40
0
 40
1
 40
1
 40
1
 40
1
 10
501.405747
 20
171.414368
 30
0.0
 10
501.780937
 20
171.789509
 30
0.0
 10
502.289814
 20
172.000197
 30
0.0
 10
502.820379
 20
172.000061
 30
0.0
  0
SPLINE
  5
120
100
AcDbEntity
  8
0
 62
7
100
AcDbSpline
 70
8
 71
3
 72
8
 73
4
 74
0
 40
0
 40
0
 40
0
 40
0
 40
1
 40
1
 40
1
 40
1
 10
502.820379
 20
172.000061
 30
0.0
 10
503.924935
 20
171.999906
 30
0.0
 10
504.820234
 20
171.104370
 30
0.0
 10
504.820097
 20
169.999814
 30
0.0
  0
LWPOLYLINE
  5
121
100
AcDbEntity
  8
0
 62
7
100
AcDbPolyline
 90
1
 70
1
 10
510.320513
 20
169.999814
 30
0.0
  0
SPLINE
  5
122
100
AcDbEntity
  8
0
 62
7
100
AcDbSpline
 70
8
 71
3
 72
8
 73
4
 74
0
 40
0
 40
0
 40
0
 40
0
 40
1
 40
1
 40
1
 40
1
 10
454.819996
 20
169.999814
 30
0.0
 10
454.820016
 20
168.895340
 30
0.0
 10
453.924751
 20
167.999934
 30
0.0
 10
452.820278
 20
167.999778
 30
0.0
  0
SPLINE
  5
123
100
AcDbEntity
  8
0
 62
7
100
AcDbSpline
 70
8
 71
3
 72
8
 73
4
 74
0
 40
0
 40
0
 40
0
 40
0
 40
1
 40
1
 40
1
 40
1
 10
452.820278
 20
167.999778
 30
0.0
 10
452.289750
 20
167.999642
 30
0.0
 10
451.780905
 20
168.210301
 30
0.0
 10
451.405721
 20
168.585396
 30
0.0
  0
SPLINE
  5
124
100
AcDbEntity
  8
0
 62
7
100
AcDbSpline
 70
8
 71
3
 72
8
 73
4
 74
0
 40
0
 40
0
 40
0
 40
0
 40
1
 40
1
 40
1
 40
1
 10
451.405721
 20
168.585396
 30
0.0
 10
451.030536
 20
168.960491
 30
0.0
 10
450.819756
 20
169.469286
 30
0.0
 10
450.819766
 20
169.999814
 30
0.0
  0
SPLINE
  5
125
100
AcDbEntity
  8
0
 62
7
100
AcDbSpline
 70
8
 71
3
 72
8
 73
4
 74
0
 40
0
 40
0
 40
0
 40
0
 40
1
 40
1
 40
1
 40
1
 10
450.819766
 20
169.999814
 30
0.0
 10
450.819700
 20
170.530378
 30
0.0
 10
451.030455
 20
171.039227
 30
0.0
 10
451.405646
 20
171.414368
 30
0.0
  0
SPLINE
  5
126
100
AcDbEntity
  8
0
 62
7
100
AcDbSpline
 70
8
 71
3
 72
8
 73
4
 74
0
 40
0
 40
0
 40
0
 40
0
 40
1
 40
1
 40
1
 40
1
 10
451.405646
 20
171.414368
 30
0.0
 10
451.780836
 20
171.789509
 30
0.0
 10
452.289713
 20
172.000197
 30
0.0
 10
452.820278
 20
172.000061
 30
0.0
  0
SPLINE
  5
127
100
AcDbEntity
  8
0
 62
7
100
AcDbSpline
 70
8
 71
3
 72
8
 73
4
 74
0
 40
0
 40
0
 40
0
 40
0
 40
1
 40
1
 40
1
 40
1
 10
452.820278
 20
172.000061
 30
0.0
 10
453.924834
 20
171.999906
 30
0.0
 10
454.820133
 20
171.104370
 30
0.0
 10
454.819996
 20
169.999814
 30
0.0
  0
LWPOLYLINE
  5
128
100
AcDbEntity
  8
0
 62
7
100
AcDbPolyline
 90
1
 70
1
 10
504.820097
 20
169.999814
 30
0.0
  0
SPLINE
  5
129
100
AcDbEntity
  8
0
 62
7
100
AcDbSpline
 70
8
 71
3
 72
8
 73
4
 74
0
 40
0
 40
0
 40
0
 40
0
 40
1
 40
1
 40
1
 40
1
 10
801.999718
 20
694.982035
 30
0.0
 10
801.999718
 20
693.128631
 30
0.0
 10
803.009367
 20
691.534783
 30
0.0
 10
804.500028
 20
690.671184
 30
0.0
  0
LWPOLYLINE
  5
12a
100
AcDbEntity
  8
0
 62
7
100
AcDbPolyline
 90
1
 70
1
 10
454.819996
 20
169.999814
 30
0.0
  0
SPLINE
  5
12b
100
AcDbEntity
  8
0
 62
7
100
AcDbSpline
 70
8
 71
3
 72
8
 73
4
 74
0
 40
0
 40
0
 40
0
 40
0
 40
1
 40
1
 40
1
 40
1
 10
804.500028
 20
297.482860
 30
0.0
 10
804.500028
 20
293.327849
 30
0.0
 10
807.844621
 20
289.982197
 30
0.0
 10
811.999633
 20
289.982197
 30
0.0
  0
SPLINE
  5
12c
100
AcDbEntity
  8
0
 62
7
100
AcDbSpline
 70
8
 71
3
 72
8
 73
4
 74
0
 40
0
 40
0
 40
0
 40
0
 40
1
 40
1
 40
1
 40
1
 10
811.999633
 20
289.982197
 30
0.0
 10
816.154644
 20
289.982197
 30
0.0
 10
819.499238
 20
293.327849
 30
0.0
 10
819.499238
 20
297.482860
 30
0.0
  0
LWPOLYLINE
  5
12d
100
AcDbEntity
  8
0
 62
7
100
AcDbPolyline
 90
2
 70
0
 10
804.500028
 20
690.671184
 30
0.0
 10
804.500028
 20
297.482860
 30
0.0
  0
SPLINE
  5
12e
100
AcDbEntity
  8
0
 62
7
100
AcDbSpline
 70
8
 71
3
 72
8
 73
4
 74
0
 40
0
 40
0
 40
0
 40
0
 40
1
 40
1
 40
1
 40
1
 10
819.499238
 20
690.671184
 30
0.0
 10
820.989898
 20
691.534783
 30
0.0
 10
821.999547
 20
693.128631
 30
0.0
 10
821.999547
 20
694.982035
 30
0.0
  0
LWPOLYLINE
  5
12f
100
AcDbEntity
  8
0
 62
7
100
AcDbPolyline
 90
2
 70
0
 10
819.499238
 20
297.482860
 30
0.0
 10
819.499238
 20
690.671184
 30
0.0
  0
SPLINE
  5
130
100
AcDbEntity
  8
0
 62
7
100
AcDbSpline
 70
8
 71
3
 72
8
 73
4
 74
0
 40
0
 40
0
 40
0
 40
0
 40
1
 40
1
 40
1
 40
1
 10
821.999547
 20
784.981793
 30
0.0
 10
821.999547
 20
787.751712
 30
0.0
 10
819.769377
 20
789.982147
 30
0.0
 10
816.999193
 20
789.982147
 30
0.0
  0
LWPOLYLINE
  5
131
100
AcDbEntity
  8
0
 62
7
100
AcDbPolyline
 90
2
 70
0
 10
821.999547
 20
694.982035
 30
0.0
 10
821.999547
 20
784.981793
 30
0.0
  0
SPLINE
  5
132
100
AcDbEntity
  8
0
 62
7
100
AcDbSpline
 70
8
 71
3
 72
8
 73
4
 74
0
 40
0
 40
0
 40
0
 40
0
 40
1
 40
1
 40
1
 40
1
 10
806.999279
 20
789.982147
 30
0.0
 10
804.229359
 20
789.982147
 30
0.0
 10
801.999718
 20
787.751712
 30
0.0
 10
801.999718
 20
784.981793
 30
0.0
  0
LWPOLYLINE
  5
133
100
AcDbEntity
  8
0
 62
7
100
AcDbPolyline
 90
2
 70
0
 10
816.999193
 20
789.982147
 30
0.0
 10
806.999279
 20
789.982147
 30
0.0
  0
SPLINE
  5
134
100
AcDbEntity
  8
0
 62
7
100
AcDbSpline
 70
8
 71
3
 72
8
 73
4
 74
0
 40
0
 40
0
 40
0
 40
0
 40
1
 40
1
 40
1
 40
1
 10
654.000986
 20
193.999741
 30
0.0
 10
656.771170
 20
193.999741
 30
0.0
 10
659.000811
 20
196.229911
 30
0.0
 10
659.000811
 20
198.999909
 30
0.0
  0
SPLINE
  5
135
100
AcDbEntity
  8
0
 62
7
100
AcDbSpline
 70
8
 71
3
 72
8
 73
4
 74
0
 40
0
 40
0
 40
0
 40
0
 40
1
 40
1
 40
1
 40
1
 10
659.000811
 20
198.999909
 30
0.0
 10
659.000811
 20
201.769935
 30
0.0
 10
656.771170
 20
203.999655
 30
0.0
 10
654.000986
 20
203.999655
 30
0.0
  0
LWPOLYLINE
  5
136
100
AcDbEntity
  8
0
 62
7
100
AcDbPolyline
 90
2
 70
0
 10
801.999718
 20
784.981793
 30
0.0
 10
801.999718
 20
694.982035
 30
0.0
  0
SPLINE
  5
137
100
AcDbEntity
  8
0
 62
7
100
AcDbSpline
 70
8
 71
3
 72
8
 73
4
 74
0
 40
0
 40
0
 40
0
 40
0
 40
1
 40
1
 40
1
 40
1
 10
109.834191
 20
203.999655
 30
0.0
 10
107.064271
 20
203.999655
 30
0.0
 10
104.833837
 20
201.769935
 30
0.0
 10
104.833837
 20
198.999909
 30
0.0
  0
SPLINE
  5
138
100
AcDbEntity
  8
0
 62
7
100
AcDbSpline
 70
8
 71
3
 72
8
 73
4
 74
0
 40
0
 40
0
 40
0
 40
0
 40
1
 40
1
 40
1
 40
1
 10
104.833837
 20
198.999909
 30
0.0
 10
104.833837
 20
196.229911
 30
0.0
 10
107.064271
 20
193.999741
 30
0.0
 10
109.834191
 20
193.999741
 30
0.0
  0
LWPOLYLINE
  5
139
100
AcDbEntity
  8
0
 62
7
100
AcDbPolyline
 90
2
 70
0
 10
654.000986
 20
203.999655
 30
0.0
 10
109.834191
 20
203.999655
 30
0.0
  0
SPLINE
  5
13a
100
AcDbEntity
  8
0
 62
7
100
AcDbSpline
 70
8
 71
3
 72
8
 73
4
 74
0
 40
0
 40
0
 40
0
 40
0
 40
1
 40
1
 40
1
 40
1
 10
109.834241
 20
201.481839
 30
0.0
 10
108.823085
 20
201.481839
 30
0.0
 10
107.911495
 20
200.872733
 30
0.0
 10
107.524542
 20
199.938547
 30
0.0
  0
SPLINE
  5
13b
100
AcDbEntity
  8
0
 62
7
100
AcDbSpline
 70
8
 71
3
 72
8
 73
4
 74
0
 40
0
 40
0
 40
0
 40
0
 40
1
 40
1
 40
1
 40
1
 10
107.524542
 20
199.938547
 30
0.0
 10
107.137590
 20
199.004361
 30
0.0
 10
107.351479
 20
197.929066
 30
0.0
 10
108.066474
 20
197.214071
 30
0.0
  0
SPLINE
  5
13c
100
AcDbEntity
  8
0
 62
7
100
AcDbSpline
 70
8
 71
3
 72
8
 73
4
 74
0
 40
0
 40
0
 40
0
 40
0
 40
1
 40
1
 40
1
 40
1
 10
108.066474
 20
197.214071
 30
0.0
 10
108.781469
 20
196.499076
 30
0.0
 10
109.856764
 20
196.285187
 30
0.0
 10
110.790950
 20
196.672139
 30
0.0
  0
SPLINE
  5
13d
100
AcDbEntity
  8
0
 62
7
100
AcDbSpline
 70
8
 71
3
 72
8
 73
4
 74
0
 40
0
 40
0
 40
0
 40
0
 40
1
 40
1
 40
1
 40
1
 10
110.790950
 20
196.672139
 30
0.0
 10
111.725136
 20
197.059092
 30
0.0
 10
112.334241
 20
197.970683
 30
0.0
 10
112.334241
 20
198.981838
 30
0.0
  0
SPLINE
  5
13e
100
AcDbEntity
  8
0
 62
7
100
AcDbSpline
 70
8
 71
3
 72
8
 73
4
 74
0
 40
0
 40
0
 40
0
 40
0
 40
1
 40
1
 40
1
 40
1
 10
112.334241
 20
198.981838
 30
0.0
 10
112.334241
 20
200.362550
 30
0.0
 10
111.214953
 20
201.481839
 30
0.0
 10
109.834241
 20
201.481839
 30
0.0
  0
LWPOLYLINE
  5
13f
100
AcDbEntity
  8
0
 62
7
100
AcDbPolyline
 90
2
 70
0
 10
109.834191
 20
193.999741
 30
0.0
 10
654.000986
 20
193.999741
 30
0.0
  0
SPLINE
  5
140
100
AcDbEntity
  8
0
 62
7
100
AcDbSpline
 70
8
 71
3
 72
8
 73
4
 74
0
 40
0
 40
0
 40
0
 40
0
 40
1
 40
1
 40
1
 40
1
 10
474.834245
 20
201.481839
 30
0.0
 10
473.823089
 20
201.481839
 30
0.0
 10
472.911498
 20
200.872733
 30
0.0
 10
472.524546
 20
199.938547
 30
0.0
  0
SPLINE
  5
141
100
AcDbEntity
  8
0
 62
7
100
AcDbSpline
 70
8
 71
3
 72
8
 73
4
 74
0
 40
0
 40
0
 40
0
 40
0
 40
1
 40
1
 40
1
 40
1
 10
472.524546
 20
199.938547
 30
0.0
 10
472.137593
 20
199.004361
 30
0.0
 10
472.351482
 20
197.929066
 30
0.0
 10
473.066477
 20
197.214071
 30
0.0
  0
SPLINE
  5
142
100
AcDbEntity
  8
0
 62
7
100
AcDbSpline
 70
8
 71
3
 72
8
 73
4
 74
0
 40
0
 40
0
 40
0
 40
0
 40
1
 40
1
 40
1
 40
1
 10
473.066477
 20
197.214071
 30
0.0
 10
473.781473
 20
196.499076
 30
0.0
 10
474.856767
 20
196.285187
 30
0.0
 10
475.790953
 20
196.672139
 30
0.0
  0
SPLINE
  5
143
100
AcDbEntity
  8
0
 62
7
100
AcDbSpline
 70
8
 71
3
 72
8
 73
4
 74
0
 40
0
 40
0
 40
0
 40
0
 40
1
 40
1
 40
1
 40
1
 10
475.790953
 20
196.672139
 30
0.0
 10
476.725139
 20
197.059092
 30
0.0
 10
477.334245
 20
197.970683
 30
0.0
 10
477.334245
 20
198.981838
 30
0.0
  0
SPLINE
  5
144
100
AcDbEntity
  8
0
 62
7
100
AcDbSpline
 70
8
 71
3
 72
8
 73
4
 74
0
 40
0
 40
0
 40
0
 40
0
 40
1
 40
1
 40
1
 40
1
 10
477.334245
 20
198.981838
 30
0.0
 10
477.334245
 20
199.644880
 30
0.0
 10
477.070853
 20
200.280764
 30
0.0
 10
476.602012
 20
200.749605
 30
0.0
  0
SPLINE
  5
145
100
AcDbEntity
  8
0
 62
7
100
AcDbSpline
 70
8
 71
3
 72
8
 73
4
 74
0
 40
0
 40
0
 40
0
 40
0
 40
1
 40
1
 40
1
 40
1
 10
476.602012
 20
200.749605
 30
0.0
 10
476.133171
 20
201.218446
 30
0.0
 10
475.497286
 20
201.481839
 30
0.0
 10
474.834245
 20
201.481839
 30
0.0
  0
LWPOLYLINE
  5
146
100
AcDbEntity
  8
0
 62
7
100
AcDbPolyline
 90
1
 70
1
 10
109.834241
 20
201.481839
 30
0.0
  0
SPLINE
  5
147
100
AcDbEntity
  8
0
 62
7
100
AcDbSpline
 70
8
 71
3
 72
8
 73
4
 74
0
 40
0
 40
0
 40
0
 40
0
 40
1
 40
1
 40
1
 40
1
 10
654.000589
 20
201.481839
 30
0.0
 10
652.989433
 20
201.481839
 30
0.0
 10
652.077843
 20
200.872733
 30
0.0
 10
651.690890
 20
199.938547
 30
0.0
  0
SPLINE
  5
148
100
AcDbEntity
  8
0
 62
7
100
AcDbSpline
 70
8
 71
3
 72
8
 73
4
 74
0
 40
0
 40
0
 40
0
 40
0
 40
1
 40
1
 40
1
 40
1
 10
651.690890
 20
199.938547
 30
0.0
 10
651.303938
 20
199.004361
 30
0.0
 10
651.517827
 20
197.929066
 30
0.0
 10
652.232822
 20
197.214071
 30
0.0
  0
SPLINE
  5
149
100
AcDbEntity
  8
0
 62
7
100
AcDbSpline
 70
8
 71
3
 72
8
 73
4
 74
0
 40
0
 40
0
 40
0
 40
0
 40
1
 40
1
 40
1
 40
1
 10
652.232822
 20
197.214071
 30
0.0
 10
652.947817
 20
196.499076
 30
0.0
 10
654.023112
 20
196.285187
 30
0.0
 10
654.957298
 20
196.672139
 30
0.0
  0
SPLINE
  5
14a
100
AcDbEntity
  8
0
 62
7
100
AcDbSpline
 70
8
 71
3
 72
8
 73
4
 74
0
 40
0
 40
0
 40
0
 40
0
 40
1
 40
1
 40
1
 40
1
 10
654.957298
 20
196.672139
 30
0.0
 10
655.891484
 20
197.059092
 30
0.0
 10
656.500589
 20
197.970683
 30
0.0
 10
656.500589
 20
198.981838
 30
0.0
  0
SPLINE
  5
14b
100
AcDbEntity
  8
0
 62
7
100
AcDbSpline
 70
8
 71
3
 72
8
 73
4
 74
0
 40
0
 40
0
 40
0
 40
0
 40
1
 40
1
 40
1
 40
1
 10
656.500589
 20
198.981838
 30
0.0
 10
656.500589
 20
199.644880
 30
0.0
 10
656.237197
 20
200.280764
 30
0.0
 10
655.768356
 20
200.749605
 30
0.0
  0
SPLINE
  5
14c
100
AcDbEntity
  8
0
 62
7
100
AcDbSpline
 70
8
 71
3
 72
8
 73
4
 74
0
 40
0
 40
0
 40
0
 40
0
 40
1
 40
1
 40
1
 40
1
 10
655.768356
 20
200.749605
 30
0.0
 10
655.299515
 20
201.218446
 30
0.0
 10
654.663630
 20
201.481839
 30
0.0
 10
654.000589
 20
201.481839
 30
0.0
  0
LWPOLYLINE
  5
14d
100
AcDbEntity
  8
0
 62
7
100
AcDbPolyline
 90
1
 70
1
 10
474.834245
 20
201.481839
 30
0.0
  0
SPLINE
  5
14e
100
AcDbEntity
  8
0
 62
7
100
AcDbSpline
 70
8
 71
3
 72
8
 73
4
 74
0
 40
0
 40
0
 40
0
 40
0
 40
1
 40
1
 40
1
 40
1
 10
654.000986
 20
181.999499
 30
0.0
 10
656.771170
 20
181.999499
 30
0.0
 10
659.000811
 20
184.229669
 30
0.0
 10
659.000811
 20
186.999668
 30
0.0
  0
SPLINE
  5
14f
100
AcDbEntity
  8
0
 62
7
100
AcDbSpline
 70
8
 71
3
 72
8
 73
4
 74
0
 40
0
 40
0
 40
0
 40
0
 40
1
 40
1
 40
1
 40
1
 10
659.000811
 20
186.999668
 30
0.0
 10
659.000811
 20
189.769693
 30
0.0
 10
656.771170
 20
191.999440
 30
0.0
 10
654.000986
 20
191.999440
 30
0.0
  0
LWPOLYLINE
  5
150
100
AcDbEntity
  8
0
 62
7
100
AcDbPolyline
 90
1
 70
1
 10
654.000589
 20
201.481839
 30
0.0
  0
SPLINE
  5
151
100
AcDbEntity
  8
0
 62
7
100
AcDbSpline
 70
8
 71
3
 72
8
 73
4
 74
0
 40
0
 40
0
 40
0
 40
0
 40
1
 40
1
 40
1
 40
1
 10
109.834191
 20
191.999440
 30
0.0
 10
107.064271
 20
191.999440
 30
0.0
 10
104.833837
 20
189.769693
 30
0.0
 10
104.833837
 20
186.999668
 30
0.0
  0
SPLINE
  5
152
100
AcDbEntity
  8
0
 62
7
100
AcDbSpline
 70
8
 71
3
 72
8
 73
4
 74
0
 40
0
 40
0
 40
0
 40
0
 40
1
 40
1
 40
1
 40
1
 10
104.833837
 20
186.999668
 30
0.0
 10
104.833837
 20
184.229669
 30
0.0
 10
107.064271
 20
181.999499
 30
0.0
 10
109.834191
 20
181.999499
 30
0.0
  0
LWPOLYLINE
  5
153
100
AcDbEntity
  8
0
 62
7
100
AcDbPolyline
 90
2
 70
0
 10
654.000986
 20
191.999440
 30
0.0
 10
109.834191
 20
191.999440
 30
0.0
  0
SPLINE
  5
154
100
AcDbEntity
  8
0
 62
7
100
AcDbSpline
 70
8
 71
3
 72
8
 73
4
 74
0
 40
0
 40
0
 40
0
 40
0
 40
1
 40
1
 40
1
 40
1
 10
109.834241
 20
189.481544
 30
0.0
 10
108.823085
 20
189.481544
 30
0.0
 10
107.911495
 20
188.872439
 30
0.0
 10
107.524542
 20
187.938253
 30
0.0
  0
SPLINE
  5
155
100
AcDbEntity
  8
0
 62
7
100
AcDbSpline
 70
8
 71
3
 72
8
 73
4
 74
0
 40
0
 40
0
 40
0
 40
0
 40
1
 40
1
 40
1
 40
1
 10
107.524542
 20
187.938253
 30
0.0
 10
107.137590
 20
187.004067
 30
0.0
 10
107.351479
 20
185.928772
 30
0.0
 10
108.066474
 20
185.213777
 30
0.0
  0
SPLINE
  5
156
100
AcDbEntity
  8
0
 62
7
100
AcDbSpline
 70
8
 71
3
 72
8
 73
4
 74
0
 40
0
 40
0
 40
0
 40
0
 40
1
 40
1
 40
1
 40
1
 10
108.066474
 20
185.213777
 30
0.0
 10
108.781469
 20
184.498782
 30
0.0
 10
109.856764
 20
184.284893
 30
0.0
 10
110.790950
 20
184.671845
 30
0.0
  0
SPLINE
  5
157
100
AcDbEntity
  8
0
 62
7
100
AcDbSpline
 70
8
 71
3
 72
8
 73
4
 74
0
 40
0
 40
0
 40
0
 40
0
 40
1
 40
1
 40
1
 40
1
 10
110.790950
 20
184.671845
 30
0.0
 10
111.725136
 20
185.058798
 30
0.0
 10
112.334241
 20
185.970389
 30
0.0
 10
112.334241
 20
186.981544
 30
0.0
  0
SPLINE
  5
158
100
AcDbEntity
  8
0
 62
7
100
AcDbSpline
 70
8
 71
3
 72
8
 73
4
 74
0
 40
0
 40
0
 40
0
 40
0
 40
1
 40
1
 40
1
 40
1
 10
112.334241
 20
186.981544
 30
0.0
 10
112.334241
 20
188.362256
 30
0.0
 10
111.214953
 20
189.481544
 30
0.0
 10
109.834241
 20
189.481544
 30
0.0
  0
LWPOLYLINE
  5
159
100
AcDbEntity
  8
0
 62
7
100
AcDbPolyline
 90
2
 70
0
 10
109.834191
 20
181.999499
 30
0.0
 10
654.000986
 20
181.999499
 30
0.0
  0
SPLINE
  5
15a
100
AcDbEntity
  8
0
 62
7
100
AcDbSpline
 70
8
 71
3
 72
8
 73
4
 74
0
 40
0
 40
0
 40
0
 40
0
 40
1
 40
1
 40
1
 40
1
 10
474.834245
 20
189.481544
 30
0.0
 10
473.823089
 20
189.481544
 30
0.0
 10
472.911498
 20
188.872439
 30
0.0
 10
472.524546
 20
187.938253
 30
0.0
  0
SPLINE
  5
15b
100
AcDbEntity
  8
0
 62
7
100
AcDbSpline
 70
8
 71
3
 72
8
 73
4
 74
0
 40
0
 40
0
 40
0
 40
0
 40
1
 40
1
 40
1
 40
1
 10
472.524546
 20
187.938253
 30
0.0
 10
472.137593
 20
187.004067
 30
0.0
 10
472.351482
 20
185.928772
 30
0.0
 10
473.066477
 20
185.213777
 30
0.0
  0
SPLINE
  5
15c
100
AcDbEntity
  8
0
 62
7
100
AcDbSpline
 70
8
 71
3
 72
8
 73
4
 74
0
 40
0
 40
0
 40
0
 40
0
 40
1
 40
1
 40
1
 40
1
 10
473.066477
 20
185.213777
 30
0.0
 10
473.781473
 20
184.498782
 30
0.0
 10
474.856767
 20
184.284893
 30
0.0
 10
475.790953
 20
184.671845
 30
0.0
  0
SPLINE
  5
15d
100
AcDbEntity
  8
0
 62
7
100
AcDbSpline
 70
8
 71
3
 72
8
 73
4
 74
0
 40
0
 40
0
 40
0
 40
0
 40
1
 40
1
 40
1
 40
1
 10
475.790953
 20
184.671845
 30
0.0
 10
476.725139
 20
185.058798
 30
0.0
 10
477.334245
 20
185.970389
 30
0.0
 10
477.334245
 20
186.981544
 30
0.0
  0
SPLINE
  5
15e
100
AcDbEntity
  8
0
 62
7
100
AcDbSpline
 70
8
 71
3
 72
8
 73
4
 74
0
 40
0
 40
0
 40
0
 40
0
 40
1
 40
1
 40
1
 40
1
 10
477.334245
 20
186.981544
 30
0.0
 10
477.334245
 20
187.644586
 30
0.0
 10
477.070853
 20
188.280470
 30
0.0
 10
476.602012
 20
188.749311
 30
0.0
  0
SPLINE
  5
15f
100
AcDbEntity
  8
0
 62
7
100
AcDbSpline
 70
8
 71
3
 72
8
 73
4
 74
0
 40
0
 40
0
 40
0
 40
0
 40
1
 40
1
 40
1
 40
1
 10
476.602012
 20
188.749311
 30
0.0
 10
476.133171
 20
189.218152
 30
0.0
 10
475.497286
 20
189.481544
 30
0.0
 10
474.834245
 20
189.481544
 30
0.0
  0
LWPOLYLINE
  5
160
100
AcDbEntity
  8
0
 62
7
100
AcDbPolyline
 90
1
 70
1
 10
109.834241
 20
189.481544
 30
0.0
  0
SPLINE
  5
161
100
AcDbEntity
  8
0
 62
7
100
AcDbSpline
 70
8
 71
3
 72
8
 73
4
 74
0
 40
0
 40
0
 40
0
 40
0
 40
1
 40
1
 40
1
 40
1
 10
654.000589
 20
189.481544
 30
0.0
 10
652.989433
 20
189.481544
 30
0.0
 10
652.077843
 20
188.872439
 30
0.0
 10
651.690890
 20
187.938253
 30
0.0
  0
SPLINE
  5
162
100
AcDbEntity
  8
0
 62
7
100
AcDbSpline
 70
8
 71
3
 72
8
 73
4
 74
0
 40
0
 40
0
 40
0
 40
0
 40
1
 40
1
 40
1
 40
1
 10
651.690890
 20
187.938253
 30
0.0
 10
651.303938
 20
187.004067
 30
0.0
 10
651.517827
 20
185.928772
 30
0.0
 10
652.232822
 20
185.213777
 30
0.0
  0
SPLINE
  5
163
100
AcDbEntity
  8
0
 62
7
100
AcDbSpline
 70
8
 71
3
 72
8
 73
4
 74
0
 40
0
 40
0
 40
0
 40
0
 40
1
 40
1
 40
1
 40
1
 10
652.232822
 20
185.213777
 30
0.0
 10
652.947817
 20
184.498782
 30
0.0
 10
654.023112
 20
184.284893
 30
0.0
 10
654.957298
 20
184.671845
 30
0.0
  0
SPLINE
  5
164
100
AcDbEntity
  8
0
 62
7
100
AcDbSpline
 70
8
 71
3
 72
8
 73
4
 74
0
 40
0
 40
0
 40
0
 40
0
 40
1
 40
1
 40
1
 40
1
 10
654.957298
 20
184.671845
 30
0.0
 10
655.891484
 20
185.058798
 30
0.0
 10
656.500589
 20
185.970389
 30
0.0
 10
656.500589
 20
186.981544
 30
0.0
  0
SPLINE
  5
165
100
AcDbEntity
  8
0
 62
7
100
AcDbSpline
 70
8
 71
3
 72
8
 73
4
 74
0
 40
0
 40
0
 40
0
 40
0
 40
1
 40
1
 40
1
 40
1
 10
656.500589
 20
186.981544
 30
0.0
 10
656.500589
 20
187.644586
 30
0.0
 10
656.237197
 20
188.280470
 30
0.0
 10
655.768356
 20
188.749311
 30
0.0
  0
SPLINE
  5
166
100
AcDbEntity
  8
0
 62
7
100
AcDbSpline
 70
8
 71
3
 72
8
 73
4
 74
0
 40
0
 40
0
 40
0
 40
0
 40
1
 40
1
 40
1
 40
1
 10
655.768356
 20
188.749311
 30
0.0
 10
655.299515
 20
189.218152
 30
0.0
 10
654.663630
 20
189.481544
 30
0.0
 10
654.000589
 20
189.481544
 30
0.0
  0
LWPOLYLINE
  5
167
100
AcDbEntity
  8
0
 62
7
100
AcDbPolyline
 90
1
 70
1
 10
474.834245
 20
189.481544
 30
0.0
  0
SPLINE
  5
168
100
AcDbEntity
  8
0
 62
7
100
AcDbSpline
 70
8
 71
3
 72
8
 73
4
 74
0
 40
0
 40
0
 40
0
 40
0
 40
1
 40
1
 40
1
 40
1
 10
811.999527
 20
299.982490
 30
0.0
 10
810.988371
 20
299.982490
 30
0.0
 10
810.076780
 20
299.373384
 30
0.0
 10
809.689828
 20
298.439198
 30
0.0
  0
SPLINE
  5
169
100
AcDbEntity
  8
0
 62
7
100
AcDbSpline
 70
8
 71
3
 72
8
 73
4
 74
0
 40
0
 40
0
 40
0
 40
0
 40
1
 40
1
 40
1
 40
1
 10
809.689828
 20
298.439198
 30
0.0
 10
809.302875
 20
297.505012
 30
0.0
 10
809.516765
 20
296.429717
 30
0.0
 10
810.231760
 20
295.714722
 30
0.0
  0
SPLINE
  5
16a
100
AcDbEntity
  8
0
 62
7
100
AcDbSpline
 70
8
 71
3
 72
8
 73
4
 74
0
 40
0
 40
0
 40
0
 40
0
 40
1
 40
1
 40
1
 40
1
 10
810.231760
 20
295.714722
 30
0.0
 10
810.946755
 20
294.999727
 30
0.0
 10
812.022049
 20
294.785838
 30
0.0
 10
812.956235
 20
295.172790
 30
0.0
  0
SPLINE
  5
16b
100
AcDbEntity
  8
0
 62
7
100
AcDbSpline
 70
8
 71
3
 72
8
 73
4
 74
0
 40
0
 40
0
 40
0
 40
0
 40
1
 40
1
 40
1
 40
1
 10
812.956235
 20
295.172790
 30
0.0
 10
813.890421
 20
295.559743
 30
0.0
 10
814.499527
 20
296.471334
 30
0.0
 10
814.499527
 20
297.482489
 30
0.0
  0
SPLINE
  5
16c
100
AcDbEntity
  8
0
 62
7
100
AcDbSpline
 70
8
 71
3
 72
8
 73
4
 74
0
 40
0
 40
0
 40
0
 40
0
 40
1
 40
1
 40
1
 40
1
 10
814.499527
 20
297.482489
 30
0.0
 10
814.499527
 20
298.145531
 30
0.0
 10
814.236135
 20
298.781416
 30
0.0
 10
813.767294
 20
299.250257
 30
0.0
  0
SPLINE
  5
16d
100
AcDbEntity
  8
0
 62
7
100
AcDbSpline
 70
8
 71
3
 72
8
 73
4
 74
0
 40
0
 40
0
 40
0
 40
0
 40
1
 40
1
 40
1
 40
1
 10
813.767294
 20
299.250257
 30
0.0
 10
813.298453
 20
299.719098
 30
0.0
 10
812.662568
 20
299.982490
 30
0.0
 10
811.999527
 20
299.982490
 30
0.0
  0
LWPOLYLINE
  5
16e
100
AcDbEntity
  8
0
 62
7
100
AcDbPolyline
 90
1
 70
1
 10
654.000589
 20
189.481544
 30
0.0
  0
SPLINE
  5
16f
100
AcDbEntity
  8
0
 62
7
100
AcDbSpline
 70
8
 71
3
 72
8
 73
4
 74
0
 40
0
 40
0
 40
0
 40
0
 40
1
 40
1
 40
1
 40
1
 10
666.000539
 20
227.999740
 30
0.0
 10
663.230541
 20
227.999740
 30
0.0
 10
661.000820
 20
225.769623
 30
0.0
 10
661.000820
 20
222.999545
 30
0.0
  0
LWPOLYLINE
  5
170
100
AcDbEntity
  8
0
 62
7
100
AcDbPolyline
 90
1
 70
1
 10
811.999527
 20
299.982490
 30
0.0
  0
SPLINE
  5
171
100
AcDbEntity
  8
0
 62
7
100
AcDbSpline
 70
8
 71
3
 72
8
 73
4
 74
0
 40
0
 40
0
 40
0
 40
0
 40
1
 40
1
 40
1
 40
1
 10
661.000820
 20
212.999578
 30
0.0
 10
661.000820
 20
210.229500
 30
0.0
 10
663.230541
 20
207.999382
 30
0.0
 10
666.000539
 20
207.999382
 30
0.0
  0
LWPOLYLINE
  5
172
100
AcDbEntity
  8
0
 62
7
100
AcDbPolyline
 90
2
 70
0
 10
661.000820
 20
222.999545
 30
0.0
 10
661.000820
 20
212.999578
 30
0.0
  0
SPLINE
  5
173
100
AcDbEntity
  8
0
 62
7
100
AcDbSpline
 70
8
 71
3
 72
8
 73
4
 74
0
 40
0
 40
0
 40
0
 40
0
 40
1
 40
1
 40
1
 40
1
 10
826.000545
 20
207.999382
 30
0.0
 10
828.770570
 20
207.999382
 30
0.0
 10
831.000952
 20
210.229500
 30
0.0
 10
831.000952
 20
212.999578
 30
0.0
  0
LWPOLYLINE
  5
174
100
AcDbEntity
  8
0
 62
7
100
AcDbPolyline
 90
2
 70
0
 10
666.000539
 20
207.999382
 30
0.0
 10
826.000545
 20
207.999382
 30
0.0
  0
SPLINE
  5
175
100
AcDbEntity
  8
0
 62
7
100
AcDbSpline
 70
8
 71
3
 72
8
 73
4
 74
0
 40
0
 40
0
 40
0
 40
0
 40
1
 40
1
 40
1
 40
1
 10
831.000952
 20
222.999545
 30
0.0
 10
831.000952
 20
225.769623
 30
0.0
 10
828.770570
 20
227.999740
 30
0.0
 10
826.000545
 20
227.999740
 30
0.0
  0
LWPOLYLINE
  5
176
100
AcDbEntity
  8
0
 62
7
100
AcDbPolyline
 90
2
 70
0
 10
831.000952
 20
212.999578
 30
0.0
 10
831.000952
 20
222.999545
 30
0.0
  0
SPLINE
  5
177
100
AcDbEntity
  8
0
 62
7
100
AcDbSpline
 70
8
 71
3
 72
8
 73
4
 74
0
 40
0
 40
0
 40
0
 40
0
 40
1
 40
1
 40
1
 40
1
 10
767.185279
 20
215.500583
 30
0.0
 10
766.174123
 20
215.500583
 30
0.0
 10
765.262533
 20
214.891478
 30
0.0
 10
764.875580
 20
213.957292
 30
0.0
  0
SPLINE
  5
178
100
AcDbEntity
  8
0
 62
7
100
AcDbSpline
 70
8
 71
3
 72
8
 73
4
 74
0
 40
0
 40
0
 40
0
 40
0
 40
1
 40
1
 40
1
 40
1
 10
764.875580
 20
213.957292
 30
0.0
 10
764.488628
 20
213.023106
 30
0.0
 10
764.702517
 20
211.947811
 30
0.0
 10
765.417512
 20
211.232816
 30
0.0
  0
SPLINE
  5
179
100
AcDbEntity
  8
0
 62
7
100
AcDbSpline
 70
8
 71
3
 72
8
 73
4
 74
0
 40
0
 40
0
 40
0
 40
0
 40
1
 40
1
 40
1
 40
1
 10
765.417512
 20
211.232816
 30
0.0
 10
766.132507
 20
210.517821
 30
0.0
 10
767.207802
 20
210.303932
 30
0.0
 10
768.141988
 20
210.690884
 30
0.0
  0
SPLINE
  5
17a
100
AcDbEntity
  8
0
 62
7
100
AcDbSpline
 70
8
 71
3
 72
8
 73
4
 74
0
 40
0
 40
0
 40
0
 40
0
 40
1
 40
1
 40
1
 40
1
 10
768.141988
 20
210.690884
 30
0.0
 10
769.076174
 20
211.077837
 30
0.0
 10
769.685279
 20
211.989427
 30
0.0
 10
769.685279
 20
213.000583
 30
0.0
  0
SPLINE
  5
17b
100
AcDbEntity
  8
0
 62
7
100
AcDbSpline
 70
8
 71
3
 72
8
 73
4
 74
0
 40
0
 40
0
 40
0
 40
0
 40
1
 40
1
 40
1
 40
1
 10
769.685279
 20
213.000583
 30
0.0
 10
769.685279
 20
213.663624
 30
0.0
 10
769.421887
 20
214.299509
 30
0.0
 10
768.953046
 20
214.768350
 30
0.0
  0
SPLINE
  5
17c
100
AcDbEntity
  8
0
 62
7
100
AcDbSpline
 70
8
 71
3
 72
8
 73
4
 74
0
 40
0
 40
0
 40
0
 40
0
 40
1
 40
1
 40
1
 40
1
 10
768.953046
 20
214.768350
 30
0.0
 10
768.484205
 20
215.237191
 30
0.0
 10
767.848320
 20
215.500583
 30
0.0
 10
767.185279
 20
215.500583
 30
0.0
  0
LWPOLYLINE
  5
17d
100
AcDbEntity
  8
0
 62
7
100
AcDbPolyline
 90
2
 70
0
 10
826.000545
 20
227.999740
 30
0.0
 10
666.000539
 20
227.999740
 30
0.0
  0
SPLINE
  5
17e
100
AcDbEntity
  8
0
 62
7
100
AcDbSpline
 70
8
 71
3
 72
8
 73
4
 74
0
 40
0
 40
0
 40
0
 40
0
 40
1
 40
1
 40
1
 40
1
 10
724.851867
 20
215.500583
 30
0.0
 10
723.840712
 20
215.500583
 30
0.0
 10
722.929121
 20
214.891478
 30
0.0
 10
722.542168
 20
213.957292
 30
0.0
  0
SPLINE
  5
17f
100
AcDbEntity
  8
0
 62
7
100
AcDbSpline
 70
8
 71
3
 72
8
 73
4
 74
0
 40
0
 40
0
 40
0
 40
0
 40
1
 40
1
 40
1
 40
1
 10
722.542168
 20
213.957292
 30
0.0
 10
722.155216
 20
213.023106
 30
0.0
 10
722.369105
 20
211.947811
 30
0.0
 10
723.084100
 20
211.232816
 30
0.0
  0
SPLINE
  5
180
100
AcDbEntity
  8
0
 62
7
100
AcDbSpline
 70
8
 71
3
 72
8
 73
4
 74
0
 40
0
 40
0
 40
0
 40
0
 40
1
 40
1
 40
1
 40
1
 10
723.084100
 20
211.232816
 30
0.0
 10
723.799095
 20
210.517821
 30
0.0
 10
724.874390
 20
210.303932
 30
0.0
 10
725.808576
 20
210.690884
 30
0.0
  0
SPLINE
  5
181
100
AcDbEntity
  8
0
 62
7
100
AcDbSpline
 70
8
 71
3
 72
8
 73
4
 74
0
 40
0
 40
0
 40
0
 40
0
 40
1
 40
1
 40
1
 40
1
 10
725.808576
 20
210.690884
 30
0.0
 10
726.742762
 20
211.077837
 30
0.0
 10
727.351868
 20
211.989427
 30
0.0
 10
727.351868
 20
213.000583
 30
0.0
  0
SPLINE
  5
182
100
AcDbEntity
  8
0
 62
7
100
AcDbSpline
 70
8
 71
3
 72
8
 73
4
 74
0
 40
0
 40
0
 40
0
 40
0
 40
1
 40
1
 40
1
 40
1
 10
727.351868
 20
213.000583
 30
0.0
 10
727.351868
 20
213.663624
 30
0.0
 10
727.088475
 20
214.299509
 30
0.0
 10
726.619634
 20
214.768350
 30
0.0
  0
SPLINE
  5
183
100
AcDbEntity
  8
0
 62
7
100
AcDbSpline
 70
8
 71
3
 72
8
 73
4
 74
0
 40
0
 40
0
 40
0
 40
0
 40
1
 40
1
 40
1
 40
1
 10
726.619634
 20
214.768350
 30
0.0
 10
726.150794
 20
215.237191
 30
0.0
 10
725.514909
 20
215.500583
 30
0.0
 10
724.851867
 20
215.500583
 30
0.0
  0
LWPOLYLINE
  5
184
100
AcDbEntity
  8
0
 62
7
100
AcDbPolyline
 90
1
 70
1
 10
767.185279
 20
215.500583
 30
0.0
  0
SPLINE
  5
185
100
AcDbEntity
  8
0
 62
7
100
AcDbSpline
 70
8
 71
3
 72
8
 73
4
 74
0
 40
0
 40
0
 40
0
 40
0
 40
1
 40
1
 40
1
 40
1
 10
666.000539
 20
205.999558
 30
0.0
 10
663.230541
 20
205.999558
 30
0.0
 10
661.000820
 20
203.769441
 30
0.0
 10
661.000820
 20
200.999363
 30
0.0
  0
LWPOLYLINE
  5
186
100
AcDbEntity
  8
0
 62
7
100
AcDbPolyline
 90
1
 70
1
 10
724.851867
 20
215.500583
 30
0.0
  0
SPLINE
  5
187
100
AcDbEntity
  8
0
 62
7
100
AcDbSpline
 70
8
 71
3
 72
8
 73
4
 74
0
 40
0
 40
0
 40
0
 40
0
 40
1
 40
1
 40
1
 40
1
 10
661.000820
 20
190.999396
 30
0.0
 10
661.000820
 20
188.229318
 30
0.0
 10
663.230541
 20
185.999200
 30
0.0
 10
666.000539
 20
185.999200
 30
0.0
  0
LWPOLYLINE
  5
188
100
AcDbEntity
  8
0
 62
7
100
AcDbPolyline
 90
2
 70
0
 10
661.000820
 20
200.999363
 30
0.0
 10
661.000820
 20
190.999396
 30
0.0
  0
SPLINE
  5
189
100
AcDbEntity
  8
0
 62
7
100
AcDbSpline
 70
8
 71
3
 72
8
 73
4
 74
0
 40
0
 40
0
 40
0
 40
0
 40
1
 40
1
 40
1
 40
1
 10
826.000545
 20
185.999200
 30
0.0
 10
828.770570
 20
185.999200
 30
0.0
 10
831.000952
 20
188.229318
 30
0.0
 10
831.000952
 20
190.999396
 30
0.0
  0
LWPOLYLINE
  5
18a
100
AcDbEntity
  8
0
 62
7
100
AcDbPolyline
 90
2
 70
0
 10
666.000539
 20
185.999200
 30
0.0
 10
826.000545
 20
185.999200
 30
0.0
  0
SPLINE
  5
18b
100
AcDbEntity
  8
0
 62
7
100
AcDbSpline
 70
8
 71
3
 72
8
 73
4
 74
0
 40
0
 40
0
 40
0
 40
0
 40
1
 40
1
 40
1
 40
1
 10
831.000952
 20
200.999363
 30
0.0
 10
831.000952
 20
203.769441
 30
0.0
 10
828.770570
 20
205.999558
 30
0.0
 10
826.000545
 20
205.999558
 30
0.0
  0
LWPOLYLINE
  5
18c
100
AcDbEntity
  8
0
 62
7
100
AcDbPolyline
 90
2
 70
0
 10
831.000952
 20
190.999396
 30
0.0
 10
831.000952
 20
200.999363
 30
0.0
  0
SPLINE
  5
18d
100
AcDbEntity
  8
0
 62
7
100
AcDbSpline
 70
8
 71
3
 72
8
 73
4
 74
0
 40
0
 40
0
 40
0
 40
0
 40
1
 40
1
 40
1
 40
1
 10
767.185279
 20
193.500534
 30
0.0
 10
766.174123
 20
193.500534
 30
0.0
 10
765.262533
 20
192.891428
 30
0.0
 10
764.875580
 20
191.957242
 30
0.0
  0
SPLINE
  5
18e
100
AcDbEntity
  8
0
 62
7
100
AcDbSpline
 70
8
 71
3
 72
8
 73
4
 74
0
 40
0
 40
0
 40
0
 40
0
 40
1
 40
1
 40
1
 40
1
 10
764.875580
 20
191.957242
 30
0.0
 10
764.488628
 20
191.023056
 30
0.0
 10
764.702517
 20
189.947761
 30
0.0
 10
765.417512
 20
189.232766
 30
0.0
  0
SPLINE
  5
18f
100
AcDbEntity
  8
0
 62
7
100
AcDbSpline
 70
8
 71
3
 72
8
 73
4
 74
0
 40
0
 40
0
 40
0
 40
0
 40
1
 40
1
 40
1
 40
1
 10
765.417512
 20
189.232766
 30
0.0
 10
766.132507
 20
188.517771
 30
0.0
 10
767.207802
 20
188.303882
 30
0.0
 10
768.141988
 20
188.690835
 30
0.0
  0
SPLINE
  5
190
100
AcDbEntity
  8
0
 62
7
100
AcDbSpline
 70
8
 71
3
 72
8
 73
4
 74
0
 40
0
 40
0
 40
0
 40
0
 40
1
 40
1
 40
1
 40
1
 10
768.141988
 20
188.690835
 30
0.0
 10
769.076174
 20
189.077787
 30
0.0
 10
769.685279
 20
189.989378
 30
0.0
 10
769.685279
 20
191.000533
 30
0.0
  0
SPLINE
  5
191
100
AcDbEntity
  8
0
 62
7
100
AcDbSpline
 70
8
 71
3
 72
8
 73
4
 74
0
 40
0
 40
0
 40
0
 40
0
 40
1
 40
1
 40
1
 40
1
 10
769.685279
 20
191.000533
 30
0.0
 10
769.685279
 20
191.663575
 30
0.0
 10
769.421887
 20
192.299460
 30
0.0
 10
768.953046
 20
192.768301
 30
0.0
  0
SPLINE
  5
192
100
AcDbEntity
  8
0
 62
7
100
AcDbSpline
 70
8
 71
3
 72
8
 73
4
 74
0
 40
0
 40
0
 40
0
 40
0
 40
1
 40
1
 40
1
 40
1
 10
768.953046
 20
192.768301
 30
0.0
 10
768.484205
 20
193.237142
 30
0.0
 10
767.848320
 20
193.500534
 30
0.0
 10
767.185279
 20
193.500534
 30
0.0
  0
LWPOLYLINE
  5
193
100
AcDbEntity
  8
0
 62
7
100
AcDbPolyline
 90
2
 70
0
 10
826.000545
 20
205.999558
 30
0.0
 10
666.000539
 20
205.999558
 30
0.0
  0
SPLINE
  5
194
100
AcDbEntity
  8
0
 62
7
100
AcDbSpline
 70
8
 71
3
 72
8
 73
4
 74
0
 40
0
 40
0
 40
0
 40
0
 40
1
 40
1
 40
1
 40
1
 10
724.851867
 20
193.500534
 30
0.0
 10
723.840712
 20
193.500534
 30
0.0
 10
722.929121
 20
192.891428
 30
0.0
 10
722.542168
 20
191.957242
 30
0.0
  0
SPLINE
  5
195
100
AcDbEntity
  8
0
 62
7
100
AcDbSpline
 70
8
 71
3
 72
8
 73
4
 74
0
 40
0
 40
0
 40
0
 40
0
 40
1
 40
1
 40
1
 40
1
 10
722.542168
 20
191.957242
 30
0.0
 10
722.155216
 20
191.023056
 30
0.0
 10
722.369105
 20
189.947761
 30
0.0
 10
723.084100
 20
189.232766
 30
0.0
  0
SPLINE
  5
196
100
AcDbEntity
  8
0
 62
7
100
AcDbSpline
 70
8
 71
3
 72
8
 73
4
 74
0
 40
0
 40
0
 40
0
 40
0
 40
1
 40
1
 40
1
 40
1
 10
723.084100
 20
189.232766
 30
0.0
 10
723.799095
 20
188.517771
 30
0.0
 10
724.874390
 20
188.303882
 30
0.0
 10
725.808576
 20
188.690835
 30
0.0
  0
SPLINE
  5
197
100
AcDbEntity
  8
0
 62
7
100
AcDbSpline
 70
8
 71
3
 72
8
 73
4
 74
0
 40
0
 40
0
 40
0
 40
0
 40
1
 40
1
 40
1
 40
1
 10
725.808576
 20
188.690835
 30
0.0
 10
726.742762
 20
189.077787
 30
0.0
 10
727.351868
 20
189.989378
 30
0.0
 10
727.351868
 20
191.000533
 30
0.0
  0
SPLINE
  5
198
100
AcDbEntity
  8
0
 62
7
100
AcDbSpline
 70
8
 71
3
 72
8
 73
4
 74
0
 40
0
 40
0
 40
0
 40
0
 40
1
 40
1
 40
1
 40
1
 10
727.351868
 20
191.000533
 30
0.0
 10
727.351868
 20
191.663575
 30
0.0
 10
727.088475
 20
192.299460
 30
0.0
 10
726.619634
 20
192.768301
 30
0.0
  0
SPLINE
  5
199
100
AcDbEntity
  8
0
 62
7
100
AcDbSpline
 70
8
 71
3
 72
8
 73
4
 74
0
 40
0
 40
0
 40
0
 40
0
 40
1
 40
1
 40
1
 40
1
 10
726.619634
 20
192.768301
 30
0.0
 10
726.150794
 20
193.237142
 30
0.0
 10
725.514909
 20
193.500534
 30
0.0
 10
724.851867
 20
193.500534
 30
0.0
  0
LWPOLYLINE
  5
19a
100
AcDbEntity
  8
0
 62
7
100
AcDbPolyline
 90
1
 70
1
 10
767.185279
 20
193.500534
 30
0.0
  0
SPLINE
  5
19b
100
AcDbEntity
  8
0
 62
7
100
AcDbSpline
 70
8
 71
3
 72
8
 73
4
 74
0
 40
0
 40
0
 40
0
 40
0
 40
1
 40
1
 40
1
 40
1
 10
654.000616
 20
217.999773
 30
0.0
 10
656.770826
 20
217.999773
 30
0.0
 10
659.000467
 20
220.229890
 30
0.0
 10
659.000467
 20
222.999968
 30
0.0
  0
SPLINE
  5
19c
100
AcDbEntity
  8
0
 62
7
100
AcDbSpline
 70
8
 71
3
 72
8
 73
4
 74
0
 40
0
 40
0
 40
0
 40
0
 40
1
 40
1
 40
1
 40
1
 10
659.000467
 20
222.999968
 30
0.0
 10
659.000467
 20
225.770046
 30
0.0
 10
656.770826
 20
227.999740
 30
0.0
 10
654.000616
 20
227.999740
 30
0.0
  0
LWPOLYLINE
  5
19d
100
AcDbEntity
  8
0
 62
7
100
AcDbPolyline
 90
1
 70
1
 10
724.851867
 20
193.500534
 30
0.0
  0
SPLINE
  5
19e
100
AcDbEntity
  8
0
 62
7
100
AcDbSpline
 70
8
 71
3
 72
8
 73
4
 74
0
 40
0
 40
0
 40
0
 40
0
 40
1
 40
1
 40
1
 40
1
 10
15.000156
 20
227.999740
 30
0.0
 10
12.230226
 20
227.999740
 30
0.0
 10
10.000067
 20
225.770046
 30
0.0
 10
10.000067
 20
222.999968
 30
0.0
  0
SPLINE
  5
19f
100
AcDbEntity
  8
0
 62
7
100
AcDbSpline
 70
8
 71
3
 72
8
 73
4
 74
0
 40
0
 40
0
 40
0
 40
0
 40
1
 40
1
 40
1
 40
1
 10
10.000067
 20
222.999968
 30
0.0
 10
10.000067
 20
220.229890
 30
0.0
 10
12.230226
 20
217.999773
 30
0.0
 10
15.000156
 20
217.999773
 30
0.0
  0
LWPOLYLINE
  5
1a0
100
AcDbEntity
  8
0
 62
7
100
AcDbPolyline
 90
2
 70
0
 10
654.000616
 20
227.999740
 30
0.0
 10
15.000156
 20
227.999740
 30
0.0
  0
SPLINE
  5
1a1
100
AcDbEntity
  8
0
 62
7
100
AcDbSpline
 70
8
 71
3
 72
8
 73
4
 74
0
 40
0
 40
0
 40
0
 40
0
 40
1
 40
1
 40
1
 40
1
 10
654.000325
 20
225.481633
 30
0.0
 10
652.619613
 20
225.481633
 30
0.0
 10
651.500324
 20
224.362345
 30
0.0
 10
651.500324
 20
222.981633
 30
0.0
  0
SPLINE
  5
1a2
100
AcDbEntity
  8
0
 62
7
100
AcDbSpline
 70
8
 71
3
 72
8
 73
4
 74
0
 40
0
 40
0
 40
0
 40
0
 40
1
 40
1
 40
1
 40
1
 10
651.500324
 20
222.981633
 30
0.0
 10
651.500324
 20
221.600921
 30
0.0
 10
652.619613
 20
220.481633
 30
0.0
 10
654.000325
 20
220.481633
 30
0.0
  0
SPLINE
  5
1a3
100
AcDbEntity
  8
0
 62
7
100
AcDbSpline
 70
8
 71
3
 72
8
 73
4
 74
0
 40
0
 40
0
 40
0
 40
0
 40
1
 40
1
 40
1
 40
1
 10
654.000325
 20
220.481633
 30
0.0
 10
655.381037
 20
220.481633
 30
0.0
 10
656.500325
 20
221.600921
 30
0.0
 10
656.500325
 20
222.981633
 30
0.0
  0
SPLINE
  5
1a4
100
AcDbEntity
  8
0
 62
7
100
AcDbSpline
 70
8
 71
3
 72
8
 73
4
 74
0
 40
0
 40
0
 40
0
 40
0
 40
1
 40
1
 40
1
 40
1
 10
656.500325
 20
222.981633
 30
0.0
 10
656.500325
 20
223.644674
 30
0.0
 10
656.236933
 20
224.280559
 30
0.0
 10
655.768092
 20
224.749400
 30
0.0
  0
SPLINE
  5
1a5
100
AcDbEntity
  8
0
 62
7
100
AcDbSpline
 70
8
 71
3
 72
8
 73
4
 74
0
 40
0
 40
0
 40
0
 40
0
 40
1
 40
1
 40
1
 40
1
 10
655.768092
 20
224.749400
 30
0.0
 10
655.299251
 20
225.218241
 30
0.0
 10
654.663366
 20
225.481633
 30
0.0
 10
654.000325
 20
225.481633
 30
0.0
  0
LWPOLYLINE
  5
1a6
100
AcDbEntity
  8
0
 62
7
100
AcDbPolyline
 90
2
 70
0
 10
15.000156
 20
217.999773
 30
0.0
 10
654.000616
 20
217.999773
 30
0.0
  0
SPLINE
  5
1a7
100
AcDbEntity
  8
0
 62
7
100
AcDbSpline
 70
8
 71
3
 72
8
 73
4
 74
0
 40
0
 40
0
 40
0
 40
0
 40
1
 40
1
 40
1
 40
1
 10
495.000205
 20
225.481633
 30
0.0
 10
493.989049
 20
225.481633
 30
0.0
 10
493.077458
 20
224.872527
 30
0.0
 10
492.690506
 20
223.938341
 30
0.0
  0
SPLINE
  5
1a8
100
AcDbEntity
  8
0
 62
7
100
AcDbSpline
 70
8
 71
3
 72
8
 73
4
 74
0
 40
0
 40
0
 40
0
 40
0
 40
1
 40
1
 40
1
 40
1
 10
492.690506
 20
223.938341
 30
0.0
 10
492.303553
 20
223.004155
 30
0.0
 10
492.517443
 20
221.928861
 30
0.0
 10
493.232438
 20
221.213866
 30
0.0
  0
SPLINE
  5
1a9
100
AcDbEntity
  8
0
 62
7
100
AcDbSpline
 70
8
 71
3
 72
8
 73
4
 74
0
 40
0
 40
0
 40
0
 40
0
 40
1
 40
1
 40
1
 40
1
 10
493.232438
 20
221.213866
 30
0.0
 10
493.947433
 20
220.498871
 30
0.0
 10
495.022727
 20
220.284981
 30
0.0
 10
495.956914
 20
220.671934
 30
0.0
  0
SPLINE
  5
1aa
100
AcDbEntity
  8
0
 62
7
100
AcDbSpline
 70
8
 71
3
 72
8
 73
4
 74
0
 40
0
 40
0
 40
0
 40
0
 40
1
 40
1
 40
1
 40
1
 10
495.956914
 20
220.671934
 30
0.0
 10
496.891100
 20
221.058886
 30
0.0
 10
497.500205
 20
221.970477
 30
0.0
 10
497.500205
 20
222.981633
 30
0.0
  0
SPLINE
  5
1ab
100
AcDbEntity
  8
0
 62
7
100
AcDbSpline
 70
8
 71
3
 72
8
 73
4
 74
0
 40
0
 40
0
 40
0
 40
0
 40
1
 40
1
 40
1
 40
1
 10
497.500205
 20
222.981633
 30
0.0
 10
497.500205
 20
223.644674
 30
0.0
 10
497.236813
 20
224.280559
 30
0.0
 10
496.767972
 20
224.749400
 30
0.0
  0
SPLINE
  5
1ac
100
AcDbEntity
  8
0
 62
7
100
AcDbSpline
 70
8
 71
3
 72
8
 73
4
 74
0
 40
0
 40
0
 40
0
 40
0
 40
1
 40
1
 40
1
 40
1
 10
496.767972
 20
224.749400
 30
0.0
 10
496.299131
 20
225.218241
 30
0.0
 10
495.663246
 20
225.481633
 30
0.0
 10
495.000205
 20
225.481633
 30
0.0
  0
LWPOLYLINE
  5
1ad
100
AcDbEntity
  8
0
 62
7
100
AcDbPolyline
 90
1
 70
1
 10
654.000325
 20
225.481633
 30
0.0
  0
SPLINE
  5
1ae
100
AcDbEntity
  8
0
 62
7
100
AcDbSpline
 70
8
 71
3
 72
8
 73
4
 74
0
 40
0
 40
0
 40
0
 40
0
 40
1
 40
1
 40
1
 40
1
 10
370.000323
 20
225.481633
 30
0.0
 10
368.989167
 20
225.481633
 30
0.0
 10
368.077577
 20
224.872527
 30
0.0
 10
367.690624
 20
223.938341
 30
0.0
  0
SPLINE
  5
1af
100
AcDbEntity
  8
0
 62
7
100
AcDbSpline
 70
8
 71
3
 72
8
 73
4
 74
0
 40
0
 40
0
 40
0
 40
0
 40
1
 40
1
 40
1
 40
1
 10
367.690624
 20
223.938341
 30
0.0
 10
367.303672
 20
223.004155
 30
0.0
 10
367.517561
 20
221.928861
 30
0.0
 10
368.232556
 20
221.213866
 30
0.0
  0
SPLINE
  5
1b0
100
AcDbEntity
  8
0
 62
7
100
AcDbSpline
 70
8
 71
3
 72
8
 73
4
 74
0
 40
0
 40
0
 40
0
 40
0
 40
1
 40
1
 40
1
 40
1
 10
368.232556
 20
221.213866
 30
0.0
 10
368.947551
 20
220.498871
 30
0.0
 10
370.022846
 20
220.284981
 30
0.0
 10
370.957032
 20
220.671934
 30
0.0
  0
SPLINE
  5
1b1
100
AcDbEntity
  8
0
 62
7
100
AcDbSpline
 70
8
 71
3
 72
8
 73
4
 74
0
 40
0
 40
0
 40
0
 40
0
 40
1
 40
1
 40
1
 40
1
 10
370.957032
 20
220.671934
 30
0.0
 10
371.891218
 20
221.058886
 30
0.0
 10
372.500323
 20
221.970477
 30
0.0
 10
372.500323
 20
222.981633
 30
0.0
  0
SPLINE
  5
1b2
100
AcDbEntity
  8
0
 62
7
100
AcDbSpline
 70
8
 71
3
 72
8
 73
4
 74
0
 40
0
 40
0
 40
0
 40
0
 40
1
 40
1
 40
1
 40
1
 10
372.500323
 20
222.981633
 30
0.0
 10
372.500323
 20
223.644674
 30
0.0
 10
372.236931
 20
224.280559
 30
0.0
 10
371.768090
 20
224.749400
 30
0.0
  0
SPLINE
  5
1b3
100
AcDbEntity
  8
0
 62
7
100
AcDbSpline
 70
8
 71
3
 72
8
 73
4
 74
0
 40
0
 40
0
 40
0
 40
0
 40
1
 40
1
 40
1
 40
1
 10
371.768090
 20
224.749400
 30
0.0
 10
371.299249
 20
225.218241
 30
0.0
 10
370.663364
 20
225.481633
 30
0.0
 10
370.000323
 20
225.481633
 30
0.0
  0
LWPOLYLINE
  5
1b4
100
AcDbEntity
  8
0
 62
7
100
AcDbPolyline
 90
1
 70
1
 10
495.000205
 20
225.481633
 30
0.0
  0
SPLINE
  5
1b5
100
AcDbEntity
  8
0
 62
7
100
AcDbSpline
 70
8
 71
3
 72
8
 73
4
 74
0
 40
0
 40
0
 40
0
 40
0
 40
1
 40
1
 40
1
 40
1
 10
15.000043
 20
225.481633
 30
0.0
 10
13.988888
 20
225.481633
 30
0.0
 10
13.077297
 20
224.872527
 30
0.0
 10
12.690344
 20
223.938341
 30
0.0
  0
SPLINE
  5
1b6
100
AcDbEntity
  8
0
 62
7
100
AcDbSpline
 70
8
 71
3
 72
8
 73
4
 74
0
 40
0
 40
0
 40
0
 40
0
 40
1
 40
1
 40
1
 40
1
 10
12.690344
 20
223.938341
 30
0.0
 10
12.303392
 20
223.004155
 30
0.0
 10
12.517281
 20
221.928861
 30
0.0
 10
13.232276
 20
221.213866
 30
0.0
  0
SPLINE
  5
1b7
100
AcDbEntity
  8
0
 62
7
100
AcDbSpline
 70
8
 71
3
 72
8
 73
4
 74
0
 40
0
 40
0
 40
0
 40
0
 40
1
 40
1
 40
1
 40
1
 10
13.232276
 20
221.213866
 30
0.0
 10
13.947271
 20
220.498871
 30
0.0
 10
15.022566
 20
220.284981
 30
0.0
 10
15.956752
 20
220.671934
 30
0.0
  0
SPLINE
  5
1b8
100
AcDbEntity
  8
0
 62
7
100
AcDbSpline
 70
8
 71
3
 72
8
 73
4
 74
0
 40
0
 40
0
 40
0
 40
0
 40
1
 40
1
 40
1
 40
1
 10
15.956752
 20
220.671934
 30
0.0
 10
16.890938
 20
221.058886
 30
0.0
 10
17.500044
 20
221.970477
 30
0.0
 10
17.500044
 20
222.981633
 30
0.0
  0
SPLINE
  5
1b9
100
AcDbEntity
  8
0
 62
7
100
AcDbSpline
 70
8
 71
3
 72
8
 73
4
 74
0
 40
0
 40
0
 40
0
 40
0
 40
1
 40
1
 40
1
 40
1
 10
17.500044
 20
222.981633
 30
0.0
 10
17.500044
 20
223.644674
 30
0.0
 10
17.236652
 20
224.280559
 30
0.0
 10
16.767811
 20
224.749400
 30
0.0
  0
SPLINE
  5
1ba
100
AcDbEntity
  8
0
 62
7
100
AcDbSpline
 70
8
 71
3
 72
8
 73
4
 74
0
 40
0
 40
0
 40
0
 40
0
 40
1
 40
1
 40
1
 40
1
 10
16.767811
 20
224.749400
 30
0.0
 10
16.298970
 20
225.218241
 30
0.0
 10
15.663085
 20
225.481633
 30
0.0
 10
15.000043
 20
225.481633
 30
0.0
  0
LWPOLYLINE
  5
1bb
100
AcDbEntity
  8
0
 62
7
100
AcDbPolyline
 90
1
 70
1
 10
370.000323
 20
225.481633
 30
0.0
  0
SPLINE
  5
1bc
100
AcDbEntity
  8
0
 62
7
100
AcDbSpline
 70
8
 71
3
 72
8
 73
4
 74
0
 40
0
 40
0
 40
0
 40
0
 40
1
 40
1
 40
1
 40
1
 10
654.000616
 20
205.999558
 30
0.0
 10
656.770826
 20
205.999558
 30
0.0
 10
659.000467
 20
208.229676
 30
0.0
 10
659.000467
 20
210.999754
 30
0.0
  0
SPLINE
  5
1bd
100
AcDbEntity
  8
0
 62
7
100
AcDbSpline
 70
8
 71
3
 72
8
 73
4
 74
0
 40
0
 40
0
 40
0
 40
0
 40
1
 40
1
 40
1
 40
1
 10
659.000467
 20
210.999754
 30
0.0
 10
659.000467
 20
213.769832
 30
0.0
 10
656.770826
 20
215.999526
 30
0.0
 10
654.000616
 20
215.999526
 30
0.0
  0
LWPOLYLINE
  5
1be
100
AcDbEntity
  8
0
 62
7
100
AcDbPolyline
 90
1
 70
1
 10
15.000043
 20
225.481633
 30
0.0
  0
SPLINE
  5
1bf
100
AcDbEntity
  8
0
 62
7
100
AcDbSpline
 70
8
 71
3
 72
8
 73
4
 74
0
 40
0
 40
0
 40
0
 40
0
 40
1
 40
1
 40
1
 40
1
 10
15.000156
 20
215.999526
 30
0.0
 10
12.230226
 20
215.999526
 30
0.0
 10
10.000067
 20
213.769832
 30
0.0
 10
10.000067
 20
210.999754
 30
0.0
  0
SPLINE
  5
1c0
100
AcDbEntity
  8
0
 62
7
100
AcDbSpline
 70
8
 71
3
 72
8
 73
4
 74
0
 40
0
 40
0
 40
0
 40
0
 40
1
 40
1
 40
1
 40
1
 10
10.000067
 20
210.999754
 30
0.0
 10
10.000067
 20
208.229676
 30
0.0
 10
12.230226
 20
205.999558
 30
0.0
 10
15.000156
 20
205.999558
 30
0.0
  0
LWPOLYLINE
  5
1c1
100
AcDbEntity
  8
0
 62
7
100
AcDbPolyline
 90
2
 70
0
 10
654.000616
 20
215.999526
 30
0.0
 10
15.000156
 20
215.999526
 30
0.0
  0
SPLINE
  5
1c2
100
AcDbEntity
  8
0
 62
7
100
AcDbSpline
 70
8
 71
3
 72
8
 73
4
 74
0
 40
0
 40
0
 40
0
 40
0
 40
1
 40
1
 40
1
 40
1
 10
654.000325
 20
213.481524
 30
0.0
 10
652.619613
 20
213.481524
 30
0.0
 10
651.500324
 20
212.362236
 30
0.0
 10
651.500324
 20
210.981524
 30
0.0
  0
SPLINE
  5
1c3
100
AcDbEntity
  8
0
 62
7
100
AcDbSpline
 70
8
 71
3
 72
8
 73
4
 74
0
 40
0
 40
0
 40
0
 40
0
 40
1
 40
1
 40
1
 40
1
 10
651.500324
 20
210.981524
 30
0.0
 10
651.500324
 20
209.600812
 30
0.0
 10
652.619613
 20
208.481524
 30
0.0
 10
654.000325
 20
208.481524
 30
0.0
  0
SPLINE
  5
1c4
100
AcDbEntity
  8
0
 62
7
100
AcDbSpline
 70
8
 71
3
 72
8
 73
4
 74
0
 40
0
 40
0
 40
0
 40
0
 40
1
 40
1
 40
1
 40
1
 10
654.000325
 20
208.481524
 30
0.0
 10
655.381037
 20
208.481524
 30
0.0
 10
656.500325
 20
209.600812
 30
0.0
 10
656.500325
 20
210.981524
 30
0.0
  0
SPLINE
  5
1c5
100
AcDbEntity
  8
0
 62
7
100
AcDbSpline
 70
8
 71
3
 72
8
 73
4
 74
0
 40
0
 40
0
 40
0
 40
0
 40
1
 40
1
 40
1
 40
1
 10
656.500325
 20
210.981524
 30
0.0
 10
656.500325
 20
211.644565
 30
0.0
 10
656.236933
 20
212.280450
 30
0.0
 10
655.768092
 20
212.749291
 30
0.0
  0
SPLINE
  5
1c6
100
AcDbEntity
  8
0
 62
7
100
AcDbSpline
 70
8
 71
3
 72
8
 73
4
 74
0
 40
0
 40
0
 40
0
 40
0
 40
1
 40
1
 40
1
 40
1
 10
655.768092
 20
212.749291
 30
0.0
 10
655.299251
 20
213.218132
 30
0.0
 10
654.663366
 20
213.481524
 30
0.0
 10
654.000325
 20
213.481524
 30
0.0
  0
LWPOLYLINE
  5
1c7
100
AcDbEntity
  8
0
 62
7
100
AcDbPolyline
 90
2
 70
0
 10
15.000156
 20
205.999558
 30
0.0
 10
654.000616
 20
205.999558
 30
0.0
  0
SPLINE
  5
1c8
100
AcDbEntity
  8
0
 62
7
100
AcDbSpline
 70
8
 71
3
 72
8
 73
4
 74
0
 40
0
 40
0
 40
0
 40
0
 40
1
 40
1
 40
1
 40
1
 10
495.000205
 20
213.481524
 30
0.0
 10
493.989049
 20
213.481524
 30
0.0
 10
493.077458
 20
212.872419
 30
0.0
 10
492.690506
 20
211.938233
 30
0.0
  0
SPLINE
  5
1c9
100
AcDbEntity
  8
0
 62
7
100
AcDbSpline
 70
8
 71
3
 72
8
 73
4
 74
0
 40
0
 40
0
 40
0
 40
0
 40
1
 40
1
 40
1
 40
1
 10
492.690506
 20
211.938233
 30
0.0
 10
492.303553
 20
211.004046
 30
0.0
 10
492.517443
 20
209.928752
 30
0.0
 10
493.232438
 20
209.213757
 30
0.0
  0
SPLINE
  5
1ca
100
AcDbEntity
  8
0
 62
7
100
AcDbSpline
 70
8
 71
3
 72
8
 73
4
 74
0
 40
0
 40
0
 40
0
 40
0
 40
1
 40
1
 40
1
 40
1
 10
493.232438
 20
209.213757
 30
0.0
 10
493.947433
 20
208.498762
 30
0.0
 10
495.022727
 20
208.284872
 30
0.0
 10
495.956914
 20
208.671825
 30
0.0
  0
SPLINE
  5
1cb
100
AcDbEntity
  8
0
 62
7
100
AcDbSpline
 70
8
 71
3
 72
8
 73
4
 74
0
 40
0
 40
0
 40
0
 40
0
 40
1
 40
1
 40
1
 40
1
 10
495.956914
 20
208.671825
 30
0.0
 10
496.891100
 20
209.058777
 30
0.0
 10
497.500205
 20
209.970368
 30
0.0
 10
497.500205
 20
210.981524
 30
0.0
  0
SPLINE
  5
1cc
100
AcDbEntity
  8
0
 62
7
100
AcDbSpline
 70
8
 71
3
 72
8
 73
4
 74
0
 40
0
 40
0
 40
0
 40
0
 40
1
 40
1
 40
1
 40
1
 10
497.500205
 20
210.981524
 30
0.0
 10
497.500205
 20
211.644565
 30
0.0
 10
497.236813
 20
212.280450
 30
0.0
 10
496.767972
 20
212.749291
 30
0.0
  0
SPLINE
  5
1cd
100
AcDbEntity
  8
0
 62
7
100
AcDbSpline
 70
8
 71
3
 72
8
 73
4
 74
0
 40
0
 40
0
 40
0
 40
0
 40
1
 40
1
 40
1
 40
1
 10
496.767972
 20
212.749291
 30
0.0
 10
496.299131
 20
213.218132
 30
0.0
 10
495.663246
 20
213.481524
 30
0.0
 10
495.000205
 20
213.481524
 30
0.0
  0
LWPOLYLINE
  5
1ce
100
AcDbEntity
  8
0
 62
7
100
AcDbPolyline
 90
1
 70
1
 10
654.000325
 20
213.481524
 30
0.0
  0
SPLINE
  5
1cf
100
AcDbEntity
  8
0
 62
7
100
AcDbSpline
 70
8
 71
3
 72
8
 73
4
 74
0
 40
0
 40
0
 40
0
 40
0
 40
1
 40
1
 40
1
 40
1
 10
370.000323
 20
213.481524
 30
0.0
 10
368.989167
 20
213.481524
 30
0.0
 10
368.077577
 20
212.872419
 30
0.0
 10
367.690624
 20
211.938233
 30
0.0
  0
SPLINE
  5
1d0
100
AcDbEntity
  8
0
 62
7
100
AcDbSpline
 70
8
 71
3
 72
8
 73
4
 74
0
 40
0
 40
0
 40
0
 40
0
 40
1
 40
1
 40
1
 40
1
 10
367.690624
 20
211.938233
 30
0.0
 10
367.303672
 20
211.004046
 30
0.0
 10
367.517561
 20
209.928752
 30
0.0
 10
368.232556
 20
209.213757
 30
0.0
  0
SPLINE
  5
1d1
100
AcDbEntity
  8
0
 62
7
100
AcDbSpline
 70
8
 71
3
 72
8
 73
4
 74
0
 40
0
 40
0
 40
0
 40
0
 40
1
 40
1
 40
1
 40
1
 10
368.232556
 20
209.213757
 30
0.0
 10
368.947551
 20
208.498762
 30
0.0
 10
370.022846
 20
208.284872
 30
0.0
 10
370.957032
 20
208.671825
 30
0.0
  0
SPLINE
  5
1d2
100
AcDbEntity
  8
0
 62
7
100
AcDbSpline
 70
8
 71
3
 72
8
 73
4
 74
0
 40
0
 40
0
 40
0
 40
0
 40
1
 40
1
 40
1
 40
1
 10
370.957032
 20
208.671825
 30
0.0
 10
371.891218
 20
209.058777
 30
0.0
 10
372.500323
 20
209.970368
 30
0.0
 10
372.500323
 20
210.981524
 30
0.0
  0
SPLINE
  5
1d3
100
AcDbEntity
  8
0
 62
7
100
AcDbSpline
 70
8
 71
3
 72
8
 73
4
 74
0
 40
0
 40
0
 40
0
 40
0
 40
1
 40
1
 40
1
 40
1
 10
372.500323
 20
210.981524
 30
0.0
 10
372.500323
 20
211.644565
 30
0.0
 10
372.236931
 20
212.280450
 30
0.0
 10
371.768090
 20
212.749291
 30
0.0
  0
SPLINE
  5
1d4
100
AcDbEntity
  8
0
 62
7
100
AcDbSpline
 70
8
 71
3
 72
8
 73
4
 74
0
 40
0
 40
0
 40
0
 40
0
 40
1
 40
1
 40
1
 40
1
 10
371.768090
 20
212.749291
 30
0.0
 10
371.299249
 20
213.218132
 30
0.0
 10
370.663364
 20
213.481524
 30
0.0
 10
370.000323
 20
213.481524
 30
0.0
  0
LWPOLYLINE
  5
1d5
100
AcDbEntity
  8
0
 62
7
100
AcDbPolyline
 90
1
 70
1
 10
495.000205
 20
213.481524
 30
0.0
  0
SPLINE
  5
1d6
100
AcDbEntity
  8
0
 62
7
100
AcDbSpline
 70
8
 71
3
 72
8
 73
4
 74
0
 40
0
 40
0
 40
0
 40
0
 40
1
 40
1
 40
1
 40
1
 10
15.000043
 20
213.481524
 30
0.0
 10
13.988888
 20
213.481524
 30
0.0
 10
13.077297
 20
212.872419
 30
0.0
 10
12.690344
 20
211.938233
 30
0.0
  0
SPLINE
  5
1d7
100
AcDbEntity
  8
0
 62
7
100
AcDbSpline
 70
8
 71
3
 72
8
 73
4
 74
0
 40
0
 40
0
 40
0
 40
0
 40
1
 40
1
 40
1
 40
1
 10
12.690344
 20
211.938233
 30
0.0
 10
12.303392
 20
211.004046
 30
0.0
 10
12.517281
 20
209.928752
 30
0.0
 10
13.232276
 20
209.213757
 30
0.0
  0
SPLINE
  5
1d8
100
AcDbEntity
  8
0
 62
7
100
AcDbSpline
 70
8
 71
3
 72
8
 73
4
 74
0
 40
0
 40
0
 40
0
 40
0
 40
1
 40
1
 40
1
 40
1
 10
13.232276
 20
209.213757
 30
0.0
 10
13.947271
 20
208.498762
 30
0.0
 10
15.022566
 20
208.284872
 30
0.0
 10
15.956752
 20
208.671825
 30
0.0
  0
SPLINE
  5
1d9
100
AcDbEntity
  8
0
 62
7
100
AcDbSpline
 70
8
 71
3
 72
8
 73
4
 74
0
 40
0
 40
0
 40
0
 40
0
 40
1
 40
1
 40
1
 40
1
 10
15.956752
 20
208.671825
 30
0.0
 10
16.890938
 20
209.058777
 30
0.0
 10
17.500044
 20
209.970368
 30
0.0
 10
17.500044
 20
210.981524
 30
0.0
  0
SPLINE
  5
1da
100
AcDbEntity
  8
0
 62
7
100
AcDbSpline
 70
8
 71
3
 72
8
 73
4
 74
0
 40
0
 40
0
 40
0
 40
0
 40
1
 40
1
 40
1
 40
1
 10
17.500044
 20
210.981524
 30
0.0
 10
17.500044
 20
211.644565
 30
0.0
 10
17.236652
 20
212.280450
 30
0.0
 10
16.767811
 20
212.749291
 30
0.0
  0
SPLINE
  5
1db
100
AcDbEntity
  8
0
 62
7
100
AcDbSpline
 70
8
 71
3
 72
8
 73
4
 74
0
 40
0
 40
0
 40
0
 40
0
 40
1
 40
1
 40
1
 40
1
 10
16.767811
 20
212.749291
 30
0.0
 10
16.298970
 20
213.218132
 30
0.0
 10
15.663085
 20
213.481524
 30
0.0
 10
15.000043
 20
213.481524
 30
0.0
  0
LWPOLYLINE
  5
1dc
100
AcDbEntity
  8
0
 62
7
100
AcDbPolyline
 90
1
 70
1
 10
370.000323
 20
213.481524
 30
0.0
  0
LWPOLYLINE
  5
1dd
100
AcDbEntity
  8
0
 62
7
100
AcDbPolyline
 90
1
 70
1
 10
15.000043
 20
213.481524
 30
0.0
  0
ENDSEC
  0
SECTION
  2
OBJECTS
  0
DICTIONARY
  5
C
330
0
100
AcDbDictionary
  3
ACAD_GROUP
350
D
  3
ACAD_MLINESTYLE
350
17
  0
DICTIONARY
  5
D
330
C
100
AcDbDictionary
  0
DICTIONARY
  5
1A
330
C
100
AcDbDictionary
  0
DICTIONARY
  5
17
330
C
100
AcDbDictionary
  3
STANDARD
350
18
  0
DICTIONARY
  5
19
330
C
100
AcDbDictionary
  0
ENDSEC
  0
EOF
