999
"DXF R12 Output" (www.mydxf.blogspot.com)
 0 
SECTION
 2 
HEADER
 9 
$ACADVER
 1 
AC1009
 9 
$EXTMIN
 10 
 0 
 20 
 0 
 9 
$EXTMAX
 10 
 8.5 
 20 
 11 
 0 
ENDSEC
 0 
SECTION
 2 
ENTITIES
0
LINE
8
Calque 1
10
-69.114700
20
-29.895100
11
-69.900266
21
-30.011066
0
LINE
8
Calque 1
10
-69.900266
20
-30.011066
11
-70.557608
21
-30.405560
0
LINE
8
Calque 1
10
-70.557608
20
-30.405560
11
-71.019083
21
-31.017749
0
LINE
8
Calque 1
10
-71.019083
20
-31.017749
11
-71.217050
21
-31.786800
0
LINE
8
Calque 1
10
-71.217050
20
-31.786800
11
-71.101141
21
-32.572421
0
LINE
8
Calque 1
10
-71.101141
20
-32.572421
11
-70.706675
21
-33.229794
0
LINE
8
Calque 1
10
-70.706675
20
-33.229794
11
-70.094513
21
-33.691294
0
LINE
8
Calque 1
10
-70.094513
20
-33.691294
11
-69.325520
21
-33.889300
0
LINE
8
Calque 1
10
-69.325520
20
-33.889300
11
-68.539803
21
-33.773337
0
LINE
8
Calque 1
10
-68.539803
20
-33.773337
11
-67.882381
21
-33.378850
0
LINE
8
Calque 1
10
-67.882381
20
-33.378850
11
-67.420877
21
-32.766668
0
LINE
8
Calque 1
10
-67.420877
20
-32.766668
11
-67.222910
21
-31.997620
0
LINE
8
Calque 1
10
-67.222910
20
-31.997620
11
-67.338823
21
-31.211998
0
LINE
8
Calque 1
10
-67.338823
20
-31.211998
11
-67.733319
21
-30.554624
0
LINE
8
Calque 1
10
-67.733319
20
-30.554624
11
-68.345560
21
-30.093117
0
LINE
8
Calque 1
10
-68.345560
20
-30.093117
11
-69.114710
21
-29.895100
0
LINE
8
Calque 1
10
-69.114710
20
-29.895100
11
-69.114700
21
-29.895100
0
LINE
8
Calque 1
10
108.118000
20
-32.806400
11
107.332285
21
-32.922416
0
LINE
8
Calque 1
10
107.332285
20
-32.922416
11
106.674887
21
-33.317035
0
LINE
8
Calque 1
10
106.674887
20
-33.317035
11
106.213454
21
-33.929386
0
LINE
8
Calque 1
10
106.213454
20
-33.929386
11
106.015630
21
-34.698600
0
LINE
8
Calque 1
10
106.015630
20
-34.698600
11
106.131543
21
-35.484221
0
LINE
8
Calque 1
10
106.131543
20
-35.484221
11
106.526009
21
-36.141594
0
LINE
8
Calque 1
10
106.526009
20
-36.141594
11
107.138168
21
-36.603094
0
LINE
8
Calque 1
10
107.138168
20
-36.603094
11
107.907160
21
-36.801100
0
LINE
8
Calque 1
10
107.907160
20
-36.801100
11
108.692839
21
-36.685134
0
LINE
8
Calque 1
10
108.692839
20
-36.685134
11
109.350197
21
-36.290642
0
LINE
8
Calque 1
10
109.350197
20
-36.290642
11
109.811689
21
-35.678460
0
LINE
8
Calque 1
10
109.811689
20
-35.678460
11
110.009770
21
-34.909420
0
LINE
8
Calque 1
10
110.009770
20
-34.909420
11
109.893857
21
-34.123639
0
LINE
8
Calque 1
10
109.893857
20
-34.123639
11
109.499373
21
-33.466099
0
LINE
8
Calque 1
10
109.499373
20
-33.466099
11
108.887144
21
-33.004465
0
LINE
8
Calque 1
10
108.887144
20
-33.004465
11
108.118000
21
-32.806400
0
LINE
8
Calque 1
10
108.118000
20
-32.806400
11
108.118000
21
-32.806400
0
LINE
8
Calque 1
10
-237.722000
20
5.045450
11
-238.507871
21
4.929435
0
LINE
8
Calque 1
10
-238.507871
20
4.929435
11
-239.165349
21
4.534816
0
LINE
8
Calque 1
10
-239.165349
20
4.534816
11
-239.626812
21
3.922460
0
LINE
8
Calque 1
10
-239.626812
20
3.922460
11
-239.824640
21
3.153230
0
LINE
8
Calque 1
10
-239.824640
20
3.153230
11
-239.708723
21
2.367610
0
LINE
8
Calque 1
10
-239.708723
20
2.367610
11
-239.314229
21
1.710239
0
LINE
8
Calque 1
10
-239.314229
20
1.710239
11
-238.701993
21
1.248736
0
LINE
8
Calque 1
10
-238.701993
20
1.248736
11
-237.932850
21
1.050720
0
LINE
8
Calque 1
10
-237.932850
20
1.050720
11
-237.147284
21
1.166686
0
LINE
8
Calque 1
10
-237.147284
20
1.166686
11
-236.489943
21
1.561180
0
LINE
8
Calque 1
10
-236.489943
20
1.561180
11
-236.028467
21
2.173369
0
LINE
8
Calque 1
10
-236.028467
20
2.173369
11
-235.830500
21
2.942420
0
LINE
8
Calque 1
10
-235.830500
20
2.942420
11
-235.946372
21
3.728210
0
LINE
8
Calque 1
10
-235.946372
20
3.728210
11
-236.340766
21
4.385750
0
LINE
8
Calque 1
10
-236.340766
20
4.385750
11
-236.952903
21
4.847382
0
LINE
8
Calque 1
10
-236.952903
20
4.847382
11
-237.722000
21
5.045450
0
LINE
8
Calque 1
10
-237.722000
20
5.045450
11
-237.722000
21
5.045450
0
LINE
8
Calque 1
10
269.169000
20
-6.247730
11
268.383057
21
-6.363587
0
LINE
8
Calque 1
10
268.383057
20
-6.363587
11
267.725402
21
-6.758164
0
LINE
8
Calque 1
10
267.725402
20
-6.758164
11
267.263756
21
-7.370569
0
LINE
8
Calque 1
10
267.263756
20
-7.370569
11
267.065840
21
-8.139910
0
LINE
8
Calque 1
10
267.065840
20
-8.139910
11
267.181800
21
-8.925664
0
LINE
8
Calque 1
10
267.181800
20
-8.925664
11
267.576411
21
-9.583104
0
LINE
8
Calque 1
10
267.576411
20
-9.583104
11
268.188816
21
-10.044581
0
LINE
8
Calque 1
10
268.188816
20
-10.044581
11
268.958160
21
-10.242450
0
LINE
8
Calque 1
10
268.958160
20
-10.242450
11
269.743726
21
-10.126484
0
LINE
8
Calque 1
10
269.743726
20
-10.126484
11
270.401067
21
-9.731990
0
LINE
8
Calque 1
10
270.401067
20
-9.731990
11
270.862543
21
-9.119801
0
LINE
8
Calque 1
10
270.862543
20
-9.119801
11
271.060510
21
-8.350750
0
LINE
8
Calque 1
10
271.060510
20
-8.350750
11
270.944638
21
-7.564960
0
LINE
8
Calque 1
10
270.944638
20
-7.564960
11
270.550242
21
-6.907421
0
LINE
8
Calque 1
10
270.550242
20
-6.907421
11
269.938103
21
-6.445792
0
LINE
8
Calque 1
10
269.938103
20
-6.445792
11
269.169000
21
-6.247730
0
LINE
8
Calque 1
10
269.169000
20
-6.247730
11
269.169000
21
-6.247730
0
LINE
8
Calque 1
10
-377.485000
20
55.746000
11
-378.270565
21
55.630035
0
LINE
8
Calque 1
10
-378.270565
20
55.630035
11
-378.927906
21
55.235545
0
LINE
8
Calque 1
10
-378.927906
20
55.235545
11
-379.389379
21
54.623360
0
LINE
8
Calque 1
10
-379.389379
20
54.623360
11
-379.587340
21
53.854310
0
LINE
8
Calque 1
10
-379.587340
20
53.854310
11
-379.471428
21
53.068684
0
LINE
8
Calque 1
10
-379.471428
20
53.068684
11
-379.076965
21
52.411305
0
LINE
8
Calque 1
10
-379.076965
20
52.411305
11
-378.464807
21
51.949803
0
LINE
8
Calque 1
10
-378.464807
20
51.949803
11
-377.695810
21
51.751810
0
LINE
8
Calque 1
10
-377.695810
20
51.751810
11
-376.909907
21
51.867617
0
LINE
8
Calque 1
10
-376.909907
20
51.867617
11
-376.252320
21
52.262065
0
LINE
8
Calque 1
10
-376.252320
20
52.262065
11
-375.790693
21
52.874298
0
LINE
8
Calque 1
10
-375.790693
20
52.874298
11
-375.592670
21
53.643460
0
LINE
8
Calque 1
10
-375.592670
20
53.643460
11
-375.708631
21
54.429206
0
LINE
8
Calque 1
10
-375.708631
20
54.429206
11
-376.103243
21
55.086646
0
LINE
8
Calque 1
10
-376.103243
20
55.086646
11
-376.715651
21
55.548129
0
LINE
8
Calque 1
10
-376.715651
20
55.548129
11
-377.485000
21
55.746000
0
LINE
8
Calque 1
10
-377.485000
20
55.746000
11
-377.485000
21
55.746000
0
LINE
8
Calque 1
10
386.038000
20
32.515400
11
385.252285
21
32.399382
0
LINE
8
Calque 1
10
385.252285
20
32.399382
11
384.594886
21
32.004757
0
LINE
8
Calque 1
10
384.594886
20
32.004757
11
384.133450
21
31.392397
0
LINE
8
Calque 1
10
384.133450
20
31.392397
11
383.935620
21
30.623170
0
LINE
8
Calque 1
10
383.935620
20
30.623170
11
384.051533
21
29.837549
0
LINE
8
Calque 1
10
384.051533
20
29.837549
11
384.445999
21
29.180176
0
LINE
8
Calque 1
10
384.445999
20
29.180176
11
385.058158
21
28.718676
0
LINE
8
Calque 1
10
385.058158
20
28.718676
11
385.827150
21
28.520670
0
LINE
8
Calque 1
10
385.827150
20
28.520670
11
386.612835
21
28.636636
0
LINE
8
Calque 1
10
386.612835
20
28.636636
11
387.270196
21
29.031129
0
LINE
8
Calque 1
10
387.270196
20
29.031129
11
387.731689
21
29.643315
0
LINE
8
Calque 1
10
387.731689
20
29.643315
11
387.929770
21
30.412360
0
LINE
8
Calque 1
10
387.929770
20
30.412360
11
387.813856
21
31.198152
0
LINE
8
Calque 1
10
387.813856
20
31.198152
11
387.419369
21
31.855695
0
LINE
8
Calque 1
10
387.419369
20
31.855695
11
386.807140
21
32.317331
0
LINE
8
Calque 1
10
386.807140
20
32.317331
11
386.038000
21
32.515400
0
LINE
8
Calque 1
10
386.038000
20
32.515400
11
386.038000
21
32.515400
0
LINE
8
Calque 1
10
402.751000
20
52.219300
11
401.476020
21
28.063100
0
LINE
8
Calque 1
10
401.476020
20
28.063100
11
396.351810
21
25.662850
0
LINE
8
Calque 1
10
396.351810
20
25.662850
11
383.352635
21
20.040902
0
LINE
8
Calque 1
10
383.352635
20
20.040902
11
374.032189
21
16.270719
0
LINE
8
Calque 1
10
374.032189
20
16.270719
11
362.901704
21
11.993824
0
LINE
8
Calque 1
10
362.901704
20
11.993824
11
350.014082
21
7.309787
0
LINE
8
Calque 1
10
350.014082
20
7.309787
11
335.422224
21
2.318181
0
LINE
8
Calque 1
10
335.422224
20
2.318181
11
319.179030
21
-2.881425
0
LINE
8
Calque 1
10
319.179030
20
-2.881425
11
301.337401
21
-8.189460
0
LINE
8
Calque 1
10
301.337401
20
-8.189460
11
281.950239
21
-13.506351
0
LINE
8
Calque 1
10
281.950239
20
-13.506351
11
261.070443
21
-18.732530
0
LINE
8
Calque 1
10
261.070443
20
-18.732530
11
238.750916
21
-23.768425
0
LINE
8
Calque 1
10
238.750916
20
-23.768425
11
227.067784
21
-26.183899
0
LINE
8
Calque 1
10
227.067784
20
-26.183899
11
215.044558
21
-28.514464
0
LINE
8
Calque 1
10
215.044558
20
-28.514464
11
202.687848
21
-30.747672
0
LINE
8
Calque 1
10
202.687848
20
-30.747672
11
190.004269
21
-32.871078
0
LINE
8
Calque 1
10
190.004269
20
-32.871078
11
177.000433
21
-34.872234
0
LINE
8
Calque 1
10
177.000433
20
-34.872234
11
163.682951
21
-36.738695
0
LINE
8
Calque 1
10
163.682951
20
-36.738695
11
150.058438
21
-38.458014
0
LINE
8
Calque 1
10
150.058438
20
-38.458014
11
136.133505
21
-40.017745
0
LINE
8
Calque 1
10
136.133505
20
-40.017745
11
121.914765
21
-41.405441
0
LINE
8
Calque 1
10
121.914765
20
-41.405441
11
107.408831
21
-42.608656
0
LINE
8
Calque 1
10
107.408831
20
-42.608656
11
92.622316
21
-43.614943
0
LINE
8
Calque 1
10
92.622316
20
-43.614943
11
77.561831
21
-44.411858
0
LINE
8
Calque 1
10
77.561831
20
-44.411858
11
62.233990
21
-44.986952
0
LINE
8
Calque 1
10
62.233990
20
-44.986952
11
46.645405
21
-45.327779
0
LINE
8
Calque 1
10
46.645405
20
-45.327779
11
30.802689
21
-45.421894
0
LINE
8
Calque 1
10
30.802689
20
-45.421894
11
14.712455
21
-45.256850
0
LINE
8
Calque 1
10
14.712455
20
-45.256850
11
-1.618686
21
-44.820200
0
LINE
8
Calque 1
10
-1.618686
20
-44.820200
11
-18.184120
21
-44.099499
0
LINE
8
Calque 1
10
-18.184120
20
-44.099499
11
-34.977235
21
-43.082299
0
LINE
8
Calque 1
10
-34.977235
20
-43.082299
11
-51.991417
21
-41.756155
0
LINE
8
Calque 1
10
-51.991417
20
-41.756155
11
-69.220056
21
-40.108620
0
LINE
8
Calque 1
10
-69.220056
20
-40.108620
11
-86.656537
21
-38.127248
0
LINE
8
Calque 1
10
-86.656537
20
-38.127248
11
-104.294249
21
-35.799592
0
LINE
8
Calque 1
10
-104.294249
20
-35.799592
11
-122.126578
21
-33.113206
0
LINE
8
Calque 1
10
-122.126578
20
-33.113206
11
-140.146912
21
-30.055644
0
LINE
8
Calque 1
10
-140.146912
20
-30.055644
11
-158.348639
21
-26.614460
0
LINE
8
Calque 1
10
-158.348639
20
-26.614460
11
-176.725145
21
-22.777206
0
LINE
8
Calque 1
10
-176.725145
20
-22.777206
11
-195.269819
21
-18.531437
0
LINE
8
Calque 1
10
-195.269819
20
-18.531437
11
-213.976048
21
-13.864706
0
LINE
8
Calque 1
10
-213.976048
20
-13.864706
11
-232.837218
21
-8.764567
0
LINE
8
Calque 1
10
-232.837218
20
-8.764567
11
-251.846718
21
-3.218573
0
LINE
8
Calque 1
10
-251.846718
20
-3.218573
11
-270.997934
21
2.785721
0
LINE
8
Calque 1
10
-270.997934
20
2.785721
11
-290.284255
21
9.260763
0
LINE
8
Calque 1
10
-290.284255
20
9.260763
11
-309.699067
21
16.218998
0
LINE
8
Calque 1
10
-309.699067
20
16.218998
11
-329.235759
21
23.672872
0
LINE
8
Calque 1
10
-329.235759
20
23.672872
11
-348.887716
21
31.634834
0
LINE
8
Calque 1
10
-348.887716
20
31.634834
11
-368.648328
21
40.117327
0
LINE
8
Calque 1
10
-368.648328
20
40.117327
11
-388.510980
21
49.132800
0
LINE
8
Calque 1
10
-388.510980
20
49.132800
11
-387.248390
21
73.054200
0
LINE
8
Calque 1
10
-387.248390
20
73.054200
11
-386.487680
21
72.683370
0
LINE
8
Calque 1
10
-386.487680
20
72.683370
11
-369.005351
21
64.757798
0
LINE
8
Calque 1
10
-369.005351
20
64.757798
11
-351.597922
21
57.246928
0
LINE
8
Calque 1
10
-351.597922
20
57.246928
11
-334.270074
21
50.142200
0
LINE
8
Calque 1
10
-334.270074
20
50.142200
11
-317.026489
21
43.435058
0
LINE
8
Calque 1
10
-317.026489
20
43.435058
11
-299.871847
21
37.116944
0
LINE
8
Calque 1
10
-299.871847
20
37.116944
11
-282.810831
21
31.179300
0
LINE
8
Calque 1
10
-282.810831
20
31.179300
11
-265.848121
21
25.613568
0
LINE
8
Calque 1
10
-265.848121
20
25.613568
11
-248.988399
21
20.411190
0
LINE
8
Calque 1
10
-248.988399
20
20.411190
11
-232.236345
21
15.563609
0
LINE
8
Calque 1
10
-232.236345
20
15.563609
11
-215.596642
21
11.062266
0
LINE
8
Calque 1
10
-215.596642
20
11.062266
11
-199.073971
21
6.898604
0
LINE
8
Calque 1
10
-199.073971
20
6.898604
11
-182.673012
21
3.064065
0
LINE
8
Calque 1
10
-182.673012
20
3.064065
11
-166.398447
21
-0.449909
0
LINE
8
Calque 1
10
-166.398447
20
-0.449909
11
-150.254958
21
-3.651875
0
LINE
8
Calque 1
10
-150.254958
20
-3.651875
11
-134.247225
21
-6.550392
0
LINE
8
Calque 1
10
-134.247225
20
-6.550392
11
-118.379930
21
-9.154017
0
LINE
8
Calque 1
10
-118.379930
20
-9.154017
11
-102.657754
21
-11.471309
0
LINE
8
Calque 1
10
-102.657754
20
-11.471309
11
-87.085379
21
-13.510824
0
LINE
8
Calque 1
10
-87.085379
20
-13.510824
11
-71.667485
21
-15.281121
0
LINE
8
Calque 1
10
-71.667485
20
-15.281121
11
-56.408754
21
-16.790758
0
LINE
8
Calque 1
10
-56.408754
20
-16.790758
11
-41.313868
21
-18.048292
0
LINE
8
Calque 1
10
-41.313868
20
-18.048292
11
-26.387507
21
-19.062281
0
LINE
8
Calque 1
10
-26.387507
20
-19.062281
11
-11.634352
21
-19.841283
0
LINE
8
Calque 1
10
-11.634352
20
-19.841283
11
2.940914
21
-20.393857
0
LINE
8
Calque 1
10
2.940914
20
-20.393857
11
17.333611
21
-20.728558
0
LINE
8
Calque 1
10
17.333611
20
-20.728558
11
31.539057
21
-20.853947
0
LINE
8
Calque 1
10
31.539057
20
-20.853947
11
45.552571
21
-20.778579
0
LINE
8
Calque 1
10
45.552571
20
-20.778579
11
59.369472
21
-20.511014
0
LINE
8
Calque 1
10
59.369472
20
-20.511014
11
72.985079
21
-20.059808
0
LINE
8
Calque 1
10
72.985079
20
-20.059808
11
86.394710
21
-19.433521
0
LINE
8
Calque 1
10
86.394710
20
-19.433521
11
99.593684
21
-18.640709
0
LINE
8
Calque 1
10
99.593684
20
-18.640709
11
112.577320
21
-17.689930
0
LINE
8
Calque 1
10
112.577320
20
-17.689930
11
128.812379
21
-16.262015
0
LINE
8
Calque 1
10
128.812379
20
-16.262015
11
144.680025
21
-14.608929
0
LINE
8
Calque 1
10
144.680025
20
-14.608929
11
160.170552
21
-12.748411
0
LINE
8
Calque 1
10
160.170552
20
-12.748411
11
175.274256
21
-10.698200
0
LINE
8
Calque 1
10
175.274256
20
-10.698200
11
189.981431
21
-8.476036
0
LINE
8
Calque 1
10
189.981431
20
-8.476036
11
204.282374
21
-6.099657
0
LINE
8
Calque 1
10
204.282374
20
-6.099657
11
218.167379
21
-3.586804
0
LINE
8
Calque 1
10
218.167379
20
-3.586804
11
231.626742
21
-0.955216
0
LINE
8
Calque 1
10
231.626742
20
-0.955216
11
244.650757
21
1.777368
0
LINE
8
Calque 1
10
244.650757
20
1.777368
11
257.229721
21
4.593209
0
LINE
8
Calque 1
10
257.229721
20
4.593209
11
269.353928
21
7.474566
0
LINE
8
Calque 1
10
269.353928
20
7.474566
11
281.013674
21
10.403702
0
LINE
8
Calque 1
10
281.013674
20
10.403702
11
302.900961
21
16.334348
0
LINE
8
Calque 1
10
302.900961
20
16.334348
11
322.813945
21
22.243233
0
LINE
8
Calque 1
10
322.813945
20
22.243233
11
340.674988
21
27.988440
0
LINE
8
Calque 1
10
340.674988
20
27.988440
11
356.406451
21
33.428055
0
LINE
8
Calque 1
10
356.406451
20
33.428055
11
369.930696
21
38.420164
0
LINE
8
Calque 1
10
369.930696
20
38.420164
11
381.170086
21
42.822850
0
LINE
8
Calque 1
10
381.170086
20
42.822850
11
390.046981
21
46.494198
0
LINE
8
Calque 1
10
390.046981
20
46.494198
11
396.483744
21
49.292295
0
LINE
8
Calque 1
10
396.483744
20
49.292295
11
401.726320
21
51.701070
0
LINE
8
Calque 1
10
401.726320
20
51.701070
11
402.751000
21
52.219300
0
LINE
8
Calque 1
10
40.141000
20
9.723880
11
39.394645
21
9.452276
0
LINE
8
Calque 1
10
39.394645
20
9.452276
11
38.829984
21
8.933532
0
LINE
8
Calque 1
10
38.829984
20
8.933532
11
38.501016
21
8.240882
0
LINE
8
Calque 1
10
38.501016
20
8.240882
11
38.461740
21
7.447560
0
LINE
8
Calque 1
10
38.461740
20
7.447560
11
38.733275
21
6.701291
0
LINE
8
Calque 1
10
38.733275
20
6.701291
11
39.251946
21
6.136665
0
LINE
8
Calque 1
10
39.251946
20
6.136665
11
39.944487
21
5.807681
0
LINE
8
Calque 1
10
39.944487
20
5.807681
11
40.737630
21
5.768340
0
LINE
8
Calque 1
10
40.737630
20
5.768340
11
41.483847
21
6.039864
0
LINE
8
Calque 1
10
41.483847
20
6.039864
11
42.048480
21
6.558467
0
LINE
8
Calque 1
10
42.048480
20
6.558467
11
42.377523
21
7.250955
0
LINE
8
Calque 1
10
42.377523
20
7.250955
11
42.416970
21
8.044130
0
LINE
8
Calque 1
10
42.416970
20
8.044130
11
42.145447
21
8.790574
0
LINE
8
Calque 1
10
42.145447
20
8.790574
11
41.626815
21
9.355380
0
LINE
8
Calque 1
10
41.626815
20
9.355380
11
40.934269
21
9.684498
0
LINE
8
Calque 1
10
40.934269
20
9.684498
11
40.141010
21
9.723880
0
LINE
8
Calque 1
10
40.141010
20
9.723880
11
40.141000
21
9.723880
0
LINE
8
Calque 1
10
-45.226200
20
14.837100
11
-45.972413
21
14.565572
0
LINE
8
Calque 1
10
-45.972413
20
14.565572
11
-46.537017
21
14.046972
0
LINE
8
Calque 1
10
-46.537017
20
14.046972
11
-46.865983
21
13.354496
0
LINE
8
Calque 1
10
-46.865983
20
13.354496
11
-46.905280
21
12.561340
0
LINE
8
Calque 1
10
-46.905280
20
12.561340
11
-46.633787
21
11.815066
0
LINE
8
Calque 1
10
-46.633787
20
11.815066
11
-46.115209
21
11.250429
0
LINE
8
Calque 1
10
-46.115209
20
11.250429
11
-45.422761
21
10.921432
0
LINE
8
Calque 1
10
-45.422761
20
10.921432
11
-44.629660
21
10.882080
0
LINE
8
Calque 1
10
-44.629660
20
10.882080
11
-43.883193
21
11.153491
0
LINE
8
Calque 1
10
-43.883193
20
11.153491
11
-43.318324
21
11.672095
0
LINE
8
Calque 1
10
-43.318324
20
11.672095
11
-42.989155
21
12.364661
0
LINE
8
Calque 1
10
-42.989155
20
12.364661
11
-42.949790
21
13.157960
0
LINE
8
Calque 1
10
-42.949790
20
13.157960
11
-43.221389
21
13.904350
0
LINE
8
Calque 1
10
-43.221389
20
13.904350
11
-43.740186
21
14.469014
0
LINE
8
Calque 1
10
-43.740186
20
14.469014
11
-44.432887
21
14.797936
0
LINE
8
Calque 1
10
-44.432887
20
14.797936
11
-45.226200
21
14.837100
0
LINE
8
Calque 1
10
-45.226200
20
14.837100
11
-45.226200
21
14.837100
0
LINE
8
Calque 1
10
116.076000
20
50.649300
11
115.329673
21
50.377755
0
LINE
8
Calque 1
10
115.329673
20
50.377755
11
114.765052
21
49.859154
0
LINE
8
Calque 1
10
114.765052
20
49.859154
11
114.436071
21
49.166678
0
LINE
8
Calque 1
10
114.436071
20
49.166678
11
114.396660
21
48.373510
0
LINE
8
Calque 1
10
114.396660
20
48.373510
11
114.668158
21
47.627231
0
LINE
8
Calque 1
10
114.668158
20
47.627231
11
115.186765
21
47.062595
0
LINE
8
Calque 1
10
115.186765
20
47.062595
11
115.879289
21
46.733609
0
LINE
8
Calque 1
10
115.879289
20
46.733609
11
116.672540
21
46.694280
0
LINE
8
Calque 1
10
116.672540
20
46.694280
11
117.418753
21
46.965809
0
LINE
8
Calque 1
10
117.418753
20
46.965809
11
117.983359
21
47.484411
0
LINE
8
Calque 1
10
117.983359
20
47.484411
11
118.312327
21
48.176888
0
LINE
8
Calque 1
10
118.312327
20
48.176888
11
118.351630
21
48.970040
0
LINE
8
Calque 1
10
118.351630
20
48.970040
11
118.080134
21
49.716314
0
LINE
8
Calque 1
10
118.080134
20
49.716314
11
117.561553
21
50.280951
0
LINE
8
Calque 1
10
117.561553
20
50.280951
11
116.869102
21
50.609948
0
LINE
8
Calque 1
10
116.869102
20
50.609948
11
116.076000
21
50.649300
0
LINE
8
Calque 1
10
116.076000
20
50.649300
11
116.076000
21
50.649300
0
LINE
8
Calque 1
10
-151.408000
20
68.873700
11
-152.154456
21
68.602217
0
LINE
8
Calque 1
10
-152.154456
20
68.602217
11
-152.719331
21
68.083664
0
LINE
8
Calque 1
10
-152.719331
20
68.083664
11
-153.048513
21
67.391199
0
LINE
8
Calque 1
10
-153.048513
20
67.391199
11
-153.087890
21
66.597980
0
LINE
8
Calque 1
10
-153.087890
20
66.597980
11
-152.816297
21
65.851390
0
LINE
8
Calque 1
10
-152.816297
20
65.851390
11
-152.297526
21
65.286499
0
LINE
8
Calque 1
10
-152.297526
20
65.286499
11
-151.604810
21
64.957405
0
LINE
8
Calque 1
10
-151.604810
20
64.957405
11
-150.811380
21
64.918210
0
LINE
8
Calque 1
10
-150.811380
20
64.918210
11
-150.065024
21
65.189765
0
LINE
8
Calque 1
10
-150.065024
20
65.189765
11
-149.500391
21
65.708494
0
LINE
8
Calque 1
10
-149.500391
20
65.708494
11
-149.171508
21
66.401175
0
LINE
8
Calque 1
10
-149.171508
20
66.401175
11
-149.132400
21
67.194590
0
LINE
8
Calque 1
10
-149.132400
20
67.194590
11
-149.403884
21
67.940809
0
LINE
8
Calque 1
10
-149.403884
20
67.940809
11
-149.922459
21
68.505419
0
LINE
8
Calque 1
10
-149.922459
20
68.505419
11
-150.614904
21
68.834391
0
LINE
8
Calque 1
10
-150.614904
20
68.834391
11
-151.408000
21
68.873700
0
LINE
8
Calque 1
10
-151.408000
20
68.873700
11
-151.408000
21
68.873700
0
LINE
8
Calque 1
10
196.249000
20
132.757000
11
195.502590
21
132.485482
0
LINE
8
Calque 1
10
195.502590
20
132.485482
11
194.937819
21
131.966854
0
LINE
8
Calque 1
10
194.937819
20
131.966854
11
194.608740
21
131.274313
0
LINE
8
Calque 1
10
194.608740
20
131.274313
11
194.569410
21
130.481060
0
LINE
8
Calque 1
10
194.569410
20
130.481060
11
194.840963
21
129.734702
0
LINE
8
Calque 1
10
194.840963
20
129.734702
11
195.359666
21
129.170063
0
LINE
8
Calque 1
10
195.359666
20
129.170063
11
196.052274
21
128.841167
0
LINE
8
Calque 1
10
196.052274
20
128.841167
11
196.845540
21
128.802040
0
LINE
8
Calque 1
10
196.845540
20
128.802040
11
197.591908
21
129.073547
0
LINE
8
Calque 1
10
197.591908
20
129.073547
11
198.156591
21
129.592132
0
LINE
8
Calque 1
10
198.156591
20
129.592132
11
198.485589
21
130.284579
0
LINE
8
Calque 1
10
198.485589
20
130.284579
11
198.524900
21
131.077670
0
LINE
8
Calque 1
10
198.524900
20
131.077670
11
198.253394
21
131.824002
0
LINE
8
Calque 1
10
198.253394
20
131.824002
11
197.734789
21
132.388624
0
LINE
8
Calque 1
10
197.734789
20
132.388624
11
197.042264
21
132.717601
0
LINE
8
Calque 1
10
197.042264
20
132.717601
11
196.249000
21
132.757000
0
LINE
8
Calque 1
10
196.249000
20
132.757000
11
196.249000
21
132.757000
0
LINE
8
Calque 1
10
276.903000
20
195.182000
11
276.156785
21
194.910473
0
LINE
8
Calque 1
10
276.156785
20
194.910473
11
275.592164
21
194.391802
0
LINE
8
Calque 1
10
275.592164
20
194.391802
11
275.263131
21
193.699256
0
LINE
8
Calque 1
10
275.263131
20
193.699256
11
275.223680
21
192.906100
0
LINE
8
Calque 1
10
275.223680
20
192.906100
11
275.495205
21
192.159883
0
LINE
8
Calque 1
10
275.495205
20
192.159883
11
276.013874
21
191.595259
0
LINE
8
Calque 1
10
276.013874
20
191.595259
11
276.706420
21
191.266223
0
LINE
8
Calque 1
10
276.706420
20
191.266223
11
277.499580
21
191.226770
0
LINE
8
Calque 1
10
277.499580
20
191.226770
11
278.245988
21
191.498288
0
LINE
8
Calque 1
10
278.245988
20
191.498288
11
278.810786
21
192.016921
0
LINE
8
Calque 1
10
278.810786
20
192.016921
11
279.139944
21
192.709474
0
LINE
8
Calque 1
10
279.139944
20
192.709474
11
279.179430
21
193.502750
0
LINE
8
Calque 1
10
279.179430
20
193.502750
11
278.907836
21
194.249106
0
LINE
8
Calque 1
10
278.907836
20
194.249106
11
278.389039
21
194.813761
0
LINE
8
Calque 1
10
278.389039
20
194.813761
11
277.696330
21
195.142723
0
LINE
8
Calque 1
10
277.696330
20
195.142723
11
276.903000
21
195.182000
0
LINE
8
Calque 1
10
276.903000
20
195.182000
11
276.903000
21
195.182000
0
LINE
8
Calque 1
10
-279.599000
20
113.769000
11
-280.345370
21
113.497493
0
LINE
8
Calque 1
10
-280.345370
20
113.497493
11
-280.910056
21
112.978906
0
LINE
8
Calque 1
10
-280.910056
20
112.978906
11
-281.239057
21
112.286457
0
LINE
8
Calque 1
10
-281.239057
20
112.286457
11
-281.278370
21
111.493360
0
LINE
8
Calque 1
10
-281.278370
20
111.493360
11
-281.006866
21
110.746795
0
LINE
8
Calque 1
10
-281.006866
20
110.746795
11
-280.488286
21
110.181936
0
LINE
8
Calque 1
10
-280.488286
20
110.181936
11
-279.795754
21
109.852827
0
LINE
8
Calque 1
10
-279.795754
20
109.852827
11
-279.002390
21
109.813510
0
LINE
8
Calque 1
10
-279.002390
20
109.813510
11
-278.256032
21
110.085066
0
LINE
8
Calque 1
10
-278.256032
20
110.085066
11
-277.691396
21
110.603795
0
LINE
8
Calque 1
10
-277.691396
20
110.603795
11
-277.362510
21
111.296479
0
LINE
8
Calque 1
10
-277.362510
20
111.296479
11
-277.323400
21
112.089900
0
LINE
8
Calque 1
10
-277.323400
20
112.089900
11
-277.594884
21
112.836113
0
LINE
8
Calque 1
10
-277.594884
20
112.836113
11
-278.113459
21
113.400720
0
LINE
8
Calque 1
10
-278.113459
20
113.400720
11
-278.805904
21
113.729692
0
LINE
8
Calque 1
10
-278.805904
20
113.729692
11
-279.599000
21
113.769000
0
LINE
8
Calque 1
10
-279.599000
20
113.769000
11
-279.599000
21
113.769000
0
LINE
8
Calque 1
10
-377.214000
20
101.111000
11
-377.960217
21
100.839505
0
LINE
8
Calque 1
10
-377.960217
20
100.839505
11
-378.524847
21
100.320896
0
LINE
8
Calque 1
10
-378.524847
20
100.320896
11
-378.853884
21
99.628364
0
LINE
8
Calque 1
10
-378.853884
20
99.628364
11
-378.893320
21
98.835100
0
LINE
8
Calque 1
10
-378.893320
20
98.835100
11
-378.621795
21
98.088887
0
LINE
8
Calque 1
10
-378.621795
20
98.088887
11
-378.103131
21
97.524291
0
LINE
8
Calque 1
10
-378.103131
20
97.524291
11
-377.410597
21
97.195332
0
LINE
8
Calque 1
10
-377.410597
20
97.195332
11
-376.617460
21
97.156030
0
LINE
8
Calque 1
10
-376.617460
20
97.156030
11
-375.871242
21
97.427515
0
LINE
8
Calque 1
10
-375.871242
20
97.427515
11
-375.306607
21
97.946094
0
LINE
8
Calque 1
10
-375.306607
20
97.946094
11
-374.977559
21
98.638551
0
LINE
8
Calque 1
10
-374.977559
20
98.638551
11
-374.938100
21
99.431670
0
LINE
8
Calque 1
10
-374.938100
20
99.431670
11
-375.209648
21
100.178033
0
LINE
8
Calque 1
10
-375.209648
20
100.178033
11
-375.728324
21
100.742706
0
LINE
8
Calque 1
10
-375.728324
20
100.742706
11
-376.420863
21
101.071694
0
LINE
8
Calque 1
10
-376.420863
20
101.071694
11
-377.214000
21
101.111000
0
LINE
8
Calque 1
10
-377.214000
20
101.111000
11
-377.214000
21
101.111000
0
LINE
8
Calque 1
10
360.612000
20
224.154000
11
359.865648
21
223.882407
0
LINE
8
Calque 1
10
359.865648
20
223.882407
11
359.301021
21
223.363615
0
LINE
8
Calque 1
10
359.301021
20
223.363615
11
358.972137
21
222.670921
0
LINE
8
Calque 1
10
358.972137
20
222.670921
11
358.933010
21
221.877620
0
LINE
8
Calque 1
10
358.933010
20
221.877620
11
359.204495
21
221.131397
0
LINE
8
Calque 1
10
359.204495
20
221.131397
11
359.723074
21
220.566759
0
LINE
8
Calque 1
10
359.723074
20
220.566759
11
360.415531
21
220.237709
0
LINE
8
Calque 1
10
360.415531
20
220.237709
11
361.208650
21
220.198250
0
LINE
8
Calque 1
10
361.208650
20
220.198250
11
361.955100
21
220.469774
0
LINE
8
Calque 1
10
361.955100
20
220.469774
11
362.519961
21
220.988416
0
LINE
8
Calque 1
10
362.519961
20
220.988416
11
362.849129
21
221.680970
0
LINE
8
Calque 1
10
362.849129
20
221.680970
11
362.888500
21
222.474230
0
LINE
8
Calque 1
10
362.888500
20
222.474230
11
362.616915
21
223.220783
0
LINE
8
Calque 1
10
362.616915
20
223.220783
11
362.098156
21
223.785614
0
LINE
8
Calque 1
10
362.098156
20
223.785614
11
361.405445
21
224.114695
0
LINE
8
Calque 1
10
361.405445
20
224.114695
11
360.612000
21
224.154000
0
LINE
8
Calque 1
10
360.612000
20
224.154000
11
360.612000
21
224.154000
0
LINE
8
Calque 1
10
350.017000
20
234.604000
11
357.976819
21
235.741442
0
LINE
8
Calque 1
10
357.976819
20
235.741442
11
365.056775
21
236.429943
0
LINE
8
Calque 1
10
365.056775
20
236.429943
11
371.221844
21
236.757706
0
LINE
8
Calque 1
10
371.221844
20
236.757706
11
376.437000
21
236.812935
0
LINE
8
Calque 1
10
376.437000
20
236.812935
11
380.667219
21
236.683832
0
LINE
8
Calque 1
10
380.667219
20
236.683832
11
383.877475
21
236.458602
0
LINE
8
Calque 1
10
383.877475
20
236.458602
11
387.098000
21
236.072570
0
LINE
8
Calque 1
10
387.098000
20
236.072570
11
390.582850
21
212.968270
0
LINE
8
Calque 1
10
390.582850
20
212.968270
11
389.769380
21
213.115824
0
LINE
8
Calque 1
10
389.769380
20
213.115824
11
388.673606
21
213.279584
0
LINE
8
Calque 1
10
388.673606
20
213.279584
11
385.456185
21
213.608852
0
LINE
8
Calque 1
10
385.456185
20
213.608852
11
380.221964
21
213.860604
0
LINE
8
Calque 1
10
380.221964
20
213.860604
11
373.075792
21
213.791822
0
LINE
8
Calque 1
10
373.075792
20
213.791822
11
368.818491
21
213.561285
0
LINE
8
Calque 1
10
368.818491
20
213.561285
11
364.122520
21
213.159482
0
LINE
8
Calque 1
10
364.122520
20
213.159482
11
359.000985
21
212.556035
0
LINE
8
Calque 1
10
359.000985
20
212.556035
11
353.466994
21
211.720565
0
LINE
8
Calque 1
10
353.466994
20
211.720565
11
347.533652
21
210.622696
0
LINE
8
Calque 1
10
347.533652
20
210.622696
11
341.214065
21
209.232050
0
LINE
8
Calque 1
10
341.214065
20
209.232050
11
334.521339
21
207.518248
0
LINE
8
Calque 1
10
334.521339
20
207.518248
11
327.468580
21
205.450914
0
LINE
8
Calque 1
10
327.468580
20
205.450914
11
320.071592
21
202.999045
0
LINE
8
Calque 1
10
320.071592
20
202.999045
11
312.346851
21
200.131409
0
LINE
8
Calque 1
10
312.346851
20
200.131409
11
304.308528
21
196.817141
0
LINE
8
Calque 1
10
304.308528
20
196.817141
11
295.970796
21
193.025373
0
LINE
8
Calque 1
10
295.970796
20
193.025373
11
287.347825
21
188.725241
0
LINE
8
Calque 1
10
287.347825
20
188.725241
11
278.453789
21
183.885877
0
LINE
8
Calque 1
10
278.453789
20
183.885877
11
269.302858
21
178.476415
0
LINE
8
Calque 1
10
269.302858
20
178.476415
11
259.909205
21
172.465989
0
LINE
8
Calque 1
10
259.909205
20
172.465989
11
250.287001
21
165.823733
0
LINE
8
Calque 1
10
250.287001
20
165.823733
11
240.450418
21
158.518779
0
LINE
8
Calque 1
10
240.450418
20
158.518779
11
230.413628
21
150.520263
0
LINE
8
Calque 1
10
230.413628
20
150.520263
11
220.190802
21
141.797317
0
LINE
8
Calque 1
10
220.190802
20
141.797317
11
209.796112
21
132.319076
0
LINE
8
Calque 1
10
209.796112
20
132.319076
11
199.243731
21
122.054672
0
LINE
8
Calque 1
10
199.243731
20
122.054672
11
188.547830
21
110.973240
0
LINE
8
Calque 1
10
188.547830
20
110.973240
11
177.722580
21
99.043914
0
LINE
8
Calque 1
10
177.722580
20
99.043914
11
166.906481
21
86.999097
0
LINE
8
Calque 1
10
166.906481
20
86.999097
11
156.343522
21
75.733173
0
LINE
8
Calque 1
10
156.343522
20
75.733173
11
146.011993
21
65.237573
0
LINE
8
Calque 1
10
146.011993
20
65.237573
11
135.890182
21
55.503730
0
LINE
8
Calque 1
10
135.890182
20
55.503730
11
125.956377
21
46.523075
0
LINE
8
Calque 1
10
125.956377
20
46.523075
11
116.188868
21
38.287041
0
LINE
8
Calque 1
10
116.188868
20
38.287041
11
106.565944
21
30.787060
0
LINE
8
Calque 1
10
106.565944
20
30.787060
11
97.065893
21
24.014564
0
LINE
8
Calque 1
10
97.065893
20
24.014564
11
87.667003
21
17.960985
0
LINE
8
Calque 1
10
87.667003
20
17.960985
11
78.347565
21
12.617756
0
LINE
8
Calque 1
10
78.347565
20
12.617756
11
73.710856
21
10.209845
0
LINE
8
Calque 1
10
73.710856
20
10.209845
11
69.085867
21
7.976308
0
LINE
8
Calque 1
10
69.085867
20
7.976308
11
64.469885
21
5.916074
0
LINE
8
Calque 1
10
64.469885
20
5.916074
11
59.860197
21
4.028073
0
LINE
8
Calque 1
10
59.860197
20
4.028073
11
55.254088
21
2.311234
0
LINE
8
Calque 1
10
55.254088
20
2.311234
11
50.648845
21
0.764485
0
LINE
8
Calque 1
10
50.648845
20
0.764485
11
46.041753
21
-0.613245
0
LINE
8
Calque 1
10
46.041753
20
-0.613245
11
41.430099
21
-1.823026
0
LINE
8
Calque 1
10
41.430099
20
-1.823026
11
36.811168
21
-2.865930
0
LINE
8
Calque 1
10
36.811168
20
-2.865930
11
32.182247
21
-3.743027
0
LINE
8
Calque 1
10
32.182247
20
-3.743027
11
27.540623
21
-4.455389
0
LINE
8
Calque 1
10
27.540623
20
-4.455389
11
22.883580
21
-5.004086
0
LINE
8
Calque 1
10
22.883580
20
-5.004086
11
18.210325
21
-5.390190
0
LINE
8
Calque 1
10
18.210325
20
-5.390190
11
13.520040
21
-5.614990
0
LINE
8
Calque 1
10
13.520040
20
-5.614990
11
8.810006
21
-5.679787
0
LINE
8
Calque 1
10
8.810006
20
-5.679787
11
4.077501
21
-5.585882
0
LINE
8
Calque 1
10
4.077501
20
-5.585882
11
-0.680193
21
-5.334574
0
LINE
8
Calque 1
10
-0.680193
20
-5.334574
11
-5.465796
21
-4.927165
0
LINE
8
Calque 1
10
-5.465796
20
-4.927165
11
-15.131612
21
-3.649245
0
LINE
8
Calque 1
10
-15.131612
20
-3.649245
11
-24.941706
21
-1.762524
0
LINE
8
Calque 1
10
-24.941706
20
-1.762524
11
-34.917839
21
0.722592
0
LINE
8
Calque 1
10
-34.917839
20
0.722592
11
-45.081769
21
3.795700
0
LINE
8
Calque 1
10
-45.081769
20
3.795700
11
-55.455257
21
7.446395
0
LINE
8
Calque 1
10
-55.455257
20
7.446395
11
-66.060063
21
11.664274
0
LINE
8
Calque 1
10
-66.060063
20
11.664274
11
-76.917946
21
16.438932
0
LINE
8
Calque 1
10
-76.917946
20
16.438932
11
-88.050667
21
21.759965
0
LINE
8
Calque 1
10
-88.050667
20
21.759965
11
-99.479984
21
27.616969
0
LINE
8
Calque 1
10
-99.479984
20
27.616969
11
-111.227658
21
33.999541
0
LINE
8
Calque 1
10
-111.227658
20
33.999541
11
-123.315449
21
40.897274
0
LINE
8
Calque 1
10
-123.315449
20
40.897274
11
-135.765116
21
48.299767
0
LINE
8
Calque 1
10
-135.765116
20
48.299767
11
-148.598420
21
56.196614
0
LINE
8
Calque 1
10
-148.598420
20
56.196614
11
-155.042873
21
60.133466
0
LINE
8
Calque 1
10
-155.042873
20
60.133466
11
-161.432379
21
63.862390
0
LINE
8
Calque 1
10
-161.432379
20
63.862390
11
-174.040618
21
70.715193
0
LINE
8
Calque 1
10
-174.040618
20
70.715193
11
-186.411262
21
76.792509
0
LINE
8
Calque 1
10
-186.411262
20
76.792509
11
-198.532439
21
82.131819
0
LINE
8
Calque 1
10
-198.532439
20
82.131819
11
-210.392276
21
86.770607
0
LINE
8
Calque 1
10
-210.392276
20
86.770607
11
-221.978900
21
90.746357
0
LINE
8
Calque 1
10
-221.978900
20
90.746357
11
-233.280439
21
94.096553
0
LINE
8
Calque 1
10
-233.280439
20
94.096553
11
-244.285020
21
96.858677
0
LINE
8
Calque 1
10
-244.285020
20
96.858677
11
-254.980769
21
99.070213
0
LINE
8
Calque 1
10
-254.980769
20
99.070213
11
-265.355815
21
100.768644
0
LINE
8
Calque 1
10
-265.355815
20
100.768644
11
-275.398283
21
101.991455
0
LINE
8
Calque 1
10
-275.398283
20
101.991455
11
-285.096301
21
102.776128
0
LINE
8
Calque 1
10
-285.096301
20
102.776128
11
-294.437997
21
103.160147
0
LINE
8
Calque 1
10
-294.437997
20
103.160147
11
-303.411497
21
103.180995
0
LINE
8
Calque 1
10
-303.411497
20
103.180995
11
-312.004929
21
102.876157
0
LINE
8
Calque 1
10
-312.004929
20
102.876157
11
-320.206420
21
102.283114
0
LINE
8
Calque 1
10
-320.206420
20
102.283114
11
-328.002171
21
101.439816
0
LINE
8
Calque 1
10
-328.002171
20
101.439816
11
-335.378536
21
100.383805
0
LINE
8
Calque 1
10
-335.378536
20
100.383805
11
-342.323986
21
99.151940
0
LINE
8
Calque 1
10
-342.323986
20
99.151940
11
-348.826989
21
97.781076
0
LINE
8
Calque 1
10
-348.826989
20
97.781076
11
-354.876014
21
96.308073
0
LINE
8
Calque 1
10
-354.876014
20
96.308073
11
-360.459532
21
94.769788
0
LINE
8
Calque 1
10
-360.459532
20
94.769788
11
-365.566011
21
93.203079
0
LINE
8
Calque 1
10
-365.566011
20
93.203079
11
-370.183920
21
91.644803
0
LINE
8
Calque 1
10
-370.183920
20
91.644803
11
-377.907908
21
88.700981
0
LINE
8
Calque 1
10
-377.907908
20
88.700981
11
-383.539251
21
86.233185
0
LINE
8
Calque 1
10
-383.539251
20
86.233185
11
-388.155020
21
83.905114
0
LINE
8
Calque 1
10
-388.155020
20
83.905114
11
-388.828390
21
83.519384
0
LINE
8
Calque 1
10
-388.828390
20
83.519384
11
-392.320470
21
106.671484
0
LINE
8
Calque 1
10
-392.320470
20
106.671484
11
-390.563052
21
107.600046
0
LINE
8
Calque 1
10
-390.563052
20
107.600046
11
-386.688518
21
109.458152
0
LINE
8
Calque 1
10
-386.688518
20
109.458152
11
-380.776224
21
111.979594
0
LINE
8
Calque 1
10
-380.776224
20
111.979594
11
-372.905524
21
114.898162
0
LINE
8
Calque 1
10
-372.905524
20
114.898162
11
-363.155773
21
117.947644
0
LINE
8
Calque 1
10
-363.155773
20
117.947644
11
-357.601053
21
119.438288
0
LINE
8
Calque 1
10
-357.601053
20
119.438288
11
-351.606328
21
120.861832
0
LINE
8
Calque 1
10
-351.606328
20
120.861832
11
-345.181517
21
122.185000
0
LINE
8
Calque 1
10
-345.181517
20
122.185000
11
-338.336542
21
123.374515
0
LINE
8
Calque 1
10
-338.336542
20
123.374515
11
-331.081319
21
124.397102
0
LINE
8
Calque 1
10
-331.081319
20
124.397102
11
-323.425770
21
125.219484
0
LINE
8
Calque 1
10
-323.425770
20
125.219484
11
-315.079170
21
125.822184
0
LINE
8
Calque 1
10
-315.079170
20
125.822184
11
-306.335798
21
126.130219
0
LINE
8
Calque 1
10
-306.335798
20
126.130219
11
-297.208279
21
126.106159
0
LINE
8
Calque 1
10
-297.208279
20
126.106159
11
-287.709240
21
125.712571
0
LINE
8
Calque 1
10
-287.709240
20
125.712571
11
-277.851306
21
124.912026
0
LINE
8
Calque 1
10
-277.851306
20
124.912026
11
-267.647101
21
123.667092
0
LINE
8
Calque 1
10
-267.647101
20
123.667092
11
-257.109252
21
121.940339
0
LINE
8
Calque 1
10
-257.109252
20
121.940339
11
-246.250382
21
119.694335
0
LINE
8
Calque 1
10
-246.250382
20
119.694335
11
-235.083119
21
116.891650
0
LINE
8
Calque 1
10
-235.083119
20
116.891650
11
-223.620087
21
113.494853
0
LINE
8
Calque 1
10
-223.620087
20
113.494853
11
-211.873912
21
109.466513
0
LINE
8
Calque 1
10
-211.873912
20
109.466513
11
-199.857218
21
104.769199
0
LINE
8
Calque 1
10
-199.857218
20
104.769199
11
-187.582632
21
99.365480
0
LINE
8
Calque 1
10
-187.582632
20
99.365480
11
-175.062778
21
93.217925
0
LINE
8
Calque 1
10
-175.062778
20
93.217925
11
-168.714822
21
89.853512
0
LINE
8
Calque 1
10
-168.714822
20
89.853512
11
-162.310283
21
86.289103
0
LINE
8
Calque 1
10
-162.310283
20
86.289103
11
-155.850739
21
82.520020
0
LINE
8
Calque 1
10
-155.850739
20
82.520020
11
-149.337770
21
78.541584
0
LINE
8
Calque 1
10
-149.337770
20
78.541584
11
-136.554768
21
70.676829
0
LINE
8
Calque 1
10
-136.554768
20
70.676829
11
-124.168925
21
63.315155
0
LINE
8
Calque 1
10
-124.168925
20
63.315155
11
-112.158644
21
56.465228
0
LINE
8
Calque 1
10
-112.158644
20
56.465228
11
-100.502325
21
50.135715
0
LINE
8
Calque 1
10
-100.502325
20
50.135715
11
-89.178370
21
44.335283
0
LINE
8
Calque 1
10
-89.178370
20
44.335283
11
-78.165181
21
39.072597
0
LINE
8
Calque 1
10
-78.165181
20
39.072597
11
-67.441160
21
34.356326
0
LINE
8
Calque 1
10
-67.441160
20
34.356326
11
-56.984707
21
30.195134
0
LINE
8
Calque 1
10
-56.984707
20
30.195134
11
-46.774226
21
26.597689
0
LINE
8
Calque 1
10
-46.774226
20
26.597689
11
-36.788117
21
23.572658
0
LINE
8
Calque 1
10
-36.788117
20
23.572658
11
-27.004781
21
21.128707
0
LINE
8
Calque 1
10
-27.004781
20
21.128707
11
-17.402622
21
19.274503
0
LINE
8
Calque 1
10
-17.402622
20
19.274503
11
-7.960039
21
18.018712
0
LINE
8
Calque 1
10
-7.960039
20
18.018712
11
-3.291840
21
17.617929
0
LINE
8
Calque 1
10
-3.291840
20
17.617929
11
1.344565
21
17.370000
0
LINE
8
Calque 1
10
1.344565
20
17.370000
11
5.951874
21
17.276008
0
LINE
8
Calque 1
10
5.951874
20
17.276008
11
10.532788
21
17.337036
0
LINE
8
Calque 1
10
10.532788
20
17.337036
11
15.090007
21
17.554167
0
LINE
8
Calque 1
10
15.090007
20
17.554167
11
19.626230
21
17.928484
0
LINE
8
Calque 1
10
19.626230
20
17.928484
11
24.146129
21
18.461114
0
LINE
8
Calque 1
10
24.146129
20
18.461114
11
28.654285
21
19.153338
0
LINE
8
Calque 1
10
28.654285
20
19.153338
11
33.153404
21
20.006469
0
LINE
8
Calque 1
10
33.153404
20
20.006469
11
37.646194
21
21.021819
0
LINE
8
Calque 1
10
37.646194
20
21.021819
11
42.135360
21
22.200700
0
LINE
8
Calque 1
10
42.135360
20
22.200700
11
46.623607
21
23.544423
0
LINE
8
Calque 1
10
46.623607
20
23.544423
11
51.113643
21
25.054302
0
LINE
8
Calque 1
10
51.113643
20
25.054302
11
55.608174
21
26.731647
0
LINE
8
Calque 1
10
55.608174
20
26.731647
11
60.109905
21
28.577772
0
LINE
8
Calque 1
10
60.109905
20
28.577772
11
64.621543
21
30.593988
0
LINE
8
Calque 1
10
64.621543
20
30.593988
11
73.685363
21
35.141942
0
LINE
8
Calque 1
10
73.685363
20
35.141942
11
82.821284
21
40.386006
0
LINE
8
Calque 1
10
82.821284
20
40.386006
11
92.050955
21
46.336677
0
LINE
8
Calque 1
10
92.050955
20
46.336677
11
101.396025
21
53.004450
0
LINE
8
Calque 1
10
101.396025
20
53.004450
11
110.878144
21
60.399824
0
LINE
8
Calque 1
10
110.878144
20
60.399824
11
120.518960
21
68.533295
0
LINE
8
Calque 1
10
120.518960
20
68.533295
11
130.340124
21
77.415359
0
LINE
8
Calque 1
10
130.340124
20
77.415359
11
140.363283
21
87.056514
0
LINE
8
Calque 1
10
140.363283
20
87.056514
11
150.610088
21
97.467255
0
LINE
8
Calque 1
10
150.610088
20
97.467255
11
161.102187
21
108.658079
0
LINE
8
Calque 1
10
161.102187
20
108.658079
11
171.861230
21
120.639484
0
LINE
8
Calque 1
10
171.861230
20
120.639484
11
182.768665
21
132.658848
0
LINE
8
Calque 1
10
182.768665
20
132.658848
11
193.552294
21
143.829712
0
LINE
8
Calque 1
10
193.552294
20
143.829712
11
204.197645
21
154.182599
0
LINE
8
Calque 1
10
204.197645
20
154.182599
11
214.690243
21
163.748029
0
LINE
8
Calque 1
10
214.690243
20
163.748029
11
225.015614
21
172.556525
0
LINE
8
Calque 1
10
225.015614
20
172.556525
11
235.159285
21
180.638608
0
LINE
8
Calque 1
10
235.159285
20
180.638608
11
245.106781
21
188.024800
0
LINE
8
Calque 1
10
245.106781
20
188.024800
11
254.843630
21
194.745622
0
LINE
8
Calque 1
10
254.843630
20
194.745622
11
264.355357
21
200.831595
0
LINE
8
Calque 1
10
264.355357
20
200.831595
11
273.627488
21
206.313243
0
LINE
8
Calque 1
10
273.627488
20
206.313243
11
282.645549
21
211.221085
0
LINE
8
Calque 1
10
282.645549
20
211.221085
11
291.395068
21
215.585645
0
LINE
8
Calque 1
10
291.395068
20
215.585645
11
299.861568
21
219.437443
0
LINE
8
Calque 1
10
299.861568
20
219.437443
11
308.030578
21
222.807001
0
LINE
8
Calque 1
10
308.030578
20
222.807001
11
315.887624
21
225.724841
0
LINE
8
Calque 1
10
315.887624
20
225.724841
11
323.418230
21
228.221484
0
LINE
8
Calque 1
10
323.418230
20
228.221484
11
330.610318
21
230.326983
0
LINE
8
Calque 1
10
330.610318
20
230.326983
11
337.450948
21
232.071852
0
LINE
8
Calque 1
10
337.450948
20
232.071852
11
343.924643
21
233.487092
0
LINE
8
Calque 1
10
343.924643
20
233.487092
11
350.015930
21
234.603704
0
LINE
8
Calque 1
10
350.015930
20
234.603704
11
350.017000
21
234.604000
0
LINE
8
Calque 1
10
-394.322000
20
347.986000
11
-394.164821
21
348.764257
0
LINE
8
Calque 1
10
-394.164821
20
348.764257
11
-393.736188
21
349.399934
0
LINE
8
Calque 1
10
-393.736188
20
349.399934
11
-393.100453
21
349.828639
0
LINE
8
Calque 1
10
-393.100453
20
349.828639
11
-392.321970
21
349.985980
0
LINE
8
Calque 1
10
-392.321970
20
349.985980
11
-391.543237
21
349.828822
0
LINE
8
Calque 1
10
-391.543237
20
349.828822
11
-390.907371
21
349.400227
0
LINE
8
Calque 1
10
-390.907371
20
349.400227
11
-390.478687
21
348.764514
0
LINE
8
Calque 1
10
-390.478687
20
348.764514
11
-390.321500
21
347.986000
0
LINE
8
Calque 1
10
-390.321500
20
347.986000
11
-390.478687
21
347.207253
0
LINE
8
Calque 1
10
-390.478687
20
347.207253
11
-390.907371
21
346.571306
0
LINE
8
Calque 1
10
-390.907371
20
346.571306
11
-391.543237
21
346.142579
0
LINE
8
Calque 1
10
-391.543237
20
346.142579
11
-392.321970
21
345.985490
0
LINE
8
Calque 1
10
-392.321970
20
345.985490
11
-393.100453
21
346.142694
0
LINE
8
Calque 1
10
-393.100453
20
346.142694
11
-393.736188
21
346.571409
0
LINE
8
Calque 1
10
-393.736188
20
346.571409
11
-394.164821
21
347.207292
0
LINE
8
Calque 1
10
-394.164821
20
347.207292
11
-394.322000
21
347.986000
0
LINE
8
Calque 1
10
-394.322000
20
347.986000
11
-394.322000
21
347.986000
0
LINE
8
Calque 1
10
-380.321600
20
347.986000
11
-380.164390
21
348.764257
0
LINE
8
Calque 1
10
-380.164390
20
348.764257
11
-379.735705
21
349.399934
0
LINE
8
Calque 1
10
-379.735705
20
349.399934
11
-379.099960
21
349.828639
0
LINE
8
Calque 1
10
-379.099960
20
349.828639
11
-378.321570
21
349.985980
0
LINE
8
Calque 1
10
-378.321570
20
349.985980
11
-377.543116
21
349.828822
0
LINE
8
Calque 1
10
-377.543116
20
349.828822
11
-376.907219
21
349.400227
0
LINE
8
Calque 1
10
-376.907219
20
349.400227
11
-376.478380
21
348.764514
0
LINE
8
Calque 1
10
-376.478380
20
348.764514
11
-376.321100
21
347.986000
0
LINE
8
Calque 1
10
-376.321100
20
347.986000
11
-376.478287
21
347.207253
0
LINE
8
Calque 1
10
-376.478287
20
347.207253
11
-376.906971
21
346.571306
0
LINE
8
Calque 1
10
-376.906971
20
346.571306
11
-377.542837
21
346.142579
0
LINE
8
Calque 1
10
-377.542837
20
346.142579
11
-378.321570
21
345.985490
0
LINE
8
Calque 1
10
-378.321570
20
345.985490
11
-379.100145
21
346.142694
0
LINE
8
Calque 1
10
-379.100145
20
346.142694
11
-379.735870
21
346.571409
0
LINE
8
Calque 1
10
-379.735870
20
346.571409
11
-380.164452
21
347.207292
0
LINE
8
Calque 1
10
-380.164452
20
347.207292
11
-380.321600
21
347.986000
0
LINE
8
Calque 1
10
-380.321600
20
347.986000
11
-380.321600
21
347.986000
0
LINE
8
Calque 1
10
-394.095000
20
196.039000
11
-393.937852
21
196.817257
0
LINE
8
Calque 1
10
-393.937852
20
196.817257
11
-393.509270
21
197.452935
0
LINE
8
Calque 1
10
-393.509270
20
197.452935
11
-392.873545
21
197.881643
0
LINE
8
Calque 1
10
-392.873545
20
197.881643
11
-392.094970
21
198.038990
0
LINE
8
Calque 1
10
-392.094970
20
198.038990
11
-391.316330
21
197.881832
0
LINE
8
Calque 1
10
-391.316330
20
197.881832
11
-390.680454
21
197.453235
0
LINE
8
Calque 1
10
-390.680454
20
197.453235
11
-390.251718
21
196.817518
0
LINE
8
Calque 1
10
-390.251718
20
196.817518
11
-390.094500
21
196.039000
0
LINE
8
Calque 1
10
-390.094500
20
196.039000
11
-390.251718
21
195.260254
0
LINE
8
Calque 1
10
-390.251718
20
195.260254
11
-390.680454
21
194.624310
0
LINE
8
Calque 1
10
-390.680454
20
194.624310
11
-391.316330
21
194.195583
0
LINE
8
Calque 1
10
-391.316330
20
194.195583
11
-392.094970
21
194.038490
0
LINE
8
Calque 1
10
-392.094970
20
194.038490
11
-392.873545
21
194.195693
0
LINE
8
Calque 1
10
-392.873545
20
194.195693
11
-393.509270
21
194.624407
0
LINE
8
Calque 1
10
-393.509270
20
194.624407
11
-393.937852
21
195.260291
0
LINE
8
Calque 1
10
-393.937852
20
195.260291
11
-394.095000
21
196.039000
0
LINE
8
Calque 1
10
-394.095000
20
196.039000
11
-394.095000
21
196.039000
0
LINE
8
Calque 1
10
-380.094600
20
196.039000
11
-379.937421
21
196.817257
0
LINE
8
Calque 1
10
-379.937421
20
196.817257
11
-379.508788
21
197.452935
0
LINE
8
Calque 1
10
-379.508788
20
197.452935
11
-378.873053
21
197.881643
0
LINE
8
Calque 1
10
-378.873053
20
197.881643
11
-378.094570
21
198.038990
0
LINE
8
Calque 1
10
-378.094570
20
198.038990
11
-377.316116
21
197.881832
0
LINE
8
Calque 1
10
-377.316116
20
197.881832
11
-376.680219
21
197.453235
0
LINE
8
Calque 1
10
-376.680219
20
197.453235
11
-376.251380
21
196.817518
0
LINE
8
Calque 1
10
-376.251380
20
196.817518
11
-376.094100
21
196.039000
0
LINE
8
Calque 1
10
-376.094100
20
196.039000
11
-376.251318
21
195.260254
0
LINE
8
Calque 1
10
-376.251318
20
195.260254
11
-376.680054
21
194.624310
0
LINE
8
Calque 1
10
-376.680054
20
194.624310
11
-377.315930
21
194.195583
0
LINE
8
Calque 1
10
-377.315930
20
194.195583
11
-378.094570
21
194.038490
0
LINE
8
Calque 1
10
-378.094570
20
194.038490
11
-378.873145
21
194.195693
0
LINE
8
Calque 1
10
-378.873145
20
194.195693
11
-379.508870
21
194.624407
0
LINE
8
Calque 1
10
-379.508870
20
194.624407
11
-379.937452
21
195.260291
0
LINE
8
Calque 1
10
-379.937452
20
195.260291
11
-380.094600
21
196.039000
0
LINE
8
Calque 1
10
-380.094600
20
196.039000
11
-380.094600
21
196.039000
0
LINE
8
Calque 1
10
-399.595000
20
196.039000
11
-399.443134
21
194.523887
0
LINE
8
Calque 1
10
-399.443134
20
194.523887
11
-399.007351
21
193.114407
0
LINE
8
Calque 1
10
-399.007351
20
193.114407
11
-398.317371
21
191.840266
0
LINE
8
Calque 1
10
-398.317371
20
191.840266
11
-397.402914
21
190.731172
0
LINE
8
Calque 1
10
-397.402914
20
190.731172
11
-396.293700
21
189.816832
0
LINE
8
Calque 1
10
-396.293700
20
189.816832
11
-395.019449
21
189.126952
0
LINE
8
Calque 1
10
-395.019449
20
189.126952
11
-393.609883
21
188.691239
0
LINE
8
Calque 1
10
-393.609883
20
188.691239
11
-392.094720
21
188.539400
0
LINE
8
Calque 1
10
-392.094720
20
188.539400
11
51.093500
21
188.539000
0
LINE
8
Calque 1
10
51.093500
20
188.539000
11
51.870681
21
187.519606
0
LINE
8
Calque 1
10
51.870681
20
187.519606
11
52.877652
21
186.730080
0
LINE
8
Calque 1
10
52.877652
20
186.730080
11
54.070208
21
186.220004
0
LINE
8
Calque 1
10
54.070208
20
186.220004
11
55.404150
21
186.038960
0
LINE
8
Calque 1
10
55.404150
20
186.038960
11
145.404000
21
186.039000
0
LINE
8
Calque 1
10
145.404000
20
186.039000
11
146.414166
21
186.140248
0
LINE
8
Calque 1
10
146.414166
20
186.140248
11
147.353945
21
186.430780
0
LINE
8
Calque 1
10
147.353945
20
186.430780
11
148.203517
21
186.890778
0
LINE
8
Calque 1
10
148.203517
20
186.890778
11
148.943064
21
187.500421
0
LINE
8
Calque 1
10
148.943064
20
187.500421
11
149.552766
21
188.239892
0
LINE
8
Calque 1
10
149.552766
20
188.239892
11
150.012806
21
189.089371
0
LINE
8
Calque 1
10
150.012806
20
189.089371
11
150.303363
21
190.029040
0
LINE
8
Calque 1
10
150.303363
20
190.029040
11
150.404620
21
191.039080
0
LINE
8
Calque 1
10
150.404620
20
191.039080
11
150.405000
21
201.039000
0
LINE
8
Calque 1
10
150.405000
20
201.039000
11
150.303743
21
202.049169
0
LINE
8
Calque 1
10
150.303743
20
202.049169
11
150.013186
21
202.988851
0
LINE
8
Calque 1
10
150.013186
20
202.988851
11
149.553146
21
203.838256
0
LINE
8
Calque 1
10
149.553146
20
203.838256
11
148.943444
21
204.577597
0
LINE
8
Calque 1
10
148.943444
20
204.577597
11
148.203897
21
205.187087
0
LINE
8
Calque 1
10
148.203897
20
205.187087
11
147.354325
21
205.646935
0
LINE
8
Calque 1
10
147.354325
20
205.646935
11
146.414546
21
205.937356
0
LINE
8
Calque 1
10
146.414546
20
205.937356
11
145.404380
21
206.038560
0
LINE
8
Calque 1
10
145.404380
20
206.038560
11
55.404200
21
206.039000
0
LINE
8
Calque 1
10
55.404200
20
206.039000
11
54.070290
21
205.857955
0
LINE
8
Calque 1
10
54.070290
20
205.857955
11
52.877786
21
205.347876
0
LINE
8
Calque 1
10
52.877786
20
205.347876
11
51.870827
21
204.558350
0
LINE
8
Calque 1
10
51.870827
20
204.558350
11
51.093550
21
203.538960
0
LINE
8
Calque 1
10
51.093550
20
203.538960
11
-392.095000
21
203.539000
0
LINE
8
Calque 1
10
-392.095000
20
203.539000
11
-393.610145
21
203.387171
0
LINE
8
Calque 1
10
-393.610145
20
203.387171
11
-395.019667
21
202.951482
0
LINE
8
Calque 1
10
-395.019667
20
202.951482
11
-396.293864
21
202.261625
0
LINE
8
Calque 1
10
-396.293864
20
202.261625
11
-397.403029
21
201.347295
0
LINE
8
Calque 1
10
-397.403029
20
201.347295
11
-398.317458
21
200.238187
0
LINE
8
Calque 1
10
-398.317458
20
200.238187
11
-399.007446
21
198.963993
0
LINE
8
Calque 1
10
-399.007446
20
198.963993
11
-399.443288
21
197.554410
0
LINE
8
Calque 1
10
-399.443288
20
197.554410
11
-399.595280
21
196.039130
0
LINE
8
Calque 1
10
-399.595280
20
196.039130
11
-399.595000
21
196.039000
0
LINE
8
Calque 1
10
-392.387000
20
221.330000
11
-392.577301
21
220.373291
0
LINE
8
Calque 1
10
-392.577301
20
220.373291
11
-393.119233
21
219.562233
0
LINE
8
Calque 1
10
-393.119233
20
219.562233
11
-393.930291
21
219.020301
0
LINE
8
Calque 1
10
-393.930291
20
219.020301
11
-394.887000
21
218.830000
0
LINE
8
Calque 1
10
-394.887000
20
218.830000
11
-395.843709
21
219.020301
0
LINE
8
Calque 1
10
-395.843709
20
219.020301
11
-396.654767
21
219.562233
0
LINE
8
Calque 1
10
-396.654767
20
219.562233
11
-397.196699
21
220.373291
0
LINE
8
Calque 1
10
-397.196699
20
220.373291
11
-397.387000
21
221.330000
0
LINE
8
Calque 1
10
-397.387000
20
221.330000
11
-397.196699
21
222.286709
0
LINE
8
Calque 1
10
-397.196699
20
222.286709
11
-396.654767
21
223.097767
0
LINE
8
Calque 1
10
-396.654767
20
223.097767
11
-395.843709
21
223.639699
0
LINE
8
Calque 1
10
-395.843709
20
223.639699
11
-394.887000
21
223.830000
0
LINE
8
Calque 1
10
-394.887000
20
223.830000
11
-393.930291
21
223.639699
0
LINE
8
Calque 1
10
-393.930291
20
223.639699
11
-393.119233
21
223.097767
0
LINE
8
Calque 1
10
-393.119233
20
223.097767
11
-392.577301
21
222.286709
0
LINE
8
Calque 1
10
-392.577301
20
222.286709
11
-392.387000
21
221.330000
0
LINE
8
Calque 1
10
-392.387000
20
221.330000
11
-392.387000
21
221.330000
0
LINE
8
Calque 1
10
137.613000
20
221.330000
11
137.422699
21
220.373291
0
LINE
8
Calque 1
10
137.422699
20
220.373291
11
136.880767
21
219.562233
0
LINE
8
Calque 1
10
136.880767
20
219.562233
11
136.069709
21
219.020301
0
LINE
8
Calque 1
10
136.069709
20
219.020301
11
135.113000
21
218.830000
0
LINE
8
Calque 1
10
135.113000
20
218.830000
11
134.156291
21
219.020301
0
LINE
8
Calque 1
10
134.156291
20
219.020301
11
133.345233
21
219.562233
0
LINE
8
Calque 1
10
133.345233
20
219.562233
11
132.803301
21
220.373291
0
LINE
8
Calque 1
10
132.803301
20
220.373291
11
132.613000
21
221.330000
0
LINE
8
Calque 1
10
132.613000
20
221.330000
11
132.803301
21
222.286709
0
LINE
8
Calque 1
10
132.803301
20
222.286709
11
133.345233
21
223.097767
0
LINE
8
Calque 1
10
133.345233
20
223.097767
11
134.156291
21
223.639699
0
LINE
8
Calque 1
10
134.156291
20
223.639699
11
135.113000
21
223.830000
0
LINE
8
Calque 1
10
135.113000
20
223.830000
11
136.069709
21
223.639699
0
LINE
8
Calque 1
10
136.069709
20
223.639699
11
136.880767
21
223.097767
0
LINE
8
Calque 1
10
136.880767
20
223.097767
11
137.422699
21
222.286709
0
LINE
8
Calque 1
10
137.422699
20
222.286709
11
137.613000
21
221.330000
0
LINE
8
Calque 1
10
137.613000
20
221.330000
11
137.613000
21
221.330000
0
LINE
8
Calque 1
10
-394.887000
20
231.330000
11
135.113000
21
231.330000
0
LINE
8
Calque 1
10
135.113000
20
231.330000
11
137.133273
21
231.127539
0
LINE
8
Calque 1
10
137.133273
20
231.127539
11
139.012687
21
230.546563
0
LINE
8
Calque 1
10
139.012687
20
230.546563
11
140.711633
21
229.626680
0
LINE
8
Calque 1
10
140.711633
20
229.626680
11
142.190500
21
228.407500
0
LINE
8
Calque 1
10
142.190500
20
228.407500
11
143.409680
21
226.928633
0
LINE
8
Calque 1
10
143.409680
20
226.928633
11
144.329563
21
225.229688
0
LINE
8
Calque 1
10
144.329563
20
225.229688
11
144.910539
21
223.350273
0
LINE
8
Calque 1
10
144.910539
20
223.350273
11
145.113000
21
221.330000
0
LINE
8
Calque 1
10
145.113000
20
221.330000
11
144.910539
21
219.309727
0
LINE
8
Calque 1
10
144.910539
20
219.309727
11
144.329563
21
217.430313
0
LINE
8
Calque 1
10
144.329563
20
217.430313
11
143.409680
21
215.731367
0
LINE
8
Calque 1
10
143.409680
20
215.731367
11
142.190500
21
214.252500
0
LINE
8
Calque 1
10
142.190500
20
214.252500
11
140.711633
21
213.033320
0
LINE
8
Calque 1
10
140.711633
20
213.033320
11
139.012687
21
212.113437
0
LINE
8
Calque 1
10
139.012687
20
212.113437
11
137.133273
21
211.532461
0
LINE
8
Calque 1
10
137.133273
20
211.532461
11
135.113000
21
211.330000
0
LINE
8
Calque 1
10
135.113000
20
211.330000
11
-394.887000
21
211.330000
0
LINE
8
Calque 1
10
-394.887000
20
211.330000
11
-396.907273
21
211.532461
0
LINE
8
Calque 1
10
-396.907273
20
211.532461
11
-398.786688
21
212.113437
0
LINE
8
Calque 1
10
-398.786688
20
212.113437
11
-400.485633
21
213.033320
0
LINE
8
Calque 1
10
-400.485633
20
213.033320
11
-401.964500
21
214.252500
0
LINE
8
Calque 1
10
-401.964500
20
214.252500
11
-403.183680
21
215.731367
0
LINE
8
Calque 1
10
-403.183680
20
215.731367
11
-404.103563
21
217.430313
0
LINE
8
Calque 1
10
-404.103563
20
217.430313
11
-404.684539
21
219.309727
0
LINE
8
Calque 1
10
-404.684539
20
219.309727
11
-404.887000
21
221.330000
0
LINE
8
Calque 1
10
-404.887000
20
221.330000
11
-404.684539
21
223.350273
0
LINE
8
Calque 1
10
-404.684539
20
223.350273
11
-404.103563
21
225.229688
0
LINE
8
Calque 1
10
-404.103563
20
225.229688
11
-403.183680
21
226.928633
0
LINE
8
Calque 1
10
-403.183680
20
226.928633
11
-401.964500
21
228.407500
0
LINE
8
Calque 1
10
-401.964500
20
228.407500
11
-400.485633
21
229.626680
0
LINE
8
Calque 1
10
-400.485633
20
229.626680
11
-398.786688
21
230.546563
0
LINE
8
Calque 1
10
-398.786688
20
230.546563
11
-396.907273
21
231.127539
0
LINE
8
Calque 1
10
-396.907273
20
231.127539
11
-394.887000
21
231.330000
0
LINE
8
Calque 1
10
-394.887000
20
231.330000
11
-394.887000
21
231.330000
0
LINE
8
Calque 1
10
-387.319000
20
297.402000
11
-387.509301
21
296.445291
0
LINE
8
Calque 1
10
-387.509301
20
296.445291
11
-388.051233
21
295.634233
0
LINE
8
Calque 1
10
-388.051233
20
295.634233
11
-388.862291
21
295.092301
0
LINE
8
Calque 1
10
-388.862291
20
295.092301
11
-389.819000
21
294.902000
0
LINE
8
Calque 1
10
-389.819000
20
294.902000
11
-390.775709
21
295.092301
0
LINE
8
Calque 1
10
-390.775709
20
295.092301
11
-391.586767
21
295.634233
0
LINE
8
Calque 1
10
-391.586767
20
295.634233
11
-392.128699
21
296.445291
0
LINE
8
Calque 1
10
-392.128699
20
296.445291
11
-392.319000
21
297.402000
0
LINE
8
Calque 1
10
-392.319000
20
297.402000
11
-392.128699
21
298.358709
0
LINE
8
Calque 1
10
-392.128699
20
298.358709
11
-391.586767
21
299.169767
0
LINE
8
Calque 1
10
-391.586767
20
299.169767
11
-390.775709
21
299.711699
0
LINE
8
Calque 1
10
-390.775709
20
299.711699
11
-389.819000
21
299.902000
0
LINE
8
Calque 1
10
-389.819000
20
299.902000
11
-388.862291
21
299.711699
0
LINE
8
Calque 1
10
-388.862291
20
299.711699
11
-388.051233
21
299.169767
0
LINE
8
Calque 1
10
-388.051233
20
299.169767
11
-387.509301
21
298.358709
0
LINE
8
Calque 1
10
-387.509301
20
298.358709
11
-387.319000
21
297.402000
0
LINE
8
Calque 1
10
-387.319000
20
297.402000
11
-387.319000
21
297.402000
0
LINE
8
Calque 1
10
-389.819000
20
307.402000
11
240.181000
21
307.402000
0
LINE
8
Calque 1
10
240.181000
20
307.402000
11
242.201273
21
307.199539
0
LINE
8
Calque 1
10
242.201273
20
307.199539
11
244.080688
21
306.618562
0
LINE
8
Calque 1
10
244.080688
20
306.618562
11
245.779633
21
305.698680
0
LINE
8
Calque 1
10
245.779633
20
305.698680
11
247.258500
21
304.479500
0
LINE
8
Calque 1
10
247.258500
20
304.479500
11
248.477680
21
303.000633
0
LINE
8
Calque 1
10
248.477680
20
303.000633
11
249.397563
21
301.301688
0
LINE
8
Calque 1
10
249.397563
20
301.301688
11
249.978539
21
299.422273
0
LINE
8
Calque 1
10
249.978539
20
299.422273
11
250.181000
21
297.402000
0
LINE
8
Calque 1
10
250.181000
20
297.402000
11
249.978539
21
295.381727
0
LINE
8
Calque 1
10
249.978539
20
295.381727
11
249.397563
21
293.502312
0
LINE
8
Calque 1
10
249.397563
20
293.502312
11
248.477680
21
291.803367
0
LINE
8
Calque 1
10
248.477680
20
291.803367
11
247.258500
21
290.324500
0
LINE
8
Calque 1
10
247.258500
20
290.324500
11
245.779633
21
289.105320
0
LINE
8
Calque 1
10
245.779633
20
289.105320
11
244.080688
21
288.185437
0
LINE
8
Calque 1
10
244.080688
20
288.185437
11
242.201273
21
287.604461
0
LINE
8
Calque 1
10
242.201273
20
287.604461
11
240.181000
21
287.402000
0
LINE
8
Calque 1
10
240.181000
20
287.402000
11
-389.819000
21
287.402000
0
LINE
8
Calque 1
10
-389.819000
20
287.402000
11
-391.839273
21
287.604461
0
LINE
8
Calque 1
10
-391.839273
20
287.604461
11
-393.718688
21
288.185437
0
LINE
8
Calque 1
10
-393.718688
20
288.185437
11
-395.417633
21
289.105320
0
LINE
8
Calque 1
10
-395.417633
20
289.105320
11
-396.896500
21
290.324500
0
LINE
8
Calque 1
10
-396.896500
20
290.324500
11
-398.115680
21
291.803367
0
LINE
8
Calque 1
10
-398.115680
20
291.803367
11
-399.035563
21
293.502312
0
LINE
8
Calque 1
10
-399.035563
20
293.502312
11
-399.616539
21
295.381727
0
LINE
8
Calque 1
10
-399.616539
20
295.381727
11
-399.819000
21
297.402000
0
LINE
8
Calque 1
10
-399.819000
20
297.402000
11
-399.616539
21
299.422273
0
LINE
8
Calque 1
10
-399.616539
20
299.422273
11
-399.035563
21
301.301688
0
LINE
8
Calque 1
10
-399.035563
20
301.301688
11
-398.115680
21
303.000633
0
LINE
8
Calque 1
10
-398.115680
20
303.000633
11
-396.896500
21
304.479500
0
LINE
8
Calque 1
10
-396.896500
20
304.479500
11
-395.417633
21
305.698680
0
LINE
8
Calque 1
10
-395.417633
20
305.698680
11
-393.718688
21
306.618562
0
LINE
8
Calque 1
10
-393.718688
20
306.618562
11
-391.839273
21
307.199539
0
LINE
8
Calque 1
10
-391.839273
20
307.199539
11
-389.819000
21
307.402000
0
LINE
8
Calque 1
10
-389.819000
20
307.402000
11
-389.819000
21
307.402000
0
LINE
8
Calque 1
10
-387.319000
20
322.694000
11
-387.509301
21
321.737291
0
LINE
8
Calque 1
10
-387.509301
20
321.737291
11
-388.051233
21
320.926233
0
LINE
8
Calque 1
10
-388.051233
20
320.926233
11
-388.862291
21
320.384301
0
LINE
8
Calque 1
10
-388.862291
20
320.384301
11
-389.819000
21
320.194000
0
LINE
8
Calque 1
10
-389.819000
20
320.194000
11
-390.775709
21
320.384301
0
LINE
8
Calque 1
10
-390.775709
20
320.384301
11
-391.586767
21
320.926233
0
LINE
8
Calque 1
10
-391.586767
20
320.926233
11
-392.128699
21
321.737291
0
LINE
8
Calque 1
10
-392.128699
20
321.737291
11
-392.319000
21
322.694000
0
LINE
8
Calque 1
10
-392.319000
20
322.694000
11
-392.128699
21
323.650709
0
LINE
8
Calque 1
10
-392.128699
20
323.650709
11
-391.586767
21
324.461767
0
LINE
8
Calque 1
10
-391.586767
20
324.461767
11
-390.775709
21
325.003699
0
LINE
8
Calque 1
10
-390.775709
20
325.003699
11
-389.819000
21
325.194000
0
LINE
8
Calque 1
10
-389.819000
20
325.194000
11
-388.862291
21
325.003699
0
LINE
8
Calque 1
10
-388.862291
20
325.003699
11
-388.051233
21
324.461767
0
LINE
8
Calque 1
10
-388.051233
20
324.461767
11
-387.509301
21
323.650709
0
LINE
8
Calque 1
10
-387.509301
20
323.650709
11
-387.319000
21
322.694000
0
LINE
8
Calque 1
10
-387.319000
20
322.694000
11
-387.319000
21
322.694000
0
LINE
8
Calque 1
10
-389.819000
20
332.694000
11
240.181000
21
332.694000
0
LINE
8
Calque 1
10
240.181000
20
332.694000
11
242.201273
21
332.491539
0
LINE
8
Calque 1
10
242.201273
20
332.491539
11
244.080688
21
331.910563
0
LINE
8
Calque 1
10
244.080688
20
331.910563
11
245.779633
21
330.990680
0
LINE
8
Calque 1
10
245.779633
20
330.990680
11
247.258500
21
329.771500
0
LINE
8
Calque 1
10
247.258500
20
329.771500
11
248.477680
21
328.292633
0
LINE
8
Calque 1
10
248.477680
20
328.292633
11
249.397563
21
326.593688
0
LINE
8
Calque 1
10
249.397563
20
326.593688
11
249.978539
21
324.714273
0
LINE
8
Calque 1
10
249.978539
20
324.714273
11
250.181000
21
322.694000
0
LINE
8
Calque 1
10
250.181000
20
322.694000
11
249.978539
21
320.673727
0
LINE
8
Calque 1
10
249.978539
20
320.673727
11
249.397563
21
318.794312
0
LINE
8
Calque 1
10
249.397563
20
318.794312
11
248.477680
21
317.095367
0
LINE
8
Calque 1
10
248.477680
20
317.095367
11
247.258500
21
315.616500
0
LINE
8
Calque 1
10
247.258500
20
315.616500
11
245.779633
21
314.397320
0
LINE
8
Calque 1
10
245.779633
20
314.397320
11
244.080688
21
313.477438
0
LINE
8
Calque 1
10
244.080688
20
313.477438
11
242.201273
21
312.896461
0
LINE
8
Calque 1
10
242.201273
20
312.896461
11
240.181000
21
312.694000
0
LINE
8
Calque 1
10
240.181000
20
312.694000
11
-389.819000
21
312.694000
0
LINE
8
Calque 1
10
-389.819000
20
312.694000
11
-391.839273
21
312.896461
0
LINE
8
Calque 1
10
-391.839273
20
312.896461
11
-393.718688
21
313.477438
0
LINE
8
Calque 1
10
-393.718688
20
313.477438
11
-395.417633
21
314.397320
0
LINE
8
Calque 1
10
-395.417633
20
314.397320
11
-396.896500
21
315.616500
0
LINE
8
Calque 1
10
-396.896500
20
315.616500
11
-398.115680
21
317.095367
0
LINE
8
Calque 1
10
-398.115680
20
317.095367
11
-399.035563
21
318.794312
0
LINE
8
Calque 1
10
-399.035563
20
318.794312
11
-399.616539
21
320.673727
0
LINE
8
Calque 1
10
-399.616539
20
320.673727
11
-399.819000
21
322.694000
0
LINE
8
Calque 1
10
-399.819000
20
322.694000
11
-399.616539
21
324.714273
0
LINE
8
Calque 1
10
-399.616539
20
324.714273
11
-399.035563
21
326.593688
0
LINE
8
Calque 1
10
-399.035563
20
326.593688
11
-398.115680
21
328.292633
0
LINE
8
Calque 1
10
-398.115680
20
328.292633
11
-396.896500
21
329.771500
0
LINE
8
Calque 1
10
-396.896500
20
329.771500
11
-395.417633
21
330.990680
0
LINE
8
Calque 1
10
-395.417633
20
330.990680
11
-393.718688
21
331.910563
0
LINE
8
Calque 1
10
-393.718688
20
331.910563
11
-391.839273
21
332.491539
0
LINE
8
Calque 1
10
-391.839273
20
332.491539
11
-389.819000
21
332.694000
0
LINE
8
Calque 1
10
-389.819000
20
332.694000
11
-389.819000
21
332.694000
0
LINE
8
Calque 1
10
-389.819000
20
357.986000
11
490.181000
21
357.986000
0
LINE
8
Calque 1
10
490.181000
20
357.986000
11
492.201273
21
357.783539
0
LINE
8
Calque 1
10
492.201273
20
357.783539
11
494.080688
21
357.202562
0
LINE
8
Calque 1
10
494.080688
20
357.202562
11
495.779633
21
356.282680
0
LINE
8
Calque 1
10
495.779633
20
356.282680
11
497.258500
21
355.063500
0
LINE
8
Calque 1
10
497.258500
20
355.063500
11
498.477680
21
353.584633
0
LINE
8
Calque 1
10
498.477680
20
353.584633
11
499.397562
21
351.885687
0
LINE
8
Calque 1
10
499.397562
20
351.885687
11
499.978539
21
350.006273
0
LINE
8
Calque 1
10
499.978539
20
350.006273
11
500.181000
21
347.986000
0
LINE
8
Calque 1
10
500.181000
20
347.986000
11
499.978539
21
345.965727
0
LINE
8
Calque 1
10
499.978539
20
345.965727
11
499.397562
21
344.086313
0
LINE
8
Calque 1
10
499.397562
20
344.086313
11
498.477680
21
342.387367
0
LINE
8
Calque 1
10
498.477680
20
342.387367
11
497.258500
21
340.908500
0
LINE
8
Calque 1
10
497.258500
20
340.908500
11
495.779633
21
339.689320
0
LINE
8
Calque 1
10
495.779633
20
339.689320
11
494.080688
21
338.769437
0
LINE
8
Calque 1
10
494.080688
20
338.769437
11
492.201273
21
338.188461
0
LINE
8
Calque 1
10
492.201273
20
338.188461
11
490.181000
21
337.986000
0
LINE
8
Calque 1
10
490.181000
20
337.986000
11
-389.819000
21
337.986000
0
LINE
8
Calque 1
10
-389.819000
20
337.986000
11
-391.839273
21
338.188461
0
LINE
8
Calque 1
10
-391.839273
20
338.188461
11
-393.718688
21
338.769437
0
LINE
8
Calque 1
10
-393.718688
20
338.769437
11
-395.417633
21
339.689320
0
LINE
8
Calque 1
10
-395.417633
20
339.689320
11
-396.896500
21
340.908500
0
LINE
8
Calque 1
10
-396.896500
20
340.908500
11
-398.115680
21
342.387367
0
LINE
8
Calque 1
10
-398.115680
20
342.387367
11
-399.035563
21
344.086313
0
LINE
8
Calque 1
10
-399.035563
20
344.086313
11
-399.616539
21
345.965727
0
LINE
8
Calque 1
10
-399.616539
20
345.965727
11
-399.819000
21
347.986000
0
LINE
8
Calque 1
10
-399.819000
20
347.986000
11
-399.616539
21
350.006273
0
LINE
8
Calque 1
10
-399.616539
20
350.006273
11
-399.035563
21
351.885687
0
LINE
8
Calque 1
10
-399.035563
20
351.885687
11
-398.115680
21
353.584633
0
LINE
8
Calque 1
10
-398.115680
20
353.584633
11
-396.896500
21
355.063500
0
LINE
8
Calque 1
10
-396.896500
20
355.063500
11
-395.417633
21
356.282680
0
LINE
8
Calque 1
10
-395.417633
20
356.282680
11
-393.718688
21
357.202562
0
LINE
8
Calque 1
10
-393.718688
20
357.202562
11
-391.839273
21
357.783539
0
LINE
8
Calque 1
10
-391.839273
20
357.783539
11
-389.819000
21
357.986000
0
LINE
8
Calque 1
10
-389.819000
20
357.986000
11
-389.819000
21
357.986000
0
LINE
8
Calque 1
10
-394.322000
20
373.278000
11
-394.164854
21
374.056257
0
LINE
8
Calque 1
10
-394.164854
20
374.056257
11
-393.736292
21
374.691934
0
LINE
8
Calque 1
10
-393.736292
20
374.691934
11
-393.100630
21
375.120639
0
LINE
8
Calque 1
10
-393.100630
20
375.120639
11
-392.322180
21
375.277980
0
LINE
8
Calque 1
10
-392.322180
20
375.277980
11
-391.543415
21
375.120822
0
LINE
8
Calque 1
10
-391.543415
20
375.120822
11
-390.907476
21
374.692226
0
LINE
8
Calque 1
10
-390.907476
20
374.692226
11
-390.478720
21
374.056513
0
LINE
8
Calque 1
10
-390.478720
20
374.056513
11
-390.321500
21
373.278000
0
LINE
8
Calque 1
10
-390.321500
20
373.278000
11
-390.478720
21
372.499254
0
LINE
8
Calque 1
10
-390.478720
20
372.499254
11
-390.907476
21
371.863310
0
LINE
8
Calque 1
10
-390.907476
20
371.863310
11
-391.543415
21
371.434583
0
LINE
8
Calque 1
10
-391.543415
20
371.434583
11
-392.322180
21
371.277490
0
LINE
8
Calque 1
10
-392.322180
20
371.277490
11
-393.100630
21
371.434694
0
LINE
8
Calque 1
10
-393.100630
20
371.434694
11
-393.736292
21
371.863409
0
LINE
8
Calque 1
10
-393.736292
20
371.863409
11
-394.164854
21
372.499292
0
LINE
8
Calque 1
10
-394.164854
20
372.499292
11
-394.322000
21
373.278000
0
LINE
8
Calque 1
10
-394.322000
20
373.278000
11
-394.322000
21
373.278000
0
LINE
8
Calque 1
10
-380.321600
20
373.278000
11
-380.164425
21
374.056257
0
LINE
8
Calque 1
10
-380.164425
20
374.056257
11
-379.735815
21
374.691934
0
LINE
8
Calque 1
10
-379.735815
20
374.691934
11
-379.100145
21
375.120639
0
LINE
8
Calque 1
10
-379.100145
20
375.120639
11
-378.321790
21
375.277980
0
LINE
8
Calque 1
10
-378.321790
20
375.277980
11
-377.543209
21
375.120822
0
LINE
8
Calque 1
10
-377.543209
20
375.120822
11
-376.907246
21
374.692226
0
LINE
8
Calque 1
10
-376.907246
20
374.692226
11
-376.478383
21
374.056513
0
LINE
8
Calque 1
10
-376.478383
20
374.056513
11
-376.321100
21
373.278000
0
LINE
8
Calque 1
10
-376.321100
20
373.278000
11
-376.478321
21
372.499254
0
LINE
8
Calque 1
10
-376.478321
20
372.499254
11
-376.907081
21
371.863310
0
LINE
8
Calque 1
10
-376.907081
20
371.863310
11
-377.543023
21
371.434583
0
LINE
8
Calque 1
10
-377.543023
20
371.434583
11
-378.321790
21
371.277490
0
LINE
8
Calque 1
10
-378.321790
20
371.277490
11
-379.100238
21
371.434694
0
LINE
8
Calque 1
10
-379.100238
20
371.434694
11
-379.735897
21
371.863409
0
LINE
8
Calque 1
10
-379.735897
20
371.863409
11
-380.164456
21
372.499292
0
LINE
8
Calque 1
10
-380.164456
20
372.499292
11
-380.321600
21
373.278000
0
LINE
8
Calque 1
10
-380.321600
20
373.278000
11
-380.321600
21
373.278000
0
LINE
8
Calque 1
10
-389.819000
20
383.277000
11
490.181000
21
383.277000
0
LINE
8
Calque 1
10
490.181000
20
383.277000
11
492.201273
21
383.074539
0
LINE
8
Calque 1
10
492.201273
20
383.074539
11
494.080688
21
382.493562
0
LINE
8
Calque 1
10
494.080688
20
382.493562
11
495.779633
21
381.573680
0
LINE
8
Calque 1
10
495.779633
20
381.573680
11
497.258500
21
380.354500
0
LINE
8
Calque 1
10
497.258500
20
380.354500
11
498.477680
21
378.875633
0
LINE
8
Calque 1
10
498.477680
20
378.875633
11
499.397562
21
377.176688
0
LINE
8
Calque 1
10
499.397562
20
377.176688
11
499.978539
21
375.297273
0
LINE
8
Calque 1
10
499.978539
20
375.297273
11
500.181000
21
373.277000
0
LINE
8
Calque 1
10
500.181000
20
373.277000
11
499.978539
21
371.256727
0
LINE
8
Calque 1
10
499.978539
20
371.256727
11
499.397562
21
369.377312
0
LINE
8
Calque 1
10
499.397562
20
369.377312
11
498.477680
21
367.678367
0
LINE
8
Calque 1
10
498.477680
20
367.678367
11
497.258500
21
366.199500
0
LINE
8
Calque 1
10
497.258500
20
366.199500
11
495.779633
21
364.980320
0
LINE
8
Calque 1
10
495.779633
20
364.980320
11
494.080688
21
364.060437
0
LINE
8
Calque 1
10
494.080688
20
364.060437
11
492.201273
21
363.479461
0
LINE
8
Calque 1
10
492.201273
20
363.479461
11
490.181000
21
363.277000
0
LINE
8
Calque 1
10
490.181000
20
363.277000
11
-389.819000
21
363.277000
0
LINE
8
Calque 1
10
-389.819000
20
363.277000
11
-391.839273
21
363.479461
0
LINE
8
Calque 1
10
-391.839273
20
363.479461
11
-393.718688
21
364.060437
0
LINE
8
Calque 1
10
-393.718688
20
364.060437
11
-395.417633
21
364.980320
0
LINE
8
Calque 1
10
-395.417633
20
364.980320
11
-396.896500
21
366.199500
0
LINE
8
Calque 1
10
-396.896500
20
366.199500
11
-398.115680
21
367.678367
0
LINE
8
Calque 1
10
-398.115680
20
367.678367
11
-399.035563
21
369.377312
0
LINE
8
Calque 1
10
-399.035563
20
369.377312
11
-399.616539
21
371.256727
0
LINE
8
Calque 1
10
-399.616539
20
371.256727
11
-399.819000
21
373.277000
0
LINE
8
Calque 1
10
-399.819000
20
373.277000
11
-399.616539
21
375.297273
0
LINE
8
Calque 1
10
-399.616539
20
375.297273
11
-399.035563
21
377.176688
0
LINE
8
Calque 1
10
-399.035563
20
377.176688
11
-398.115680
21
378.875633
0
LINE
8
Calque 1
10
-398.115680
20
378.875633
11
-396.896500
21
380.354500
0
LINE
8
Calque 1
10
-396.896500
20
380.354500
11
-395.417633
21
381.573680
0
LINE
8
Calque 1
10
-395.417633
20
381.573680
11
-393.718688
21
382.493562
0
LINE
8
Calque 1
10
-393.718688
20
382.493562
11
-391.839273
21
383.074539
0
LINE
8
Calque 1
10
-391.839273
20
383.074539
11
-389.819000
21
383.277000
0
LINE
8
Calque 1
10
-389.819000
20
383.277000
11
-389.819000
21
383.277000
0
LINE
8
Calque 1
10
262.973000
20
312.694000
11
261.461507
21
312.541630
0
LINE
8
Calque 1
10
261.461507
20
312.541630
11
260.053681
21
312.104624
0
LINE
8
Calque 1
10
260.053681
20
312.104624
11
258.779681
21
311.413137
0
LINE
8
Calque 1
10
258.779681
20
311.413137
11
257.669670
21
310.497325
0
LINE
8
Calque 1
10
257.669670
20
310.497325
11
256.753807
21
309.387344
0
LINE
8
Calque 1
10
256.753807
20
309.387344
11
256.062254
21
308.113349
0
LINE
8
Calque 1
10
256.062254
20
308.113349
11
255.625172
21
306.705496
0
LINE
8
Calque 1
10
255.625172
20
306.705496
11
255.472720
21
305.193940
0
LINE
8
Calque 1
10
255.472720
20
305.193940
11
255.625099
21
303.682303
0
LINE
8
Calque 1
10
255.625099
20
303.682303
11
256.062131
21
302.274373
0
LINE
8
Calque 1
10
256.062131
20
302.274373
11
256.753653
21
301.000312
0
LINE
8
Calque 1
10
256.753653
20
301.000312
11
257.669505
21
299.890280
0
LINE
8
Calque 1
10
257.669505
20
299.890280
11
258.779527
21
298.974438
0
LINE
8
Calque 1
10
258.779527
20
298.974438
11
260.053557
21
298.282947
0
LINE
8
Calque 1
10
260.053557
20
298.282947
11
261.461435
21
297.845967
0
LINE
8
Calque 1
10
261.461435
20
297.845967
11
262.973000
21
297.693660
0
LINE
8
Calque 1
10
262.973000
20
297.693660
11
264.484552
21
297.846039
0
LINE
8
Calque 1
10
264.484552
20
297.846039
11
265.892401
21
298.283071
0
LINE
8
Calque 1
10
265.892401
20
298.283071
11
267.166388
21
298.974593
0
LINE
8
Calque 1
10
267.166388
20
298.974593
11
268.276354
21
299.890445
0
LINE
8
Calque 1
10
268.276354
20
299.890445
11
269.192141
21
301.000467
0
LINE
8
Calque 1
10
269.192141
20
301.000467
11
269.883590
21
302.274497
0
LINE
8
Calque 1
10
269.883590
20
302.274497
11
270.320542
21
303.682375
0
LINE
8
Calque 1
10
270.320542
20
303.682375
11
270.472840
21
305.193940
0
LINE
8
Calque 1
10
270.472840
20
305.193940
11
270.320470
21
306.705423
0
LINE
8
Calque 1
10
270.320470
20
306.705423
11
269.883466
21
308.113225
0
LINE
8
Calque 1
10
269.883466
20
308.113225
11
269.191986
21
309.387189
0
LINE
8
Calque 1
10
269.191986
20
309.387189
11
268.276189
21
310.497160
0
LINE
8
Calque 1
10
268.276189
20
310.497160
11
267.166233
21
311.412982
0
LINE
8
Calque 1
10
267.166233
20
311.412982
11
265.892277
21
312.104500
0
LINE
8
Calque 1
10
265.892277
20
312.104500
11
264.484480
21
312.541558
0
LINE
8
Calque 1
10
264.484480
20
312.541558
11
262.973000
21
312.694000
0
LINE
8
Calque 1
10
262.973000
20
312.694000
11
262.973000
21
312.694000
0
LINE
8
Calque 1
10
262.973000
20
306.943610
11
263.654127
21
306.806106
0
LINE
8
Calque 1
10
263.654127
20
306.806106
11
264.210296
21
306.431128
0
LINE
8
Calque 1
10
264.210296
20
306.431128
11
264.585290
21
305.874973
0
LINE
8
Calque 1
10
264.585290
20
305.874973
11
264.722890
21
305.193940
0
LINE
8
Calque 1
10
264.722890
20
305.193940
11
264.585413
21
304.512742
0
LINE
8
Calque 1
10
264.585413
20
304.512742
11
264.210461
21
303.956422
0
LINE
8
Calque 1
10
264.210461
20
303.956422
11
263.654251
21
303.581279
0
LINE
8
Calque 1
10
263.654251
20
303.581279
11
262.973000
21
303.443610
0
LINE
8
Calque 1
10
262.973000
20
303.443610
11
262.291679
21
303.581155
0
LINE
8
Calque 1
10
262.291679
20
303.581155
11
261.735343
21
303.956256
0
LINE
8
Calque 1
10
261.735343
20
303.956256
11
261.360307
21
304.512618
0
LINE
8
Calque 1
10
261.360307
20
304.512618
11
261.222890
21
305.193940
0
LINE
8
Calque 1
10
261.222890
20
305.193940
11
261.360431
21
305.875097
0
LINE
8
Calque 1
10
261.360431
20
305.875097
11
261.735507
21
306.431293
0
LINE
8
Calque 1
10
261.735507
20
306.431293
11
262.291803
21
306.806230
0
LINE
8
Calque 1
10
262.291803
20
306.806230
11
262.973000
21
306.943610
0
LINE
8
Calque 1
10
262.973000
20
306.943610
11
262.973000
21
306.943610
0
LINE
8
Calque 1
10
279.973000
20
312.694000
11
278.461510
21
312.541630
0
LINE
8
Calque 1
10
278.461510
20
312.541630
11
277.053686
21
312.104624
0
LINE
8
Calque 1
10
277.053686
20
312.104624
11
275.779689
21
311.413137
0
LINE
8
Calque 1
10
275.779689
20
311.413137
11
274.669679
21
310.497325
0
LINE
8
Calque 1
10
274.669679
20
310.497325
11
273.753817
21
309.387344
0
LINE
8
Calque 1
10
273.753817
20
309.387344
11
273.062264
21
308.113349
0
LINE
8
Calque 1
10
273.062264
20
308.113349
11
272.625182
21
306.705496
0
LINE
8
Calque 1
10
272.625182
20
306.705496
11
272.472730
21
305.193940
0
LINE
8
Calque 1
10
272.472730
20
305.193940
11
272.625109
21
303.682303
0
LINE
8
Calque 1
10
272.625109
20
303.682303
11
273.062140
21
302.274373
0
LINE
8
Calque 1
10
273.062140
20
302.274373
11
273.753662
21
301.000312
0
LINE
8
Calque 1
10
273.753662
20
301.000312
11
274.669514
21
299.890280
0
LINE
8
Calque 1
10
274.669514
20
299.890280
11
275.779534
21
298.974438
0
LINE
8
Calque 1
10
275.779534
20
298.974438
11
277.053563
21
298.282947
0
LINE
8
Calque 1
10
277.053563
20
298.282947
11
278.461438
21
297.845967
0
LINE
8
Calque 1
10
278.461438
20
297.845967
11
279.973000
21
297.693660
0
LINE
8
Calque 1
10
279.973000
20
297.693660
11
281.484555
21
297.846039
0
LINE
8
Calque 1
10
281.484555
20
297.846039
11
282.892405
21
298.283071
0
LINE
8
Calque 1
10
282.892405
20
298.283071
11
284.166392
21
298.974593
0
LINE
8
Calque 1
10
284.166392
20
298.974593
11
285.276358
21
299.890445
0
LINE
8
Calque 1
10
285.276358
20
299.890445
11
286.192143
21
301.000467
0
LINE
8
Calque 1
10
286.192143
20
301.000467
11
286.883591
21
302.274497
0
LINE
8
Calque 1
10
286.883591
20
302.274497
11
287.320543
21
303.682375
0
LINE
8
Calque 1
10
287.320543
20
303.682375
11
287.472840
21
305.193940
0
LINE
8
Calque 1
10
287.472840
20
305.193940
11
287.320470
21
306.705423
0
LINE
8
Calque 1
10
287.320470
20
306.705423
11
286.883467
21
308.113225
0
LINE
8
Calque 1
10
286.883467
20
308.113225
11
286.191988
21
309.387189
0
LINE
8
Calque 1
10
286.191988
20
309.387189
11
285.276192
21
310.497160
0
LINE
8
Calque 1
10
285.276192
20
310.497160
11
284.166237
21
311.412982
0
LINE
8
Calque 1
10
284.166237
20
311.412982
11
282.892282
21
312.104500
0
LINE
8
Calque 1
10
282.892282
20
312.104500
11
281.484483
21
312.541558
0
LINE
8
Calque 1
10
281.484483
20
312.541558
11
279.973000
21
312.694000
0
LINE
8
Calque 1
10
279.973000
20
312.694000
11
279.973000
21
312.694000
0
LINE
8
Calque 1
10
279.973000
20
306.943610
11
280.654132
21
306.806106
0
LINE
8
Calque 1
10
280.654132
20
306.806106
11
281.210300
21
306.431128
0
LINE
8
Calque 1
10
281.210300
20
306.431128
11
281.585291
21
305.874973
0
LINE
8
Calque 1
10
281.585291
20
305.874973
11
281.722890
21
305.193940
0
LINE
8
Calque 1
10
281.722890
20
305.193940
11
281.585415
21
304.512742
0
LINE
8
Calque 1
10
281.585415
20
304.512742
11
281.210465
21
303.956422
0
LINE
8
Calque 1
10
281.210465
20
303.956422
11
280.654255
21
303.581279
0
LINE
8
Calque 1
10
280.654255
20
303.581279
11
279.973000
21
303.443610
0
LINE
8
Calque 1
10
279.973000
20
303.443610
11
279.291685
21
303.581155
0
LINE
8
Calque 1
10
279.291685
20
303.581155
11
278.735351
21
303.956256
0
LINE
8
Calque 1
10
278.735351
20
303.956256
11
278.360317
21
304.512618
0
LINE
8
Calque 1
10
278.360317
20
304.512618
11
278.222900
21
305.193940
0
LINE
8
Calque 1
10
278.222900
20
305.193940
11
278.360440
21
305.875097
0
LINE
8
Calque 1
10
278.360440
20
305.875097
11
278.735516
21
306.431293
0
LINE
8
Calque 1
10
278.735516
20
306.431293
11
279.291809
21
306.806230
0
LINE
8
Calque 1
10
279.291809
20
306.806230
11
279.973000
21
306.943610
0
LINE
8
Calque 1
10
279.973000
20
306.943610
11
279.973000
21
306.943610
0
LINE
8
Calque 1
10
296.973000
20
312.694000
11
295.461507
21
312.541630
0
LINE
8
Calque 1
10
295.461507
20
312.541630
11
294.053681
21
312.104624
0
LINE
8
Calque 1
10
294.053681
20
312.104624
11
292.779681
21
311.413137
0
LINE
8
Calque 1
10
292.779681
20
311.413137
11
291.669670
21
310.497325
0
LINE
8
Calque 1
10
291.669670
20
310.497325
11
290.753807
21
309.387344
0
LINE
8
Calque 1
10
290.753807
20
309.387344
11
290.062254
21
308.113349
0
LINE
8
Calque 1
10
290.062254
20
308.113349
11
289.625172
21
306.705496
0
LINE
8
Calque 1
10
289.625172
20
306.705496
11
289.472720
21
305.193940
0
LINE
8
Calque 1
10
289.472720
20
305.193940
11
289.625099
21
303.682303
0
LINE
8
Calque 1
10
289.625099
20
303.682303
11
290.062131
21
302.274373
0
LINE
8
Calque 1
10
290.062131
20
302.274373
11
290.753653
21
301.000312
0
LINE
8
Calque 1
10
290.753653
20
301.000312
11
291.669505
21
299.890280
0
LINE
8
Calque 1
10
291.669505
20
299.890280
11
292.779527
21
298.974438
0
LINE
8
Calque 1
10
292.779527
20
298.974438
11
294.053557
21
298.282947
0
LINE
8
Calque 1
10
294.053557
20
298.282947
11
295.461435
21
297.845967
0
LINE
8
Calque 1
10
295.461435
20
297.845967
11
296.973000
21
297.693660
0
LINE
8
Calque 1
10
296.973000
20
297.693660
11
298.484555
21
297.846039
0
LINE
8
Calque 1
10
298.484555
20
297.846039
11
299.892405
21
298.283071
0
LINE
8
Calque 1
10
299.892405
20
298.283071
11
301.166392
21
298.974593
0
LINE
8
Calque 1
10
301.166392
20
298.974593
11
302.276358
21
299.890445
0
LINE
8
Calque 1
10
302.276358
20
299.890445
11
303.192143
21
301.000467
0
LINE
8
Calque 1
10
303.192143
20
301.000467
11
303.883591
21
302.274497
0
LINE
8
Calque 1
10
303.883591
20
302.274497
11
304.320543
21
303.682375
0
LINE
8
Calque 1
10
304.320543
20
303.682375
11
304.472840
21
305.193940
0
LINE
8
Calque 1
10
304.472840
20
305.193940
11
304.320470
21
306.705423
0
LINE
8
Calque 1
10
304.320470
20
306.705423
11
303.883467
21
308.113225
0
LINE
8
Calque 1
10
303.883467
20
308.113225
11
303.191988
21
309.387189
0
LINE
8
Calque 1
10
303.191988
20
309.387189
11
302.276192
21
310.497160
0
LINE
8
Calque 1
10
302.276192
20
310.497160
11
301.166237
21
311.412982
0
LINE
8
Calque 1
10
301.166237
20
311.412982
11
299.892282
21
312.104500
0
LINE
8
Calque 1
10
299.892282
20
312.104500
11
298.484483
21
312.541558
0
LINE
8
Calque 1
10
298.484483
20
312.541558
11
296.973000
21
312.694000
0
LINE
8
Calque 1
10
296.973000
20
312.694000
11
296.973000
21
312.694000
0
LINE
8
Calque 1
10
296.973000
20
306.943610
11
297.654127
21
306.806106
0
LINE
8
Calque 1
10
297.654127
20
306.806106
11
298.210296
21
306.431128
0
LINE
8
Calque 1
10
298.210296
20
306.431128
11
298.585290
21
305.874973
0
LINE
8
Calque 1
10
298.585290
20
305.874973
11
298.722890
21
305.193940
0
LINE
8
Calque 1
10
298.722890
20
305.193940
11
298.585413
21
304.512742
0
LINE
8
Calque 1
10
298.585413
20
304.512742
11
298.210461
21
303.956422
0
LINE
8
Calque 1
10
298.210461
20
303.956422
11
297.654251
21
303.581279
0
LINE
8
Calque 1
10
297.654251
20
303.581279
11
296.973000
21
303.443610
0
LINE
8
Calque 1
10
296.973000
20
303.443610
11
296.291684
21
303.581155
0
LINE
8
Calque 1
10
296.291684
20
303.581155
11
295.735346
21
303.956256
0
LINE
8
Calque 1
10
295.735346
20
303.956256
11
295.360308
21
304.512618
0
LINE
8
Calque 1
10
295.360308
20
304.512618
11
295.222890
21
305.193940
0
LINE
8
Calque 1
10
295.222890
20
305.193940
11
295.360432
21
305.875097
0
LINE
8
Calque 1
10
295.360432
20
305.875097
11
295.735511
21
306.431293
0
LINE
8
Calque 1
10
295.735511
20
306.431293
11
296.291807
21
306.806230
0
LINE
8
Calque 1
10
296.291807
20
306.806230
11
296.973000
21
306.943610
0
LINE
8
Calque 1
10
296.973000
20
306.943610
11
296.973000
21
306.943610
0
LINE
8
Calque 1
10
313.973000
20
312.694000
11
312.461507
21
312.541630
0
LINE
8
Calque 1
10
312.461507
20
312.541630
11
311.053681
21
312.104624
0
LINE
8
Calque 1
10
311.053681
20
312.104624
11
309.779681
21
311.413137
0
LINE
8
Calque 1
10
309.779681
20
311.413137
11
308.669670
21
310.497325
0
LINE
8
Calque 1
10
308.669670
20
310.497325
11
307.753807
21
309.387344
0
LINE
8
Calque 1
10
307.753807
20
309.387344
11
307.062254
21
308.113349
0
LINE
8
Calque 1
10
307.062254
20
308.113349
11
306.625172
21
306.705496
0
LINE
8
Calque 1
10
306.625172
20
306.705496
11
306.472720
21
305.193940
0
LINE
8
Calque 1
10
306.472720
20
305.193940
11
306.625099
21
303.682303
0
LINE
8
Calque 1
10
306.625099
20
303.682303
11
307.062131
21
302.274373
0
LINE
8
Calque 1
10
307.062131
20
302.274373
11
307.753653
21
301.000312
0
LINE
8
Calque 1
10
307.753653
20
301.000312
11
308.669505
21
299.890280
0
LINE
8
Calque 1
10
308.669505
20
299.890280
11
309.779527
21
298.974438
0
LINE
8
Calque 1
10
309.779527
20
298.974438
11
311.053557
21
298.282947
0
LINE
8
Calque 1
10
311.053557
20
298.282947
11
312.461435
21
297.845967
0
LINE
8
Calque 1
10
312.461435
20
297.845967
11
313.973000
21
297.693660
0
LINE
8
Calque 1
10
313.973000
20
297.693660
11
315.484552
21
297.846039
0
LINE
8
Calque 1
10
315.484552
20
297.846039
11
316.892401
21
298.283071
0
LINE
8
Calque 1
10
316.892401
20
298.283071
11
318.166388
21
298.974593
0
LINE
8
Calque 1
10
318.166388
20
298.974593
11
319.276354
21
299.890445
0
LINE
8
Calque 1
10
319.276354
20
299.890445
11
320.192141
21
301.000467
0
LINE
8
Calque 1
10
320.192141
20
301.000467
11
320.883590
21
302.274497
0
LINE
8
Calque 1
10
320.883590
20
302.274497
11
321.320542
21
303.682375
0
LINE
8
Calque 1
10
321.320542
20
303.682375
11
321.472840
21
305.193940
0
LINE
8
Calque 1
10
321.472840
20
305.193940
11
321.320470
21
306.705423
0
LINE
8
Calque 1
10
321.320470
20
306.705423
11
320.883466
21
308.113225
0
LINE
8
Calque 1
10
320.883466
20
308.113225
11
320.191986
21
309.387189
0
LINE
8
Calque 1
10
320.191986
20
309.387189
11
319.276189
21
310.497160
0
LINE
8
Calque 1
10
319.276189
20
310.497160
11
318.166233
21
311.412982
0
LINE
8
Calque 1
10
318.166233
20
311.412982
11
316.892277
21
312.104500
0
LINE
8
Calque 1
10
316.892277
20
312.104500
11
315.484480
21
312.541558
0
LINE
8
Calque 1
10
315.484480
20
312.541558
11
313.973000
21
312.694000
0
LINE
8
Calque 1
10
313.973000
20
312.694000
11
313.973000
21
312.694000
0
LINE
8
Calque 1
10
313.973000
20
306.943610
11
314.654127
21
306.806106
0
LINE
8
Calque 1
10
314.654127
20
306.806106
11
315.210296
21
306.431128
0
LINE
8
Calque 1
10
315.210296
20
306.431128
11
315.585290
21
305.874973
0
LINE
8
Calque 1
10
315.585290
20
305.874973
11
315.722890
21
305.193940
0
LINE
8
Calque 1
10
315.722890
20
305.193940
11
315.585413
21
304.512742
0
LINE
8
Calque 1
10
315.585413
20
304.512742
11
315.210461
21
303.956422
0
LINE
8
Calque 1
10
315.210461
20
303.956422
11
314.654251
21
303.581279
0
LINE
8
Calque 1
10
314.654251
20
303.581279
11
313.973000
21
303.443610
0
LINE
8
Calque 1
10
313.973000
20
303.443610
11
313.291679
21
303.581155
0
LINE
8
Calque 1
10
313.291679
20
303.581155
11
312.735343
21
303.956256
0
LINE
8
Calque 1
10
312.735343
20
303.956256
11
312.360307
21
304.512618
0
LINE
8
Calque 1
10
312.360307
20
304.512618
11
312.222890
21
305.193940
0
LINE
8
Calque 1
10
312.222890
20
305.193940
11
312.360431
21
305.875097
0
LINE
8
Calque 1
10
312.360431
20
305.875097
11
312.735507
21
306.431293
0
LINE
8
Calque 1
10
312.735507
20
306.431293
11
313.291803
21
306.806230
0
LINE
8
Calque 1
10
313.291803
20
306.806230
11
313.973000
21
306.943610
0
LINE
8
Calque 1
10
313.973000
20
306.943610
11
313.973000
21
306.943610
0
LINE
8
Calque 1
10
330.973000
20
312.694000
11
329.461510
21
312.541630
0
LINE
8
Calque 1
10
329.461510
20
312.541630
11
328.053686
21
312.104624
0
LINE
8
Calque 1
10
328.053686
20
312.104624
11
326.779689
21
311.413137
0
LINE
8
Calque 1
10
326.779689
20
311.413137
11
325.669679
21
310.497325
0
LINE
8
Calque 1
10
325.669679
20
310.497325
11
324.753817
21
309.387344
0
LINE
8
Calque 1
10
324.753817
20
309.387344
11
324.062264
21
308.113349
0
LINE
8
Calque 1
10
324.062264
20
308.113349
11
323.625182
21
306.705496
0
LINE
8
Calque 1
10
323.625182
20
306.705496
11
323.472730
21
305.193940
0
LINE
8
Calque 1
10
323.472730
20
305.193940
11
323.625109
21
303.682303
0
LINE
8
Calque 1
10
323.625109
20
303.682303
11
324.062140
21
302.274373
0
LINE
8
Calque 1
10
324.062140
20
302.274373
11
324.753662
21
301.000312
0
LINE
8
Calque 1
10
324.753662
20
301.000312
11
325.669514
21
299.890280
0
LINE
8
Calque 1
10
325.669514
20
299.890280
11
326.779534
21
298.974438
0
LINE
8
Calque 1
10
326.779534
20
298.974438
11
328.053563
21
298.282947
0
LINE
8
Calque 1
10
328.053563
20
298.282947
11
329.461438
21
297.845967
0
LINE
8
Calque 1
10
329.461438
20
297.845967
11
330.973000
21
297.693660
0
LINE
8
Calque 1
10
330.973000
20
297.693660
11
332.484555
21
297.846039
0
LINE
8
Calque 1
10
332.484555
20
297.846039
11
333.892405
21
298.283071
0
LINE
8
Calque 1
10
333.892405
20
298.283071
11
335.166392
21
298.974593
0
LINE
8
Calque 1
10
335.166392
20
298.974593
11
336.276358
21
299.890445
0
LINE
8
Calque 1
10
336.276358
20
299.890445
11
337.192143
21
301.000467
0
LINE
8
Calque 1
10
337.192143
20
301.000467
11
337.883591
21
302.274497
0
LINE
8
Calque 1
10
337.883591
20
302.274497
11
338.320543
21
303.682375
0
LINE
8
Calque 1
10
338.320543
20
303.682375
11
338.472840
21
305.193940
0
LINE
8
Calque 1
10
338.472840
20
305.193940
11
338.320470
21
306.705423
0
LINE
8
Calque 1
10
338.320470
20
306.705423
11
337.883467
21
308.113225
0
LINE
8
Calque 1
10
337.883467
20
308.113225
11
337.191988
21
309.387189
0
LINE
8
Calque 1
10
337.191988
20
309.387189
11
336.276192
21
310.497160
0
LINE
8
Calque 1
10
336.276192
20
310.497160
11
335.166237
21
311.412982
0
LINE
8
Calque 1
10
335.166237
20
311.412982
11
333.892282
21
312.104500
0
LINE
8
Calque 1
10
333.892282
20
312.104500
11
332.484483
21
312.541558
0
LINE
8
Calque 1
10
332.484483
20
312.541558
11
330.973000
21
312.694000
0
LINE
8
Calque 1
10
330.973000
20
312.694000
11
330.973000
21
312.694000
0
LINE
8
Calque 1
10
330.973000
20
306.943610
11
331.654132
21
306.806106
0
LINE
8
Calque 1
10
331.654132
20
306.806106
11
332.210300
21
306.431128
0
LINE
8
Calque 1
10
332.210300
20
306.431128
11
332.585291
21
305.874973
0
LINE
8
Calque 1
10
332.585291
20
305.874973
11
332.722890
21
305.193940
0
LINE
8
Calque 1
10
332.722890
20
305.193940
11
332.585415
21
304.512742
0
LINE
8
Calque 1
10
332.585415
20
304.512742
11
332.210465
21
303.956422
0
LINE
8
Calque 1
10
332.210465
20
303.956422
11
331.654255
21
303.581279
0
LINE
8
Calque 1
10
331.654255
20
303.581279
11
330.973000
21
303.443610
0
LINE
8
Calque 1
10
330.973000
20
303.443610
11
330.291684
21
303.581155
0
LINE
8
Calque 1
10
330.291684
20
303.581155
11
329.735346
21
303.956256
0
LINE
8
Calque 1
10
329.735346
20
303.956256
11
329.360308
21
304.512618
0
LINE
8
Calque 1
10
329.360308
20
304.512618
11
329.222890
21
305.193940
0
LINE
8
Calque 1
10
329.222890
20
305.193940
11
329.360432
21
305.875097
0
LINE
8
Calque 1
10
329.360432
20
305.875097
11
329.735511
21
306.431293
0
LINE
8
Calque 1
10
329.735511
20
306.431293
11
330.291807
21
306.806230
0
LINE
8
Calque 1
10
330.291807
20
306.806230
11
330.973000
21
306.943610
0
LINE
8
Calque 1
10
330.973000
20
306.943610
11
330.973000
21
306.943610
0
LINE
8
Calque 1
10
271.473000
20
327.694000
11
269.961507
21
327.541630
0
LINE
8
Calque 1
10
269.961507
20
327.541630
11
268.553681
21
327.104624
0
LINE
8
Calque 1
10
268.553681
20
327.104624
11
267.279681
21
326.413137
0
LINE
8
Calque 1
10
267.279681
20
326.413137
11
266.169670
21
325.497325
0
LINE
8
Calque 1
10
266.169670
20
325.497325
11
265.253807
21
324.387344
0
LINE
8
Calque 1
10
265.253807
20
324.387344
11
264.562254
21
323.113349
0
LINE
8
Calque 1
10
264.562254
20
323.113349
11
264.125172
21
321.705496
0
LINE
8
Calque 1
10
264.125172
20
321.705496
11
263.972720
21
320.193940
0
LINE
8
Calque 1
10
263.972720
20
320.193940
11
264.125099
21
318.682303
0
LINE
8
Calque 1
10
264.125099
20
318.682303
11
264.562131
21
317.274373
0
LINE
8
Calque 1
10
264.562131
20
317.274373
11
265.253653
21
316.000312
0
LINE
8
Calque 1
10
265.253653
20
316.000312
11
266.169505
21
314.890280
0
LINE
8
Calque 1
10
266.169505
20
314.890280
11
267.279527
21
313.974438
0
LINE
8
Calque 1
10
267.279527
20
313.974438
11
268.553557
21
313.282947
0
LINE
8
Calque 1
10
268.553557
20
313.282947
11
269.961435
21
312.845967
0
LINE
8
Calque 1
10
269.961435
20
312.845967
11
271.473000
21
312.693660
0
LINE
8
Calque 1
10
271.473000
20
312.693660
11
272.984555
21
312.846039
0
LINE
8
Calque 1
10
272.984555
20
312.846039
11
274.392405
21
313.283071
0
LINE
8
Calque 1
10
274.392405
20
313.283071
11
275.666392
21
313.974593
0
LINE
8
Calque 1
10
275.666392
20
313.974593
11
276.776358
21
314.890445
0
LINE
8
Calque 1
10
276.776358
20
314.890445
11
277.692143
21
316.000467
0
LINE
8
Calque 1
10
277.692143
20
316.000467
11
278.383591
21
317.274497
0
LINE
8
Calque 1
10
278.383591
20
317.274497
11
278.820543
21
318.682375
0
LINE
8
Calque 1
10
278.820543
20
318.682375
11
278.972840
21
320.193940
0
LINE
8
Calque 1
10
278.972840
20
320.193940
11
278.820470
21
321.705423
0
LINE
8
Calque 1
10
278.820470
20
321.705423
11
278.383467
21
323.113225
0
LINE
8
Calque 1
10
278.383467
20
323.113225
11
277.691988
21
324.387189
0
LINE
8
Calque 1
10
277.691988
20
324.387189
11
276.776192
21
325.497160
0
LINE
8
Calque 1
10
276.776192
20
325.497160
11
275.666237
21
326.412982
0
LINE
8
Calque 1
10
275.666237
20
326.412982
11
274.392282
21
327.104500
0
LINE
8
Calque 1
10
274.392282
20
327.104500
11
272.984483
21
327.541558
0
LINE
8
Calque 1
10
272.984483
20
327.541558
11
271.473000
21
327.694000
0
LINE
8
Calque 1
10
271.473000
20
327.694000
11
271.473000
21
327.694000
0
LINE
8
Calque 1
10
271.473000
20
321.943610
11
272.154127
21
321.806107
0
LINE
8
Calque 1
10
272.154127
20
321.806107
11
272.710296
21
321.431128
0
LINE
8
Calque 1
10
272.710296
20
321.431128
11
273.085290
21
320.874974
0
LINE
8
Calque 1
10
273.085290
20
320.874974
11
273.222890
21
320.193940
0
LINE
8
Calque 1
10
273.222890
20
320.193940
11
273.085413
21
319.512742
0
LINE
8
Calque 1
10
273.085413
20
319.512742
11
272.710461
21
318.956422
0
LINE
8
Calque 1
10
272.710461
20
318.956422
11
272.154251
21
318.581279
0
LINE
8
Calque 1
10
272.154251
20
318.581279
11
271.473000
21
318.443610
0
LINE
8
Calque 1
10
271.473000
20
318.443610
11
270.791684
21
318.581155
0
LINE
8
Calque 1
10
270.791684
20
318.581155
11
270.235346
21
318.956256
0
LINE
8
Calque 1
10
270.235346
20
318.956256
11
269.860308
21
319.512618
0
LINE
8
Calque 1
10
269.860308
20
319.512618
11
269.722890
21
320.193940
0
LINE
8
Calque 1
10
269.722890
20
320.193940
11
269.860432
21
320.875097
0
LINE
8
Calque 1
10
269.860432
20
320.875097
11
270.235511
21
321.431293
0
LINE
8
Calque 1
10
270.235511
20
321.431293
11
270.791807
21
321.806230
0
LINE
8
Calque 1
10
270.791807
20
321.806230
11
271.473000
21
321.943610
0
LINE
8
Calque 1
10
271.473000
20
321.943610
11
271.473000
21
321.943610
0
LINE
8
Calque 1
10
288.473000
20
327.694000
11
286.961507
21
327.541630
0
LINE
8
Calque 1
10
286.961507
20
327.541630
11
285.553681
21
327.104624
0
LINE
8
Calque 1
10
285.553681
20
327.104624
11
284.279681
21
326.413137
0
LINE
8
Calque 1
10
284.279681
20
326.413137
11
283.169670
21
325.497325
0
LINE
8
Calque 1
10
283.169670
20
325.497325
11
282.253807
21
324.387344
0
LINE
8
Calque 1
10
282.253807
20
324.387344
11
281.562254
21
323.113349
0
LINE
8
Calque 1
10
281.562254
20
323.113349
11
281.125172
21
321.705496
0
LINE
8
Calque 1
10
281.125172
20
321.705496
11
280.972720
21
320.193940
0
LINE
8
Calque 1
10
280.972720
20
320.193940
11
281.125099
21
318.682303
0
LINE
8
Calque 1
10
281.125099
20
318.682303
11
281.562131
21
317.274373
0
LINE
8
Calque 1
10
281.562131
20
317.274373
11
282.253653
21
316.000312
0
LINE
8
Calque 1
10
282.253653
20
316.000312
11
283.169505
21
314.890280
0
LINE
8
Calque 1
10
283.169505
20
314.890280
11
284.279527
21
313.974438
0
LINE
8
Calque 1
10
284.279527
20
313.974438
11
285.553557
21
313.282947
0
LINE
8
Calque 1
10
285.553557
20
313.282947
11
286.961435
21
312.845967
0
LINE
8
Calque 1
10
286.961435
20
312.845967
11
288.473000
21
312.693660
0
LINE
8
Calque 1
10
288.473000
20
312.693660
11
289.984552
21
312.846039
0
LINE
8
Calque 1
10
289.984552
20
312.846039
11
291.392401
21
313.283071
0
LINE
8
Calque 1
10
291.392401
20
313.283071
11
292.666388
21
313.974593
0
LINE
8
Calque 1
10
292.666388
20
313.974593
11
293.776354
21
314.890445
0
LINE
8
Calque 1
10
293.776354
20
314.890445
11
294.692141
21
316.000467
0
LINE
8
Calque 1
10
294.692141
20
316.000467
11
295.383590
21
317.274497
0
LINE
8
Calque 1
10
295.383590
20
317.274497
11
295.820542
21
318.682375
0
LINE
8
Calque 1
10
295.820542
20
318.682375
11
295.972840
21
320.193940
0
LINE
8
Calque 1
10
295.972840
20
320.193940
11
295.820470
21
321.705423
0
LINE
8
Calque 1
10
295.820470
20
321.705423
11
295.383466
21
323.113225
0
LINE
8
Calque 1
10
295.383466
20
323.113225
11
294.691986
21
324.387189
0
LINE
8
Calque 1
10
294.691986
20
324.387189
11
293.776189
21
325.497160
0
LINE
8
Calque 1
10
293.776189
20
325.497160
11
292.666233
21
326.412982
0
LINE
8
Calque 1
10
292.666233
20
326.412982
11
291.392277
21
327.104500
0
LINE
8
Calque 1
10
291.392277
20
327.104500
11
289.984480
21
327.541558
0
LINE
8
Calque 1
10
289.984480
20
327.541558
11
288.473000
21
327.694000
0
LINE
8
Calque 1
10
288.473000
20
327.694000
11
288.473000
21
327.694000
0
LINE
8
Calque 1
10
288.473000
20
321.943610
11
289.154127
21
321.806107
0
LINE
8
Calque 1
10
289.154127
20
321.806107
11
289.710296
21
321.431128
0
LINE
8
Calque 1
10
289.710296
20
321.431128
11
290.085290
21
320.874974
0
LINE
8
Calque 1
10
290.085290
20
320.874974
11
290.222890
21
320.193940
0
LINE
8
Calque 1
10
290.222890
20
320.193940
11
290.085413
21
319.512742
0
LINE
8
Calque 1
10
290.085413
20
319.512742
11
289.710461
21
318.956422
0
LINE
8
Calque 1
10
289.710461
20
318.956422
11
289.154251
21
318.581279
0
LINE
8
Calque 1
10
289.154251
20
318.581279
11
288.473000
21
318.443610
0
LINE
8
Calque 1
10
288.473000
20
318.443610
11
287.791679
21
318.581155
0
LINE
8
Calque 1
10
287.791679
20
318.581155
11
287.235343
21
318.956256
0
LINE
8
Calque 1
10
287.235343
20
318.956256
11
286.860307
21
319.512618
0
LINE
8
Calque 1
10
286.860307
20
319.512618
11
286.722890
21
320.193940
0
LINE
8
Calque 1
10
286.722890
20
320.193940
11
286.860431
21
320.875097
0
LINE
8
Calque 1
10
286.860431
20
320.875097
11
287.235507
21
321.431293
0
LINE
8
Calque 1
10
287.235507
20
321.431293
11
287.791803
21
321.806230
0
LINE
8
Calque 1
10
287.791803
20
321.806230
11
288.473000
21
321.943610
0
LINE
8
Calque 1
10
288.473000
20
321.943610
11
288.473000
21
321.943610
0
LINE
8
Calque 1
10
305.473000
20
327.694000
11
303.961510
21
327.541630
0
LINE
8
Calque 1
10
303.961510
20
327.541630
11
302.553686
21
327.104624
0
LINE
8
Calque 1
10
302.553686
20
327.104624
11
301.279689
21
326.413137
0
LINE
8
Calque 1
10
301.279689
20
326.413137
11
300.169679
21
325.497325
0
LINE
8
Calque 1
10
300.169679
20
325.497325
11
299.253817
21
324.387344
0
LINE
8
Calque 1
10
299.253817
20
324.387344
11
298.562264
21
323.113349
0
LINE
8
Calque 1
10
298.562264
20
323.113349
11
298.125182
21
321.705496
0
LINE
8
Calque 1
10
298.125182
20
321.705496
11
297.972730
21
320.193940
0
LINE
8
Calque 1
10
297.972730
20
320.193940
11
298.125109
21
318.682303
0
LINE
8
Calque 1
10
298.125109
20
318.682303
11
298.562140
21
317.274373
0
LINE
8
Calque 1
10
298.562140
20
317.274373
11
299.253662
21
316.000312
0
LINE
8
Calque 1
10
299.253662
20
316.000312
11
300.169514
21
314.890280
0
LINE
8
Calque 1
10
300.169514
20
314.890280
11
301.279534
21
313.974438
0
LINE
8
Calque 1
10
301.279534
20
313.974438
11
302.553563
21
313.282947
0
LINE
8
Calque 1
10
302.553563
20
313.282947
11
303.961438
21
312.845967
0
LINE
8
Calque 1
10
303.961438
20
312.845967
11
305.473000
21
312.693660
0
LINE
8
Calque 1
10
305.473000
20
312.693660
11
306.984555
21
312.846039
0
LINE
8
Calque 1
10
306.984555
20
312.846039
11
308.392405
21
313.283071
0
LINE
8
Calque 1
10
308.392405
20
313.283071
11
309.666392
21
313.974593
0
LINE
8
Calque 1
10
309.666392
20
313.974593
11
310.776358
21
314.890445
0
LINE
8
Calque 1
10
310.776358
20
314.890445
11
311.692143
21
316.000467
0
LINE
8
Calque 1
10
311.692143
20
316.000467
11
312.383591
21
317.274497
0
LINE
8
Calque 1
10
312.383591
20
317.274497
11
312.820543
21
318.682375
0
LINE
8
Calque 1
10
312.820543
20
318.682375
11
312.972840
21
320.193940
0
LINE
8
Calque 1
10
312.972840
20
320.193940
11
312.820470
21
321.705423
0
LINE
8
Calque 1
10
312.820470
20
321.705423
11
312.383467
21
323.113225
0
LINE
8
Calque 1
10
312.383467
20
323.113225
11
311.691988
21
324.387189
0
LINE
8
Calque 1
10
311.691988
20
324.387189
11
310.776192
21
325.497160
0
LINE
8
Calque 1
10
310.776192
20
325.497160
11
309.666237
21
326.412982
0
LINE
8
Calque 1
10
309.666237
20
326.412982
11
308.392282
21
327.104500
0
LINE
8
Calque 1
10
308.392282
20
327.104500
11
306.984483
21
327.541558
0
LINE
8
Calque 1
10
306.984483
20
327.541558
11
305.473000
21
327.694000
0
LINE
8
Calque 1
10
305.473000
20
327.694000
11
305.473000
21
327.694000
0
LINE
8
Calque 1
10
305.473000
20
321.943610
11
306.154132
21
321.806107
0
LINE
8
Calque 1
10
306.154132
20
321.806107
11
306.710300
21
321.431128
0
LINE
8
Calque 1
10
306.710300
20
321.431128
11
307.085291
21
320.874974
0
LINE
8
Calque 1
10
307.085291
20
320.874974
11
307.222890
21
320.193940
0
LINE
8
Calque 1
10
307.222890
20
320.193940
11
307.085415
21
319.512742
0
LINE
8
Calque 1
10
307.085415
20
319.512742
11
306.710465
21
318.956422
0
LINE
8
Calque 1
10
306.710465
20
318.956422
11
306.154255
21
318.581279
0
LINE
8
Calque 1
10
306.154255
20
318.581279
11
305.473000
21
318.443610
0
LINE
8
Calque 1
10
305.473000
20
318.443610
11
304.791684
21
318.581155
0
LINE
8
Calque 1
10
304.791684
20
318.581155
11
304.235346
21
318.956256
0
LINE
8
Calque 1
10
304.235346
20
318.956256
11
303.860308
21
319.512618
0
LINE
8
Calque 1
10
303.860308
20
319.512618
11
303.722890
21
320.193940
0
LINE
8
Calque 1
10
303.722890
20
320.193940
11
303.860432
21
320.875097
0
LINE
8
Calque 1
10
303.860432
20
320.875097
11
304.235511
21
321.431293
0
LINE
8
Calque 1
10
304.235511
20
321.431293
11
304.791807
21
321.806230
0
LINE
8
Calque 1
10
304.791807
20
321.806230
11
305.473000
21
321.943610
0
LINE
8
Calque 1
10
305.473000
20
321.943610
11
305.473000
21
321.943610
0
LINE
8
Calque 1
10
322.474000
20
327.694000
11
320.962507
21
327.541630
0
LINE
8
Calque 1
10
320.962507
20
327.541630
11
319.554681
21
327.104624
0
LINE
8
Calque 1
10
319.554681
20
327.104624
11
318.280681
21
326.413137
0
LINE
8
Calque 1
10
318.280681
20
326.413137
11
317.170670
21
325.497325
0
LINE
8
Calque 1
10
317.170670
20
325.497325
11
316.254807
21
324.387344
0
LINE
8
Calque 1
10
316.254807
20
324.387344
11
315.563254
21
323.113349
0
LINE
8
Calque 1
10
315.563254
20
323.113349
11
315.126172
21
321.705496
0
LINE
8
Calque 1
10
315.126172
20
321.705496
11
314.973720
21
320.193940
0
LINE
8
Calque 1
10
314.973720
20
320.193940
11
315.126099
21
318.682303
0
LINE
8
Calque 1
10
315.126099
20
318.682303
11
315.563131
21
317.274373
0
LINE
8
Calque 1
10
315.563131
20
317.274373
11
316.254653
21
316.000312
0
LINE
8
Calque 1
10
316.254653
20
316.000312
11
317.170505
21
314.890280
0
LINE
8
Calque 1
10
317.170505
20
314.890280
11
318.280527
21
313.974438
0
LINE
8
Calque 1
10
318.280527
20
313.974438
11
319.554557
21
313.282947
0
LINE
8
Calque 1
10
319.554557
20
313.282947
11
320.962435
21
312.845967
0
LINE
8
Calque 1
10
320.962435
20
312.845967
11
322.474000
21
312.693660
0
LINE
8
Calque 1
10
322.474000
20
312.693660
11
323.985555
21
312.846039
0
LINE
8
Calque 1
10
323.985555
20
312.846039
11
325.393405
21
313.283071
0
LINE
8
Calque 1
10
325.393405
20
313.283071
11
326.667392
21
313.974593
0
LINE
8
Calque 1
10
326.667392
20
313.974593
11
327.777357
21
314.890445
0
LINE
8
Calque 1
10
327.777357
20
314.890445
11
328.693143
21
316.000467
0
LINE
8
Calque 1
10
328.693143
20
316.000467
11
329.384591
21
317.274497
0
LINE
8
Calque 1
10
329.384591
20
317.274497
11
329.821543
21
318.682375
0
LINE
8
Calque 1
10
329.821543
20
318.682375
11
329.973840
21
320.193940
0
LINE
8
Calque 1
10
329.973840
20
320.193940
11
329.821470
21
321.705423
0
LINE
8
Calque 1
10
329.821470
20
321.705423
11
329.384467
21
323.113225
0
LINE
8
Calque 1
10
329.384467
20
323.113225
11
328.692988
21
324.387189
0
LINE
8
Calque 1
10
328.692988
20
324.387189
11
327.777192
21
325.497160
0
LINE
8
Calque 1
10
327.777192
20
325.497160
11
326.667237
21
326.412982
0
LINE
8
Calque 1
10
326.667237
20
326.412982
11
325.393282
21
327.104500
0
LINE
8
Calque 1
10
325.393282
20
327.104500
11
323.985483
21
327.541558
0
LINE
8
Calque 1
10
323.985483
20
327.541558
11
322.474000
21
327.694000
0
LINE
8
Calque 1
10
322.474000
20
327.694000
11
322.474000
21
327.694000
0
LINE
8
Calque 1
10
322.474000
20
321.943610
11
323.155127
21
321.806107
0
LINE
8
Calque 1
10
323.155127
20
321.806107
11
323.711296
21
321.431128
0
LINE
8
Calque 1
10
323.711296
20
321.431128
11
324.086290
21
320.874974
0
LINE
8
Calque 1
10
324.086290
20
320.874974
11
324.223890
21
320.193940
0
LINE
8
Calque 1
10
324.223890
20
320.193940
11
324.086413
21
319.512742
0
LINE
8
Calque 1
10
324.086413
20
319.512742
11
323.711461
21
318.956422
0
LINE
8
Calque 1
10
323.711461
20
318.956422
11
323.155251
21
318.581279
0
LINE
8
Calque 1
10
323.155251
20
318.581279
11
322.474000
21
318.443610
0
LINE
8
Calque 1
10
322.474000
20
318.443610
11
321.792684
21
318.581155
0
LINE
8
Calque 1
10
321.792684
20
318.581155
11
321.236346
21
318.956256
0
LINE
8
Calque 1
10
321.236346
20
318.956256
11
320.861308
21
319.512618
0
LINE
8
Calque 1
10
320.861308
20
319.512618
11
320.723890
21
320.193940
0
LINE
8
Calque 1
10
320.723890
20
320.193940
11
320.861432
21
320.875097
0
LINE
8
Calque 1
10
320.861432
20
320.875097
11
321.236511
21
321.431293
0
LINE
8
Calque 1
10
321.236511
20
321.431293
11
321.792807
21
321.806230
0
LINE
8
Calque 1
10
321.792807
20
321.806230
11
322.474000
21
321.943610
0
LINE
8
Calque 1
10
322.474000
20
321.943610
11
322.474000
21
321.943610
0
LINE
8
Calque 1
10
339.474000
20
327.694000
11
337.962507
21
327.541630
0
LINE
8
Calque 1
10
337.962507
20
327.541630
11
336.554681
21
327.104624
0
LINE
8
Calque 1
10
336.554681
20
327.104624
11
335.280681
21
326.413137
0
LINE
8
Calque 1
10
335.280681
20
326.413137
11
334.170670
21
325.497325
0
LINE
8
Calque 1
10
334.170670
20
325.497325
11
333.254807
21
324.387344
0
LINE
8
Calque 1
10
333.254807
20
324.387344
11
332.563254
21
323.113349
0
LINE
8
Calque 1
10
332.563254
20
323.113349
11
332.126172
21
321.705496
0
LINE
8
Calque 1
10
332.126172
20
321.705496
11
331.973720
21
320.193940
0
LINE
8
Calque 1
10
331.973720
20
320.193940
11
332.126099
21
318.682303
0
LINE
8
Calque 1
10
332.126099
20
318.682303
11
332.563131
21
317.274373
0
LINE
8
Calque 1
10
332.563131
20
317.274373
11
333.254653
21
316.000312
0
LINE
8
Calque 1
10
333.254653
20
316.000312
11
334.170505
21
314.890280
0
LINE
8
Calque 1
10
334.170505
20
314.890280
11
335.280527
21
313.974438
0
LINE
8
Calque 1
10
335.280527
20
313.974438
11
336.554557
21
313.282947
0
LINE
8
Calque 1
10
336.554557
20
313.282947
11
337.962435
21
312.845967
0
LINE
8
Calque 1
10
337.962435
20
312.845967
11
339.474000
21
312.693660
0
LINE
8
Calque 1
10
339.474000
20
312.693660
11
340.985552
21
312.846039
0
LINE
8
Calque 1
10
340.985552
20
312.846039
11
342.393400
21
313.283071
0
LINE
8
Calque 1
10
342.393400
20
313.283071
11
343.667385
21
313.974593
0
LINE
8
Calque 1
10
343.667385
20
313.974593
11
344.777349
21
314.890445
0
LINE
8
Calque 1
10
344.777349
20
314.890445
11
345.693134
21
316.000467
0
LINE
8
Calque 1
10
345.693134
20
316.000467
11
346.384581
21
317.274497
0
LINE
8
Calque 1
10
346.384581
20
317.274497
11
346.821533
21
318.682375
0
LINE
8
Calque 1
10
346.821533
20
318.682375
11
346.973830
21
320.193940
0
LINE
8
Calque 1
10
346.973830
20
320.193940
11
346.821460
21
321.705423
0
LINE
8
Calque 1
10
346.821460
20
321.705423
11
346.384457
21
323.113225
0
LINE
8
Calque 1
10
346.384457
20
323.113225
11
345.692979
21
324.387189
0
LINE
8
Calque 1
10
345.692979
20
324.387189
11
344.777184
21
325.497160
0
LINE
8
Calque 1
10
344.777184
20
325.497160
11
343.667230
21
326.412982
0
LINE
8
Calque 1
10
343.667230
20
326.412982
11
342.393276
21
327.104500
0
LINE
8
Calque 1
10
342.393276
20
327.104500
11
340.985480
21
327.541558
0
LINE
8
Calque 1
10
340.985480
20
327.541558
11
339.474000
21
327.694000
0
LINE
8
Calque 1
10
339.474000
20
327.694000
11
339.474000
21
327.694000
0
LINE
8
Calque 1
10
339.474000
20
321.943610
11
340.155127
21
321.806107
0
LINE
8
Calque 1
10
340.155127
20
321.806107
11
340.711296
21
321.431128
0
LINE
8
Calque 1
10
340.711296
20
321.431128
11
341.086290
21
320.874974
0
LINE
8
Calque 1
10
341.086290
20
320.874974
11
341.223890
21
320.193940
0
LINE
8
Calque 1
10
341.223890
20
320.193940
11
341.086413
21
319.512742
0
LINE
8
Calque 1
10
341.086413
20
319.512742
11
340.711461
21
318.956422
0
LINE
8
Calque 1
10
340.711461
20
318.956422
11
340.155251
21
318.581279
0
LINE
8
Calque 1
10
340.155251
20
318.581279
11
339.474000
21
318.443610
0
LINE
8
Calque 1
10
339.474000
20
318.443610
11
338.792679
21
318.581155
0
LINE
8
Calque 1
10
338.792679
20
318.581155
11
338.236342
21
318.956256
0
LINE
8
Calque 1
10
338.236342
20
318.956256
11
337.861307
21
319.512618
0
LINE
8
Calque 1
10
337.861307
20
319.512618
11
337.723890
21
320.193940
0
LINE
8
Calque 1
10
337.723890
20
320.193940
11
337.861431
21
320.875097
0
LINE
8
Calque 1
10
337.861431
20
320.875097
11
338.236507
21
321.431293
0
LINE
8
Calque 1
10
338.236507
20
321.431293
11
338.792803
21
321.806230
0
LINE
8
Calque 1
10
338.792803
20
321.806230
11
339.474000
21
321.943610
0
LINE
8
Calque 1
10
339.474000
20
321.943610
11
339.474000
21
321.943610
0
LINE
8
Calque 1
10
-394.321000
20
398.569000
11
-394.163820
21
399.347257
0
LINE
8
Calque 1
10
-394.163820
20
399.347257
11
-393.735184
21
399.982935
0
LINE
8
Calque 1
10
-393.735184
20
399.982935
11
-393.099448
21
400.411643
0
LINE
8
Calque 1
10
-393.099448
20
400.411643
11
-392.320970
21
400.568990
0
LINE
8
Calque 1
10
-392.320970
20
400.568990
11
-391.542233
21
400.411832
0
LINE
8
Calque 1
10
-391.542233
20
400.411832
11
-390.906368
21
399.983235
0
LINE
8
Calque 1
10
-390.906368
20
399.983235
11
-390.477686
21
399.347518
0
LINE
8
Calque 1
10
-390.477686
20
399.347518
11
-390.320500
21
398.569000
0
LINE
8
Calque 1
10
-390.320500
20
398.569000
11
-390.477686
21
397.790257
0
LINE
8
Calque 1
10
-390.477686
20
397.790257
11
-390.906368
21
397.154309
0
LINE
8
Calque 1
10
-390.906368
20
397.154309
11
-391.542233
21
396.725576
0
LINE
8
Calque 1
10
-391.542233
20
396.725576
11
-392.320970
21
396.568480
0
LINE
8
Calque 1
10
-392.320970
20
396.568480
11
-393.099448
21
396.725685
0
LINE
8
Calque 1
10
-393.099448
20
396.725685
11
-393.735184
21
397.154404
0
LINE
8
Calque 1
10
-393.735184
20
397.154404
11
-394.163820
21
397.790291
0
LINE
8
Calque 1
10
-394.163820
20
397.790291
11
-394.321000
21
398.569000
0
LINE
8
Calque 1
10
-394.321000
20
398.569000
11
-394.321000
21
398.569000
0
LINE
8
Calque 1
10
-380.320600
20
398.569000
11
-380.163390
21
399.347257
0
LINE
8
Calque 1
10
-380.163390
20
399.347257
11
-379.734705
21
399.982935
0
LINE
8
Calque 1
10
-379.734705
20
399.982935
11
-379.098960
21
400.411643
0
LINE
8
Calque 1
10
-379.098960
20
400.411643
11
-378.320570
21
400.568990
0
LINE
8
Calque 1
10
-378.320570
20
400.568990
11
-377.542116
21
400.411832
0
LINE
8
Calque 1
10
-377.542116
20
400.411832
11
-376.906219
21
399.983235
0
LINE
8
Calque 1
10
-376.906219
20
399.983235
11
-376.477380
21
399.347518
0
LINE
8
Calque 1
10
-376.477380
20
399.347518
11
-376.320100
21
398.569000
0
LINE
8
Calque 1
10
-376.320100
20
398.569000
11
-376.477287
21
397.790257
0
LINE
8
Calque 1
10
-376.477287
20
397.790257
11
-376.905971
21
397.154309
0
LINE
8
Calque 1
10
-376.905971
20
397.154309
11
-377.541837
21
396.725576
0
LINE
8
Calque 1
10
-377.541837
20
396.725576
11
-378.320570
21
396.568480
0
LINE
8
Calque 1
10
-378.320570
20
396.568480
11
-379.099145
21
396.725685
0
LINE
8
Calque 1
10
-379.099145
20
396.725685
11
-379.734870
21
397.154404
0
LINE
8
Calque 1
10
-379.734870
20
397.154404
11
-380.163452
21
397.790291
0
LINE
8
Calque 1
10
-380.163452
20
397.790291
11
-380.320600
21
398.569000
0
LINE
8
Calque 1
10
-380.320600
20
398.569000
11
-380.320600
21
398.569000
0
LINE
8
Calque 1
10
-388.803000
20
145.456000
11
-388.645852
21
146.234257
0
LINE
8
Calque 1
10
-388.645852
20
146.234257
11
-388.217270
21
146.869935
0
LINE
8
Calque 1
10
-388.217270
20
146.869935
11
-387.581545
21
147.298643
0
LINE
8
Calque 1
10
-387.581545
20
147.298643
11
-386.802970
21
147.455990
0
LINE
8
Calque 1
10
-386.802970
20
147.455990
11
-386.024330
21
147.298832
0
LINE
8
Calque 1
10
-386.024330
20
147.298832
11
-385.388454
21
146.870235
0
LINE
8
Calque 1
10
-385.388454
20
146.870235
11
-384.959718
21
146.234518
0
LINE
8
Calque 1
10
-384.959718
20
146.234518
11
-384.802500
21
145.456000
0
LINE
8
Calque 1
10
-384.802500
20
145.456000
11
-384.959718
21
144.677253
0
LINE
8
Calque 1
10
-384.959718
20
144.677253
11
-385.388454
21
144.041306
0
LINE
8
Calque 1
10
-385.388454
20
144.041306
11
-386.024330
21
143.612579
0
LINE
8
Calque 1
10
-386.024330
20
143.612579
11
-386.802970
21
143.455490
0
LINE
8
Calque 1
10
-386.802970
20
143.455490
11
-387.581545
21
143.612693
0
LINE
8
Calque 1
10
-387.581545
20
143.612693
11
-388.217270
21
144.041407
0
LINE
8
Calque 1
10
-388.217270
20
144.041407
11
-388.645852
21
144.677291
0
LINE
8
Calque 1
10
-388.645852
20
144.677291
11
-388.803000
21
145.456000
0
LINE
8
Calque 1
10
-388.803000
20
145.456000
11
-388.803000
21
145.456000
0
LINE
8
Calque 1
10
-374.802600
20
145.456000
11
-374.645421
21
146.234257
0
LINE
8
Calque 1
10
-374.645421
20
146.234257
11
-374.216788
21
146.869935
0
LINE
8
Calque 1
10
-374.216788
20
146.869935
11
-373.581052
21
147.298643
0
LINE
8
Calque 1
10
-373.581052
20
147.298643
11
-372.802570
21
147.455990
0
LINE
8
Calque 1
10
-372.802570
20
147.455990
11
-372.024116
21
147.298832
0
LINE
8
Calque 1
10
-372.024116
20
147.298832
11
-371.388219
21
146.870235
0
LINE
8
Calque 1
10
-371.388219
20
146.870235
11
-370.959380
21
146.234518
0
LINE
8
Calque 1
10
-370.959380
20
146.234518
11
-370.802100
21
145.456000
0
LINE
8
Calque 1
10
-370.802100
20
145.456000
11
-370.959318
21
144.677253
0
LINE
8
Calque 1
10
-370.959318
20
144.677253
11
-371.388054
21
144.041306
0
LINE
8
Calque 1
10
-371.388054
20
144.041306
11
-372.023930
21
143.612579
0
LINE
8
Calque 1
10
-372.023930
20
143.612579
11
-372.802570
21
143.455490
0
LINE
8
Calque 1
10
-372.802570
20
143.455490
11
-373.581145
21
143.612693
0
LINE
8
Calque 1
10
-373.581145
20
143.612693
11
-374.216870
21
144.041407
0
LINE
8
Calque 1
10
-374.216870
20
144.041407
11
-374.645452
21
144.677291
0
LINE
8
Calque 1
10
-374.645452
20
144.677291
11
-374.802600
21
145.456000
0
LINE
8
Calque 1
10
-374.802600
20
145.456000
11
-374.802600
21
145.456000
0
LINE
8
Calque 1
10
-394.303000
20
145.456000
11
-394.151134
21
143.940884
0
LINE
8
Calque 1
10
-394.151134
20
143.940884
11
-393.715351
21
142.531402
0
LINE
8
Calque 1
10
-393.715351
20
142.531402
11
-393.025371
21
141.257262
0
LINE
8
Calque 1
10
-393.025371
20
141.257262
11
-392.110914
21
140.148169
0
LINE
8
Calque 1
10
-392.110914
20
140.148169
11
-391.001700
21
139.233830
0
LINE
8
Calque 1
10
-391.001700
20
139.233830
11
-389.727449
21
138.543951
0
LINE
8
Calque 1
10
-389.727449
20
138.543951
11
-388.317883
21
138.108239
0
LINE
8
Calque 1
10
-388.317883
20
138.108239
11
-386.802720
21
137.956400
0
LINE
8
Calque 1
10
-386.802720
20
137.956400
11
56.385400
21
137.957000
0
LINE
8
Calque 1
10
56.385400
20
137.957000
11
57.162581
21
136.937605
0
LINE
8
Calque 1
10
57.162581
20
136.937605
11
58.169552
21
136.148075
0
LINE
8
Calque 1
10
58.169552
20
136.148075
11
59.362108
21
135.637995
0
LINE
8
Calque 1
10
59.362108
20
135.637995
11
60.696050
21
135.456950
0
LINE
8
Calque 1
10
60.696050
20
135.456950
11
150.696000
21
135.456000
0
LINE
8
Calque 1
10
150.696000
20
135.456000
11
151.706166
21
135.557248
0
LINE
8
Calque 1
10
151.706166
20
135.557248
11
152.645945
21
135.847781
0
LINE
8
Calque 1
10
152.645945
20
135.847781
11
153.495517
21
136.307778
0
LINE
8
Calque 1
10
153.495517
20
136.307778
11
154.235064
21
136.917422
0
LINE
8
Calque 1
10
154.235064
20
136.917422
11
154.844766
21
137.656895
0
LINE
8
Calque 1
10
154.844766
20
137.656895
11
155.304806
21
138.506376
0
LINE
8
Calque 1
10
155.304806
20
138.506376
11
155.595363
21
139.446047
0
LINE
8
Calque 1
10
155.595363
20
139.446047
11
155.696620
21
140.456090
0
LINE
8
Calque 1
10
155.696620
20
140.456090
11
155.696000
21
150.456000
0
LINE
8
Calque 1
10
155.696000
20
150.456000
11
155.594743
21
151.466169
0
LINE
8
Calque 1
10
155.594743
20
151.466169
11
155.304186
21
152.405851
0
LINE
8
Calque 1
10
155.304186
20
152.405851
11
154.844146
21
153.255256
0
LINE
8
Calque 1
10
154.844146
20
153.255256
11
154.234444
21
153.994597
0
LINE
8
Calque 1
10
154.234444
20
153.994597
11
153.494897
21
154.604087
0
LINE
8
Calque 1
10
153.494897
20
154.604087
11
152.645325
21
155.063935
0
LINE
8
Calque 1
10
152.645325
20
155.063935
11
151.705546
21
155.354356
0
LINE
8
Calque 1
10
151.705546
20
155.354356
11
150.695380
21
155.455560
0
LINE
8
Calque 1
10
150.695380
20
155.455560
11
60.696100
21
155.456000
0
LINE
8
Calque 1
10
60.696100
20
155.456000
11
59.362190
21
155.274955
0
LINE
8
Calque 1
10
59.362190
20
155.274955
11
58.169686
21
154.764875
0
LINE
8
Calque 1
10
58.169686
20
154.764875
11
57.162727
21
153.975345
0
LINE
8
Calque 1
10
57.162727
20
153.975345
11
56.385450
21
152.955950
0
LINE
8
Calque 1
10
56.385450
20
152.955950
11
-386.803000
21
152.956000
0
LINE
8
Calque 1
10
-386.803000
20
152.956000
11
-388.318145
21
152.804171
0
LINE
8
Calque 1
10
-388.318145
20
152.804171
11
-389.727667
21
152.368482
0
LINE
8
Calque 1
10
-389.727667
20
152.368482
11
-391.001864
21
151.678625
0
LINE
8
Calque 1
10
-391.001864
20
151.678625
11
-392.111029
21
150.764295
0
LINE
8
Calque 1
10
-392.111029
20
150.764295
11
-393.025458
21
149.655187
0
LINE
8
Calque 1
10
-393.025458
20
149.655187
11
-393.715446
21
148.380993
0
LINE
8
Calque 1
10
-393.715446
20
148.380993
11
-394.151288
21
146.971410
0
LINE
8
Calque 1
10
-394.151288
20
146.971410
11
-394.303280
21
145.456130
0
LINE
8
Calque 1
10
-394.303280
20
145.456130
11
-394.303000
21
145.456000
0
LINE
8
Calque 1
10
-387.095000
20
170.748000
11
-387.285301
21
169.791291
0
LINE
8
Calque 1
10
-387.285301
20
169.791291
11
-387.827233
21
168.980233
0
LINE
8
Calque 1
10
-387.827233
20
168.980233
11
-388.638291
21
168.438301
0
LINE
8
Calque 1
10
-388.638291
20
168.438301
11
-389.595000
21
168.248000
0
LINE
8
Calque 1
10
-389.595000
20
168.248000
11
-390.551709
21
168.438301
0
LINE
8
Calque 1
10
-390.551709
20
168.438301
11
-391.362767
21
168.980233
0
LINE
8
Calque 1
10
-391.362767
20
168.980233
11
-391.904699
21
169.791291
0
LINE
8
Calque 1
10
-391.904699
20
169.791291
11
-392.095000
21
170.748000
0
LINE
8
Calque 1
10
-392.095000
20
170.748000
11
-391.904699
21
171.704709
0
LINE
8
Calque 1
10
-391.904699
20
171.704709
11
-391.362767
21
172.515767
0
LINE
8
Calque 1
10
-391.362767
20
172.515767
11
-390.551709
21
173.057699
0
LINE
8
Calque 1
10
-390.551709
20
173.057699
11
-389.595000
21
173.248000
0
LINE
8
Calque 1
10
-389.595000
20
173.248000
11
-388.638291
21
173.057699
0
LINE
8
Calque 1
10
-388.638291
20
173.057699
11
-387.827233
21
172.515767
0
LINE
8
Calque 1
10
-387.827233
20
172.515767
11
-387.285301
21
171.704709
0
LINE
8
Calque 1
10
-387.285301
20
171.704709
11
-387.095000
21
170.748000
0
LINE
8
Calque 1
10
-387.095000
20
170.748000
11
-387.095000
21
170.748000
0
LINE
8
Calque 1
10
142.904000
20
170.748000
11
142.713699
21
169.791291
0
LINE
8
Calque 1
10
142.713699
20
169.791291
11
142.171767
21
168.980233
0
LINE
8
Calque 1
10
142.171767
20
168.980233
11
141.360709
21
168.438301
0
LINE
8
Calque 1
10
141.360709
20
168.438301
11
140.404000
21
168.248000
0
LINE
8
Calque 1
10
140.404000
20
168.248000
11
139.447291
21
168.438301
0
LINE
8
Calque 1
10
139.447291
20
168.438301
11
138.636233
21
168.980233
0
LINE
8
Calque 1
10
138.636233
20
168.980233
11
138.094301
21
169.791291
0
LINE
8
Calque 1
10
138.094301
20
169.791291
11
137.904000
21
170.748000
0
LINE
8
Calque 1
10
137.904000
20
170.748000
11
138.094301
21
171.704709
0
LINE
8
Calque 1
10
138.094301
20
171.704709
11
138.636233
21
172.515767
0
LINE
8
Calque 1
10
138.636233
20
172.515767
11
139.447291
21
173.057699
0
LINE
8
Calque 1
10
139.447291
20
173.057699
11
140.404000
21
173.248000
0
LINE
8
Calque 1
10
140.404000
20
173.248000
11
141.360709
21
173.057699
0
LINE
8
Calque 1
10
141.360709
20
173.057699
11
142.171767
21
172.515767
0
LINE
8
Calque 1
10
142.171767
20
172.515767
11
142.713699
21
171.704709
0
LINE
8
Calque 1
10
142.713699
20
171.704709
11
142.904000
21
170.748000
0
LINE
8
Calque 1
10
142.904000
20
170.748000
11
142.904000
21
170.748000
0
LINE
8
Calque 1
10
-389.595000
20
180.748000
11
140.405000
21
180.748000
0
LINE
8
Calque 1
10
140.405000
20
180.748000
11
142.425273
21
180.545539
0
LINE
8
Calque 1
10
142.425273
20
180.545539
11
144.304688
21
179.964562
0
LINE
8
Calque 1
10
144.304688
20
179.964562
11
146.003633
21
179.044680
0
LINE
8
Calque 1
10
146.003633
20
179.044680
11
147.482500
21
177.825500
0
LINE
8
Calque 1
10
147.482500
20
177.825500
11
148.701680
21
176.346633
0
LINE
8
Calque 1
10
148.701680
20
176.346633
11
149.621563
21
174.647687
0
LINE
8
Calque 1
10
149.621563
20
174.647687
11
150.202539
21
172.768273
0
LINE
8
Calque 1
10
150.202539
20
172.768273
11
150.405000
21
170.748000
0
LINE
8
Calque 1
10
150.405000
20
170.748000
11
150.202539
21
168.727727
0
LINE
8
Calque 1
10
150.202539
20
168.727727
11
149.621563
21
166.848313
0
LINE
8
Calque 1
10
149.621563
20
166.848313
11
148.701680
21
165.149367
0
LINE
8
Calque 1
10
148.701680
20
165.149367
11
147.482500
21
163.670500
0
LINE
8
Calque 1
10
147.482500
20
163.670500
11
146.003633
21
162.451320
0
LINE
8
Calque 1
10
146.003633
20
162.451320
11
144.304688
21
161.531437
0
LINE
8
Calque 1
10
144.304688
20
161.531437
11
142.425273
21
160.950461
0
LINE
8
Calque 1
10
142.425273
20
160.950461
11
140.405000
21
160.748000
0
LINE
8
Calque 1
10
140.405000
20
160.748000
11
-389.595000
21
160.748000
0
LINE
8
Calque 1
10
-389.595000
20
160.748000
11
-391.615273
21
160.950461
0
LINE
8
Calque 1
10
-391.615273
20
160.950461
11
-393.494687
21
161.531437
0
LINE
8
Calque 1
10
-393.494687
20
161.531437
11
-395.193633
21
162.451320
0
LINE
8
Calque 1
10
-395.193633
20
162.451320
11
-396.672500
21
163.670500
0
LINE
8
Calque 1
10
-396.672500
20
163.670500
11
-397.891680
21
165.149367
0
LINE
8
Calque 1
10
-397.891680
20
165.149367
11
-398.811563
21
166.848313
0
LINE
8
Calque 1
10
-398.811563
20
166.848313
11
-399.392539
21
168.727727
0
LINE
8
Calque 1
10
-399.392539
20
168.727727
11
-399.595000
21
170.748000
0
LINE
8
Calque 1
10
-399.595000
20
170.748000
11
-399.392539
21
172.768273
0
LINE
8
Calque 1
10
-399.392539
20
172.768273
11
-398.811563
21
174.647687
0
LINE
8
Calque 1
10
-398.811563
20
174.647687
11
-397.891680
21
176.346633
0
LINE
8
Calque 1
10
-397.891680
20
176.346633
11
-396.672500
21
177.825500
0
LINE
8
Calque 1
10
-396.672500
20
177.825500
11
-395.193633
21
179.044680
0
LINE
8
Calque 1
10
-395.193633
20
179.044680
11
-393.494687
21
179.964562
0
LINE
8
Calque 1
10
-393.494687
20
179.964562
11
-391.615273
21
180.545539
0
LINE
8
Calque 1
10
-391.615273
20
180.545539
11
-389.595000
21
180.748000
0
LINE
8
Calque 1
10
-389.595000
20
180.748000
11
-389.595000
21
180.748000
0
LINE
8
Calque 1
10
-387.319000
20
246.819000
11
-387.509301
21
245.862291
0
LINE
8
Calque 1
10
-387.509301
20
245.862291
11
-388.051233
21
245.051233
0
LINE
8
Calque 1
10
-388.051233
20
245.051233
11
-388.862291
21
244.509301
0
LINE
8
Calque 1
10
-388.862291
20
244.509301
11
-389.819000
21
244.319000
0
LINE
8
Calque 1
10
-389.819000
20
244.319000
11
-390.775709
21
244.509301
0
LINE
8
Calque 1
10
-390.775709
20
244.509301
11
-391.586767
21
245.051233
0
LINE
8
Calque 1
10
-391.586767
20
245.051233
11
-392.128699
21
245.862291
0
LINE
8
Calque 1
10
-392.128699
20
245.862291
11
-392.319000
21
246.819000
0
LINE
8
Calque 1
10
-392.319000
20
246.819000
11
-392.128699
21
247.775709
0
LINE
8
Calque 1
10
-392.128699
20
247.775709
11
-391.586767
21
248.586767
0
LINE
8
Calque 1
10
-391.586767
20
248.586767
11
-390.775709
21
249.128699
0
LINE
8
Calque 1
10
-390.775709
20
249.128699
11
-389.819000
21
249.319000
0
LINE
8
Calque 1
10
-389.819000
20
249.319000
11
-388.862291
21
249.128699
0
LINE
8
Calque 1
10
-388.862291
20
249.128699
11
-388.051233
21
248.586767
0
LINE
8
Calque 1
10
-388.051233
20
248.586767
11
-387.509301
21
247.775709
0
LINE
8
Calque 1
10
-387.509301
20
247.775709
11
-387.319000
21
246.819000
0
LINE
8
Calque 1
10
-387.319000
20
246.819000
11
-387.319000
21
246.819000
0
LINE
8
Calque 1
10
-389.819000
20
256.819000
11
240.181000
21
256.819000
0
LINE
8
Calque 1
10
240.181000
20
256.819000
11
242.201273
21
256.616539
0
LINE
8
Calque 1
10
242.201273
20
256.616539
11
244.080688
21
256.035563
0
LINE
8
Calque 1
10
244.080688
20
256.035563
11
245.779633
21
255.115680
0
LINE
8
Calque 1
10
245.779633
20
255.115680
11
247.258500
21
253.896500
0
LINE
8
Calque 1
10
247.258500
20
253.896500
11
248.477680
21
252.417633
0
LINE
8
Calque 1
10
248.477680
20
252.417633
11
249.397563
21
250.718687
0
LINE
8
Calque 1
10
249.397563
20
250.718687
11
249.978539
21
248.839273
0
LINE
8
Calque 1
10
249.978539
20
248.839273
11
250.181000
21
246.819000
0
LINE
8
Calque 1
10
250.181000
20
246.819000
11
249.978539
21
244.798727
0
LINE
8
Calque 1
10
249.978539
20
244.798727
11
249.397563
21
242.919313
0
LINE
8
Calque 1
10
249.397563
20
242.919313
11
248.477680
21
241.220367
0
LINE
8
Calque 1
10
248.477680
20
241.220367
11
247.258500
21
239.741500
0
LINE
8
Calque 1
10
247.258500
20
239.741500
11
245.779633
21
238.522320
0
LINE
8
Calque 1
10
245.779633
20
238.522320
11
244.080688
21
237.602438
0
LINE
8
Calque 1
10
244.080688
20
237.602438
11
242.201273
21
237.021461
0
LINE
8
Calque 1
10
242.201273
20
237.021461
11
240.181000
21
236.819000
0
LINE
8
Calque 1
10
240.181000
20
236.819000
11
-389.819000
21
236.819000
0
LINE
8
Calque 1
10
-389.819000
20
236.819000
11
-391.839273
21
237.021461
0
LINE
8
Calque 1
10
-391.839273
20
237.021461
11
-393.718688
21
237.602437
0
LINE
8
Calque 1
10
-393.718688
20
237.602437
11
-395.417633
21
238.522320
0
LINE
8
Calque 1
10
-395.417633
20
238.522320
11
-396.896500
21
239.741500
0
LINE
8
Calque 1
10
-396.896500
20
239.741500
11
-398.115680
21
241.220367
0
LINE
8
Calque 1
10
-398.115680
20
241.220367
11
-399.035563
21
242.919312
0
LINE
8
Calque 1
10
-399.035563
20
242.919312
11
-399.616539
21
244.798727
0
LINE
8
Calque 1
10
-399.616539
20
244.798727
11
-399.819000
21
246.819000
0
LINE
8
Calque 1
10
-399.819000
20
246.819000
11
-399.616539
21
248.839273
0
LINE
8
Calque 1
10
-399.616539
20
248.839273
11
-399.035563
21
250.718687
0
LINE
8
Calque 1
10
-399.035563
20
250.718687
11
-398.115680
21
252.417633
0
LINE
8
Calque 1
10
-398.115680
20
252.417633
11
-396.896500
21
253.896500
0
LINE
8
Calque 1
10
-396.896500
20
253.896500
11
-395.417633
21
255.115680
0
LINE
8
Calque 1
10
-395.417633
20
255.115680
11
-393.718688
21
256.035562
0
LINE
8
Calque 1
10
-393.718688
20
256.035562
11
-391.839273
21
256.616539
0
LINE
8
Calque 1
10
-391.839273
20
256.616539
11
-389.819000
21
256.819000
0
LINE
8
Calque 1
10
-389.819000
20
256.819000
11
-389.819000
21
256.819000
0
LINE
8
Calque 1
10
-387.319000
20
272.111000
11
-387.509301
21
271.154291
0
LINE
8
Calque 1
10
-387.509301
20
271.154291
11
-388.051233
21
270.343233
0
LINE
8
Calque 1
10
-388.051233
20
270.343233
11
-388.862291
21
269.801301
0
LINE
8
Calque 1
10
-388.862291
20
269.801301
11
-389.819000
21
269.611000
0
LINE
8
Calque 1
10
-389.819000
20
269.611000
11
-390.775709
21
269.801301
0
LINE
8
Calque 1
10
-390.775709
20
269.801301
11
-391.586767
21
270.343233
0
LINE
8
Calque 1
10
-391.586767
20
270.343233
11
-392.128699
21
271.154291
0
LINE
8
Calque 1
10
-392.128699
20
271.154291
11
-392.319000
21
272.111000
0
LINE
8
Calque 1
10
-392.319000
20
272.111000
11
-392.128699
21
273.067709
0
LINE
8
Calque 1
10
-392.128699
20
273.067709
11
-391.586767
21
273.878767
0
LINE
8
Calque 1
10
-391.586767
20
273.878767
11
-390.775709
21
274.420699
0
LINE
8
Calque 1
10
-390.775709
20
274.420699
11
-389.819000
21
274.611000
0
LINE
8
Calque 1
10
-389.819000
20
274.611000
11
-388.862291
21
274.420699
0
LINE
8
Calque 1
10
-388.862291
20
274.420699
11
-388.051233
21
273.878767
0
LINE
8
Calque 1
10
-388.051233
20
273.878767
11
-387.509301
21
273.067709
0
LINE
8
Calque 1
10
-387.509301
20
273.067709
11
-387.319000
21
272.111000
0
LINE
8
Calque 1
10
-387.319000
20
272.111000
11
-387.319000
21
272.111000
0
LINE
8
Calque 1
10
-389.819000
20
282.111000
11
240.181000
21
282.111000
0
LINE
8
Calque 1
10
240.181000
20
282.111000
11
242.201273
21
281.908539
0
LINE
8
Calque 1
10
242.201273
20
281.908539
11
244.080688
21
281.327562
0
LINE
8
Calque 1
10
244.080688
20
281.327562
11
245.779633
21
280.407680
0
LINE
8
Calque 1
10
245.779633
20
280.407680
11
247.258500
21
279.188500
0
LINE
8
Calque 1
10
247.258500
20
279.188500
11
248.477680
21
277.709633
0
LINE
8
Calque 1
10
248.477680
20
277.709633
11
249.397563
21
276.010687
0
LINE
8
Calque 1
10
249.397563
20
276.010687
11
249.978539
21
274.131273
0
LINE
8
Calque 1
10
249.978539
20
274.131273
11
250.181000
21
272.111000
0
LINE
8
Calque 1
10
250.181000
20
272.111000
11
249.978539
21
270.090727
0
LINE
8
Calque 1
10
249.978539
20
270.090727
11
249.397563
21
268.211313
0
LINE
8
Calque 1
10
249.397563
20
268.211313
11
248.477680
21
266.512367
0
LINE
8
Calque 1
10
248.477680
20
266.512367
11
247.258500
21
265.033500
0
LINE
8
Calque 1
10
247.258500
20
265.033500
11
245.779633
21
263.814320
0
LINE
8
Calque 1
10
245.779633
20
263.814320
11
244.080688
21
262.894437
0
LINE
8
Calque 1
10
244.080688
20
262.894437
11
242.201273
21
262.313461
0
LINE
8
Calque 1
10
242.201273
20
262.313461
11
240.181000
21
262.111000
0
LINE
8
Calque 1
10
240.181000
20
262.111000
11
-389.819000
21
262.111000
0
LINE
8
Calque 1
10
-389.819000
20
262.111000
11
-391.839273
21
262.313461
0
LINE
8
Calque 1
10
-391.839273
20
262.313461
11
-393.718688
21
262.894437
0
LINE
8
Calque 1
10
-393.718688
20
262.894437
11
-395.417633
21
263.814320
0
LINE
8
Calque 1
10
-395.417633
20
263.814320
11
-396.896500
21
265.033500
0
LINE
8
Calque 1
10
-396.896500
20
265.033500
11
-398.115680
21
266.512367
0
LINE
8
Calque 1
10
-398.115680
20
266.512367
11
-399.035563
21
268.211313
0
LINE
8
Calque 1
10
-399.035563
20
268.211313
11
-399.616539
21
270.090727
0
LINE
8
Calque 1
10
-399.616539
20
270.090727
11
-399.819000
21
272.111000
0
LINE
8
Calque 1
10
-399.819000
20
272.111000
11
-399.616539
21
274.131273
0
LINE
8
Calque 1
10
-399.616539
20
274.131273
11
-399.035563
21
276.010687
0
LINE
8
Calque 1
10
-399.035563
20
276.010687
11
-398.115680
21
277.709633
0
LINE
8
Calque 1
10
-398.115680
20
277.709633
11
-396.896500
21
279.188500
0
LINE
8
Calque 1
10
-396.896500
20
279.188500
11
-395.417633
21
280.407680
0
LINE
8
Calque 1
10
-395.417633
20
280.407680
11
-393.718688
21
281.327562
0
LINE
8
Calque 1
10
-393.718688
20
281.327562
11
-391.839273
21
281.908539
0
LINE
8
Calque 1
10
-391.839273
20
281.908539
11
-389.819000
21
282.111000
0
LINE
8
Calque 1
10
-389.819000
20
282.111000
11
-389.819000
21
282.111000
0
LINE
8
Calque 1
10
-389.819000
20
408.569000
11
490.181000
21
408.569000
0
LINE
8
Calque 1
10
490.181000
20
408.569000
11
492.201273
21
408.366539
0
LINE
8
Calque 1
10
492.201273
20
408.366539
11
494.080688
21
407.785563
0
LINE
8
Calque 1
10
494.080688
20
407.785563
11
495.779633
21
406.865680
0
LINE
8
Calque 1
10
495.779633
20
406.865680
11
497.258500
21
405.646500
0
LINE
8
Calque 1
10
497.258500
20
405.646500
11
498.477680
21
404.167633
0
LINE
8
Calque 1
10
498.477680
20
404.167633
11
499.397562
21
402.468688
0
LINE
8
Calque 1
10
499.397562
20
402.468688
11
499.978539
21
400.589273
0
LINE
8
Calque 1
10
499.978539
20
400.589273
11
500.181000
21
398.569000
0
LINE
8
Calque 1
10
500.181000
20
398.569000
11
499.978539
21
396.548727
0
LINE
8
Calque 1
10
499.978539
20
396.548727
11
499.397562
21
394.669312
0
LINE
8
Calque 1
10
499.397562
20
394.669312
11
498.477680
21
392.970367
0
LINE
8
Calque 1
10
498.477680
20
392.970367
11
497.258500
21
391.491500
0
LINE
8
Calque 1
10
497.258500
20
391.491500
11
495.779633
21
390.272320
0
LINE
8
Calque 1
10
495.779633
20
390.272320
11
494.080688
21
389.352438
0
LINE
8
Calque 1
10
494.080688
20
389.352438
11
492.201273
21
388.771461
0
LINE
8
Calque 1
10
492.201273
20
388.771461
11
490.181000
21
388.569000
0
LINE
8
Calque 1
10
490.181000
20
388.569000
11
-389.819000
21
388.569000
0
LINE
8
Calque 1
10
-389.819000
20
388.569000
11
-391.839273
21
388.771461
0
LINE
8
Calque 1
10
-391.839273
20
388.771461
11
-393.718688
21
389.352438
0
LINE
8
Calque 1
10
-393.718688
20
389.352438
11
-395.417633
21
390.272320
0
LINE
8
Calque 1
10
-395.417633
20
390.272320
11
-396.896500
21
391.491500
0
LINE
8
Calque 1
10
-396.896500
20
391.491500
11
-398.115680
21
392.970367
0
LINE
8
Calque 1
10
-398.115680
20
392.970367
11
-399.035563
21
394.669312
0
LINE
8
Calque 1
10
-399.035563
20
394.669312
11
-399.616539
21
396.548727
0
LINE
8
Calque 1
10
-399.616539
20
396.548727
11
-399.819000
21
398.569000
0
LINE
8
Calque 1
10
-399.819000
20
398.569000
11
-399.616539
21
400.589273
0
LINE
8
Calque 1
10
-399.616539
20
400.589273
11
-399.035563
21
402.468688
0
LINE
8
Calque 1
10
-399.035563
20
402.468688
11
-398.115680
21
404.167633
0
LINE
8
Calque 1
10
-398.115680
20
404.167633
11
-396.896500
21
405.646500
0
LINE
8
Calque 1
10
-396.896500
20
405.646500
11
-395.417633
21
406.865680
0
LINE
8
Calque 1
10
-395.417633
20
406.865680
11
-393.718688
21
407.785563
0
LINE
8
Calque 1
10
-393.718688
20
407.785563
11
-391.839273
21
408.366539
0
LINE
8
Calque 1
10
-391.839273
20
408.366539
11
-389.819000
21
408.569000
0
LINE
8
Calque 1
10
-389.819000
20
408.569000
11
-389.819000
21
408.569000
0
LINE
8
Calque 1
10
-394.321000
20
423.861000
11
-394.163854
21
424.639257
0
LINE
8
Calque 1
10
-394.163854
20
424.639257
11
-393.735294
21
425.274934
0
LINE
8
Calque 1
10
-393.735294
20
425.274934
11
-393.099634
21
425.703639
0
LINE
8
Calque 1
10
-393.099634
20
425.703639
11
-392.321190
21
425.860980
0
LINE
8
Calque 1
10
-392.321190
20
425.860980
11
-391.542419
21
425.703823
0
LINE
8
Calque 1
10
-391.542419
20
425.703823
11
-390.906477
21
425.275230
0
LINE
8
Calque 1
10
-390.906477
20
425.275230
11
-390.477720
21
424.639517
0
LINE
8
Calque 1
10
-390.477720
20
424.639517
11
-390.320500
21
423.861000
0
LINE
8
Calque 1
10
-390.320500
20
423.861000
11
-390.477720
21
423.082257
0
LINE
8
Calque 1
10
-390.477720
20
423.082257
11
-390.906477
21
422.446309
0
LINE
8
Calque 1
10
-390.906477
20
422.446309
11
-391.542419
21
422.017576
0
LINE
8
Calque 1
10
-391.542419
20
422.017576
11
-392.321190
21
421.860480
0
LINE
8
Calque 1
10
-392.321190
20
421.860480
11
-393.099634
21
422.017686
0
LINE
8
Calque 1
10
-393.099634
20
422.017686
11
-393.735294
21
422.446406
0
LINE
8
Calque 1
10
-393.735294
20
422.446406
11
-394.163854
21
423.082293
0
LINE
8
Calque 1
10
-394.163854
20
423.082293
11
-394.321000
21
423.861000
0
LINE
8
Calque 1
10
-394.321000
20
423.861000
11
-394.321000
21
423.861000
0
LINE
8
Calque 1
10
-380.320600
20
423.861000
11
-380.163425
21
424.639257
0
LINE
8
Calque 1
10
-380.163425
20
424.639257
11
-379.734815
21
425.274934
0
LINE
8
Calque 1
10
-379.734815
20
425.274934
11
-379.099145
21
425.703639
0
LINE
8
Calque 1
10
-379.099145
20
425.703639
11
-378.320790
21
425.860980
0
LINE
8
Calque 1
10
-378.320790
20
425.860980
11
-377.542209
21
425.703823
0
LINE
8
Calque 1
10
-377.542209
20
425.703823
11
-376.906246
21
425.275230
0
LINE
8
Calque 1
10
-376.906246
20
425.275230
11
-376.477383
21
424.639517
0
LINE
8
Calque 1
10
-376.477383
20
424.639517
11
-376.320100
21
423.861000
0
LINE
8
Calque 1
10
-376.320100
20
423.861000
11
-376.477321
21
423.082257
0
LINE
8
Calque 1
10
-376.477321
20
423.082257
11
-376.906081
21
422.446309
0
LINE
8
Calque 1
10
-376.906081
20
422.446309
11
-377.542023
21
422.017576
0
LINE
8
Calque 1
10
-377.542023
20
422.017576
11
-378.320790
21
421.860480
0
LINE
8
Calque 1
10
-378.320790
20
421.860480
11
-379.099238
21
422.017686
0
LINE
8
Calque 1
10
-379.099238
20
422.017686
11
-379.734897
21
422.446406
0
LINE
8
Calque 1
10
-379.734897
20
422.446406
11
-380.163456
21
423.082293
0
LINE
8
Calque 1
10
-380.163456
20
423.082293
11
-380.320600
21
423.861000
0
LINE
8
Calque 1
10
-380.320600
20
423.861000
11
-380.320600
21
423.861000
0
LINE
8
Calque 1
10
-389.819000
20
433.861000
11
490.181000
21
433.861000
0
LINE
8
Calque 1
10
490.181000
20
433.861000
11
492.201273
21
433.658539
0
LINE
8
Calque 1
10
492.201273
20
433.658539
11
494.080688
21
433.077562
0
LINE
8
Calque 1
10
494.080688
20
433.077562
11
495.779633
21
432.157680
0
LINE
8
Calque 1
10
495.779633
20
432.157680
11
497.258500
21
430.938500
0
LINE
8
Calque 1
10
497.258500
20
430.938500
11
498.477680
21
429.459633
0
LINE
8
Calque 1
10
498.477680
20
429.459633
11
499.397562
21
427.760687
0
LINE
8
Calque 1
10
499.397562
20
427.760687
11
499.978539
21
425.881273
0
LINE
8
Calque 1
10
499.978539
20
425.881273
11
500.181000
21
423.861000
0
LINE
8
Calque 1
10
500.181000
20
423.861000
11
499.978539
21
421.840727
0
LINE
8
Calque 1
10
499.978539
20
421.840727
11
499.397562
21
419.961313
0
LINE
8
Calque 1
10
499.397562
20
419.961313
11
498.477680
21
418.262367
0
LINE
8
Calque 1
10
498.477680
20
418.262367
11
497.258500
21
416.783500
0
LINE
8
Calque 1
10
497.258500
20
416.783500
11
495.779633
21
415.564320
0
LINE
8
Calque 1
10
495.779633
20
415.564320
11
494.080688
21
414.644437
0
LINE
8
Calque 1
10
494.080688
20
414.644437
11
492.201273
21
414.063461
0
LINE
8
Calque 1
10
492.201273
20
414.063461
11
490.181000
21
413.861000
0
LINE
8
Calque 1
10
490.181000
20
413.861000
11
-389.819000
21
413.861000
0
LINE
8
Calque 1
10
-389.819000
20
413.861000
11
-391.839273
21
414.063461
0
LINE
8
Calque 1
10
-391.839273
20
414.063461
11
-393.718688
21
414.644437
0
LINE
8
Calque 1
10
-393.718688
20
414.644437
11
-395.417633
21
415.564320
0
LINE
8
Calque 1
10
-395.417633
20
415.564320
11
-396.896500
21
416.783500
0
LINE
8
Calque 1
10
-396.896500
20
416.783500
11
-398.115680
21
418.262367
0
LINE
8
Calque 1
10
-398.115680
20
418.262367
11
-399.035563
21
419.961313
0
LINE
8
Calque 1
10
-399.035563
20
419.961313
11
-399.616539
21
421.840727
0
LINE
8
Calque 1
10
-399.616539
20
421.840727
11
-399.819000
21
423.861000
0
LINE
8
Calque 1
10
-399.819000
20
423.861000
11
-399.616539
21
425.881273
0
LINE
8
Calque 1
10
-399.616539
20
425.881273
11
-399.035563
21
427.760687
0
LINE
8
Calque 1
10
-399.035563
20
427.760687
11
-398.115680
21
429.459633
0
LINE
8
Calque 1
10
-398.115680
20
429.459633
11
-396.896500
21
430.938500
0
LINE
8
Calque 1
10
-396.896500
20
430.938500
11
-395.417633
21
432.157680
0
LINE
8
Calque 1
10
-395.417633
20
432.157680
11
-393.718688
21
433.077562
0
LINE
8
Calque 1
10
-393.718688
20
433.077562
11
-391.839273
21
433.658539
0
LINE
8
Calque 1
10
-391.839273
20
433.658539
11
-389.819000
21
433.861000
0
LINE
8
Calque 1
10
-389.819000
20
433.861000
11
-389.819000
21
433.861000
0
LINE
8
Calque 1
10
269.472000
20
277.402000
11
267.960507
21
277.249630
0
LINE
8
Calque 1
10
267.960507
20
277.249630
11
266.552681
21
276.812622
0
LINE
8
Calque 1
10
266.552681
20
276.812622
11
265.278681
21
276.121134
0
LINE
8
Calque 1
10
265.278681
20
276.121134
11
264.168670
21
275.205321
0
LINE
8
Calque 1
10
264.168670
20
275.205321
11
263.252807
21
274.095339
0
LINE
8
Calque 1
10
263.252807
20
274.095339
11
262.561254
21
272.821345
0
LINE
8
Calque 1
10
262.561254
20
272.821345
11
262.124172
21
271.413493
0
LINE
8
Calque 1
10
262.124172
20
271.413493
11
261.971720
21
269.901940
0
LINE
8
Calque 1
10
261.971720
20
269.901940
11
262.124100
21
268.390306
0
LINE
8
Calque 1
10
262.124100
20
268.390306
11
262.561132
21
266.982377
0
LINE
8
Calque 1
10
262.561132
20
266.982377
11
263.252655
21
265.708316
0
LINE
8
Calque 1
10
263.252655
20
265.708316
11
264.168509
21
264.598284
0
LINE
8
Calque 1
10
264.168509
20
264.598284
11
265.278531
21
263.682441
0
LINE
8
Calque 1
10
265.278531
20
263.682441
11
266.552561
21
262.990948
0
LINE
8
Calque 1
10
266.552561
20
262.990948
11
267.960438
21
262.553968
0
LINE
8
Calque 1
10
267.960438
20
262.553968
11
269.472000
21
262.401660
0
LINE
8
Calque 1
10
269.472000
20
262.401660
11
270.983555
21
262.554039
0
LINE
8
Calque 1
10
270.983555
20
262.554039
11
272.391405
21
262.991071
0
LINE
8
Calque 1
10
272.391405
20
262.991071
11
273.665392
21
263.682593
0
LINE
8
Calque 1
10
273.665392
20
263.682593
11
274.775358
21
264.598445
0
LINE
8
Calque 1
10
274.775358
20
264.598445
11
275.691143
21
265.708467
0
LINE
8
Calque 1
10
275.691143
20
265.708467
11
276.382591
21
266.982497
0
LINE
8
Calque 1
10
276.382591
20
266.982497
11
276.819543
21
268.390375
0
LINE
8
Calque 1
10
276.819543
20
268.390375
11
276.971840
21
269.901940
0
LINE
8
Calque 1
10
276.971840
20
269.901940
11
276.819470
21
271.413423
0
LINE
8
Calque 1
10
276.819470
20
271.413423
11
276.382467
21
272.821225
0
LINE
8
Calque 1
10
276.382467
20
272.821225
11
275.690988
21
274.095189
0
LINE
8
Calque 1
10
275.690988
20
274.095189
11
274.775193
21
275.205160
0
LINE
8
Calque 1
10
274.775193
20
275.205160
11
273.665237
21
276.120982
0
LINE
8
Calque 1
10
273.665237
20
276.120982
11
272.391282
21
276.812500
0
LINE
8
Calque 1
10
272.391282
20
276.812500
11
270.983483
21
277.249558
0
LINE
8
Calque 1
10
270.983483
20
277.249558
11
269.472000
21
277.402000
0
LINE
8
Calque 1
10
269.472000
20
277.402000
11
269.472000
21
277.402000
0
LINE
8
Calque 1
10
269.472000
20
271.651610
11
270.153132
21
271.514106
0
LINE
8
Calque 1
10
270.153132
20
271.514106
11
270.709300
21
271.139128
0
LINE
8
Calque 1
10
270.709300
20
271.139128
11
271.084291
21
270.582973
0
LINE
8
Calque 1
10
271.084291
20
270.582973
11
271.221890
21
269.901940
0
LINE
8
Calque 1
10
271.221890
20
269.901940
11
271.084415
21
269.220742
0
LINE
8
Calque 1
10
271.084415
20
269.220742
11
270.709465
21
268.664422
0
LINE
8
Calque 1
10
270.709465
20
268.664422
11
270.153255
21
268.289279
0
LINE
8
Calque 1
10
270.153255
20
268.289279
11
269.472000
21
268.151610
0
LINE
8
Calque 1
10
269.472000
20
268.151610
11
268.790684
21
268.289155
0
LINE
8
Calque 1
10
268.790684
20
268.289155
11
268.234346
21
268.664256
0
LINE
8
Calque 1
10
268.234346
20
268.664256
11
267.859308
21
269.220618
0
LINE
8
Calque 1
10
267.859308
20
269.220618
11
267.721890
21
269.901940
0
LINE
8
Calque 1
10
267.721890
20
269.901940
11
267.859432
21
270.583097
0
LINE
8
Calque 1
10
267.859432
20
270.583097
11
268.234511
21
271.139293
0
LINE
8
Calque 1
10
268.234511
20
271.139293
11
268.790807
21
271.514230
0
LINE
8
Calque 1
10
268.790807
20
271.514230
11
269.472000
21
271.651610
0
LINE
8
Calque 1
10
269.472000
20
271.651610
11
269.472000
21
271.651610
0
LINE
8
Calque 1
10
286.472000
20
277.402000
11
284.960507
21
277.249630
0
LINE
8
Calque 1
10
284.960507
20
277.249630
11
283.552681
21
276.812622
0
LINE
8
Calque 1
10
283.552681
20
276.812622
11
282.278681
21
276.121134
0
LINE
8
Calque 1
10
282.278681
20
276.121134
11
281.168670
21
275.205321
0
LINE
8
Calque 1
10
281.168670
20
275.205321
11
280.252807
21
274.095339
0
LINE
8
Calque 1
10
280.252807
20
274.095339
11
279.561254
21
272.821345
0
LINE
8
Calque 1
10
279.561254
20
272.821345
11
279.124172
21
271.413493
0
LINE
8
Calque 1
10
279.124172
20
271.413493
11
278.971720
21
269.901940
0
LINE
8
Calque 1
10
278.971720
20
269.901940
11
279.124099
21
268.390306
0
LINE
8
Calque 1
10
279.124099
20
268.390306
11
279.561131
21
266.982377
0
LINE
8
Calque 1
10
279.561131
20
266.982377
11
280.252653
21
265.708316
0
LINE
8
Calque 1
10
280.252653
20
265.708316
11
281.168505
21
264.598284
0
LINE
8
Calque 1
10
281.168505
20
264.598284
11
282.278527
21
263.682441
0
LINE
8
Calque 1
10
282.278527
20
263.682441
11
283.552557
21
262.990948
0
LINE
8
Calque 1
10
283.552557
20
262.990948
11
284.960435
21
262.553968
0
LINE
8
Calque 1
10
284.960435
20
262.553968
11
286.472000
21
262.401660
0
LINE
8
Calque 1
10
286.472000
20
262.401660
11
287.983552
21
262.554039
0
LINE
8
Calque 1
10
287.983552
20
262.554039
11
289.391401
21
262.991071
0
LINE
8
Calque 1
10
289.391401
20
262.991071
11
290.665388
21
263.682593
0
LINE
8
Calque 1
10
290.665388
20
263.682593
11
291.775354
21
264.598445
0
LINE
8
Calque 1
10
291.775354
20
264.598445
11
292.691141
21
265.708467
0
LINE
8
Calque 1
10
292.691141
20
265.708467
11
293.382590
21
266.982497
0
LINE
8
Calque 1
10
293.382590
20
266.982497
11
293.819542
21
268.390375
0
LINE
8
Calque 1
10
293.819542
20
268.390375
11
293.971840
21
269.901940
0
LINE
8
Calque 1
10
293.971840
20
269.901940
11
293.819470
21
271.413423
0
LINE
8
Calque 1
10
293.819470
20
271.413423
11
293.382466
21
272.821225
0
LINE
8
Calque 1
10
293.382466
20
272.821225
11
292.690986
21
274.095189
0
LINE
8
Calque 1
10
292.690986
20
274.095189
11
291.775189
21
275.205160
0
LINE
8
Calque 1
10
291.775189
20
275.205160
11
290.665233
21
276.120982
0
LINE
8
Calque 1
10
290.665233
20
276.120982
11
289.391277
21
276.812500
0
LINE
8
Calque 1
10
289.391277
20
276.812500
11
287.983480
21
277.249558
0
LINE
8
Calque 1
10
287.983480
20
277.249558
11
286.472000
21
277.402000
0
LINE
8
Calque 1
10
286.472000
20
277.402000
11
286.472000
21
277.402000
0
LINE
8
Calque 1
10
286.472000
20
271.651610
11
287.153127
21
271.514106
0
LINE
8
Calque 1
10
287.153127
20
271.514106
11
287.709296
21
271.139128
0
LINE
8
Calque 1
10
287.709296
20
271.139128
11
288.084290
21
270.582973
0
LINE
8
Calque 1
10
288.084290
20
270.582973
11
288.221890
21
269.901940
0
LINE
8
Calque 1
10
288.221890
20
269.901940
11
288.084413
21
269.220742
0
LINE
8
Calque 1
10
288.084413
20
269.220742
11
287.709461
21
268.664422
0
LINE
8
Calque 1
10
287.709461
20
268.664422
11
287.153251
21
268.289279
0
LINE
8
Calque 1
10
287.153251
20
268.289279
11
286.472000
21
268.151610
0
LINE
8
Calque 1
10
286.472000
20
268.151610
11
285.790679
21
268.289155
0
LINE
8
Calque 1
10
285.790679
20
268.289155
11
285.234342
21
268.664256
0
LINE
8
Calque 1
10
285.234342
20
268.664256
11
284.859307
21
269.220618
0
LINE
8
Calque 1
10
284.859307
20
269.220618
11
284.721890
21
269.901940
0
LINE
8
Calque 1
10
284.721890
20
269.901940
11
284.859431
21
270.583097
0
LINE
8
Calque 1
10
284.859431
20
270.583097
11
285.234508
21
271.139293
0
LINE
8
Calque 1
10
285.234508
20
271.139293
11
285.790803
21
271.514230
0
LINE
8
Calque 1
10
285.790803
20
271.514230
11
286.472000
21
271.651610
0
LINE
8
Calque 1
10
286.472000
20
271.651610
11
286.472000
21
271.651610
0
LINE
8
Calque 1
10
303.472000
20
277.402000
11
301.960510
21
277.249630
0
LINE
8
Calque 1
10
301.960510
20
277.249630
11
300.552686
21
276.812622
0
LINE
8
Calque 1
10
300.552686
20
276.812622
11
299.278689
21
276.121134
0
LINE
8
Calque 1
10
299.278689
20
276.121134
11
298.168679
21
275.205321
0
LINE
8
Calque 1
10
298.168679
20
275.205321
11
297.252817
21
274.095339
0
LINE
8
Calque 1
10
297.252817
20
274.095339
11
296.561264
21
272.821345
0
LINE
8
Calque 1
10
296.561264
20
272.821345
11
296.124182
21
271.413493
0
LINE
8
Calque 1
10
296.124182
20
271.413493
11
295.971730
21
269.901940
0
LINE
8
Calque 1
10
295.971730
20
269.901940
11
296.124109
21
268.390306
0
LINE
8
Calque 1
10
296.124109
20
268.390306
11
296.561140
21
266.982377
0
LINE
8
Calque 1
10
296.561140
20
266.982377
11
297.252662
21
265.708316
0
LINE
8
Calque 1
10
297.252662
20
265.708316
11
298.168514
21
264.598284
0
LINE
8
Calque 1
10
298.168514
20
264.598284
11
299.278534
21
263.682441
0
LINE
8
Calque 1
10
299.278534
20
263.682441
11
300.552563
21
262.990948
0
LINE
8
Calque 1
10
300.552563
20
262.990948
11
301.960438
21
262.553968
0
LINE
8
Calque 1
10
301.960438
20
262.553968
11
303.472000
21
262.401660
0
LINE
8
Calque 1
10
303.472000
20
262.401660
11
304.983555
21
262.554039
0
LINE
8
Calque 1
10
304.983555
20
262.554039
11
306.391405
21
262.991071
0
LINE
8
Calque 1
10
306.391405
20
262.991071
11
307.665392
21
263.682593
0
LINE
8
Calque 1
10
307.665392
20
263.682593
11
308.775358
21
264.598445
0
LINE
8
Calque 1
10
308.775358
20
264.598445
11
309.691143
21
265.708467
0
LINE
8
Calque 1
10
309.691143
20
265.708467
11
310.382591
21
266.982497
0
LINE
8
Calque 1
10
310.382591
20
266.982497
11
310.819543
21
268.390375
0
LINE
8
Calque 1
10
310.819543
20
268.390375
11
310.971840
21
269.901940
0
LINE
8
Calque 1
10
310.971840
20
269.901940
11
310.819470
21
271.413423
0
LINE
8
Calque 1
10
310.819470
20
271.413423
11
310.382467
21
272.821225
0
LINE
8
Calque 1
10
310.382467
20
272.821225
11
309.690988
21
274.095189
0
LINE
8
Calque 1
10
309.690988
20
274.095189
11
308.775193
21
275.205160
0
LINE
8
Calque 1
10
308.775193
20
275.205160
11
307.665237
21
276.120982
0
LINE
8
Calque 1
10
307.665237
20
276.120982
11
306.391282
21
276.812500
0
LINE
8
Calque 1
10
306.391282
20
276.812500
11
304.983483
21
277.249558
0
LINE
8
Calque 1
10
304.983483
20
277.249558
11
303.472000
21
277.402000
0
LINE
8
Calque 1
10
303.472000
20
277.402000
11
303.472000
21
277.402000
0
LINE
8
Calque 1
10
303.472000
20
271.651610
11
304.153132
21
271.514106
0
LINE
8
Calque 1
10
304.153132
20
271.514106
11
304.709300
21
271.139128
0
LINE
8
Calque 1
10
304.709300
20
271.139128
11
305.084291
21
270.582973
0
LINE
8
Calque 1
10
305.084291
20
270.582973
11
305.221890
21
269.901940
0
LINE
8
Calque 1
10
305.221890
20
269.901940
11
305.084415
21
269.220742
0
LINE
8
Calque 1
10
305.084415
20
269.220742
11
304.709465
21
268.664422
0
LINE
8
Calque 1
10
304.709465
20
268.664422
11
304.153255
21
268.289279
0
LINE
8
Calque 1
10
304.153255
20
268.289279
11
303.472000
21
268.151610
0
LINE
8
Calque 1
10
303.472000
20
268.151610
11
302.790685
21
268.289155
0
LINE
8
Calque 1
10
302.790685
20
268.289155
11
302.234351
21
268.664256
0
LINE
8
Calque 1
10
302.234351
20
268.664256
11
301.859317
21
269.220618
0
LINE
8
Calque 1
10
301.859317
20
269.220618
11
301.721900
21
269.901940
0
LINE
8
Calque 1
10
301.721900
20
269.901940
11
301.859440
21
270.583097
0
LINE
8
Calque 1
10
301.859440
20
270.583097
11
302.234516
21
271.139293
0
LINE
8
Calque 1
10
302.234516
20
271.139293
11
302.790809
21
271.514230
0
LINE
8
Calque 1
10
302.790809
20
271.514230
11
303.472000
21
271.651610
0
LINE
8
Calque 1
10
303.472000
20
271.651610
11
303.472000
21
271.651610
0
LINE
8
Calque 1
10
320.472000
20
277.402000
11
318.960507
21
277.249630
0
LINE
8
Calque 1
10
318.960507
20
277.249630
11
317.552681
21
276.812622
0
LINE
8
Calque 1
10
317.552681
20
276.812622
11
316.278681
21
276.121134
0
LINE
8
Calque 1
10
316.278681
20
276.121134
11
315.168670
21
275.205321
0
LINE
8
Calque 1
10
315.168670
20
275.205321
11
314.252807
21
274.095339
0
LINE
8
Calque 1
10
314.252807
20
274.095339
11
313.561254
21
272.821345
0
LINE
8
Calque 1
10
313.561254
20
272.821345
11
313.124172
21
271.413493
0
LINE
8
Calque 1
10
313.124172
20
271.413493
11
312.971720
21
269.901940
0
LINE
8
Calque 1
10
312.971720
20
269.901940
11
313.124099
21
268.390306
0
LINE
8
Calque 1
10
313.124099
20
268.390306
11
313.561131
21
266.982377
0
LINE
8
Calque 1
10
313.561131
20
266.982377
11
314.252653
21
265.708316
0
LINE
8
Calque 1
10
314.252653
20
265.708316
11
315.168505
21
264.598284
0
LINE
8
Calque 1
10
315.168505
20
264.598284
11
316.278527
21
263.682441
0
LINE
8
Calque 1
10
316.278527
20
263.682441
11
317.552557
21
262.990948
0
LINE
8
Calque 1
10
317.552557
20
262.990948
11
318.960435
21
262.553968
0
LINE
8
Calque 1
10
318.960435
20
262.553968
11
320.472000
21
262.401660
0
LINE
8
Calque 1
10
320.472000
20
262.401660
11
321.983555
21
262.554039
0
LINE
8
Calque 1
10
321.983555
20
262.554039
11
323.391405
21
262.991071
0
LINE
8
Calque 1
10
323.391405
20
262.991071
11
324.665392
21
263.682593
0
LINE
8
Calque 1
10
324.665392
20
263.682593
11
325.775358
21
264.598445
0
LINE
8
Calque 1
10
325.775358
20
264.598445
11
326.691143
21
265.708467
0
LINE
8
Calque 1
10
326.691143
20
265.708467
11
327.382591
21
266.982497
0
LINE
8
Calque 1
10
327.382591
20
266.982497
11
327.819543
21
268.390375
0
LINE
8
Calque 1
10
327.819543
20
268.390375
11
327.971840
21
269.901940
0
LINE
8
Calque 1
10
327.971840
20
269.901940
11
327.819470
21
271.413423
0
LINE
8
Calque 1
10
327.819470
20
271.413423
11
327.382467
21
272.821225
0
LINE
8
Calque 1
10
327.382467
20
272.821225
11
326.690988
21
274.095189
0
LINE
8
Calque 1
10
326.690988
20
274.095189
11
325.775193
21
275.205160
0
LINE
8
Calque 1
10
325.775193
20
275.205160
11
324.665237
21
276.120982
0
LINE
8
Calque 1
10
324.665237
20
276.120982
11
323.391282
21
276.812500
0
LINE
8
Calque 1
10
323.391282
20
276.812500
11
321.983483
21
277.249558
0
LINE
8
Calque 1
10
321.983483
20
277.249558
11
320.472000
21
277.402000
0
LINE
8
Calque 1
10
320.472000
20
277.402000
11
320.472000
21
277.402000
0
LINE
8
Calque 1
10
320.472000
20
271.651610
11
321.153132
21
271.514106
0
LINE
8
Calque 1
10
321.153132
20
271.514106
11
321.709300
21
271.139128
0
LINE
8
Calque 1
10
321.709300
20
271.139128
11
322.084291
21
270.582973
0
LINE
8
Calque 1
10
322.084291
20
270.582973
11
322.221890
21
269.901940
0
LINE
8
Calque 1
10
322.221890
20
269.901940
11
322.084413
21
269.220742
0
LINE
8
Calque 1
10
322.084413
20
269.220742
11
321.709461
21
268.664422
0
LINE
8
Calque 1
10
321.709461
20
268.664422
11
321.153251
21
268.289279
0
LINE
8
Calque 1
10
321.153251
20
268.289279
11
320.472000
21
268.151610
0
LINE
8
Calque 1
10
320.472000
20
268.151610
11
319.790684
21
268.289155
0
LINE
8
Calque 1
10
319.790684
20
268.289155
11
319.234346
21
268.664256
0
LINE
8
Calque 1
10
319.234346
20
268.664256
11
318.859308
21
269.220618
0
LINE
8
Calque 1
10
318.859308
20
269.220618
11
318.721890
21
269.901940
0
LINE
8
Calque 1
10
318.721890
20
269.901940
11
318.859432
21
270.583097
0
LINE
8
Calque 1
10
318.859432
20
270.583097
11
319.234511
21
271.139293
0
LINE
8
Calque 1
10
319.234511
20
271.139293
11
319.790807
21
271.514230
0
LINE
8
Calque 1
10
319.790807
20
271.514230
11
320.472000
21
271.651610
0
LINE
8
Calque 1
10
320.472000
20
271.651610
11
320.472000
21
271.651610
0
LINE
8
Calque 1
10
337.473000
20
277.402000
11
335.961507
21
277.249630
0
LINE
8
Calque 1
10
335.961507
20
277.249630
11
334.553681
21
276.812622
0
LINE
8
Calque 1
10
334.553681
20
276.812622
11
333.279681
21
276.121134
0
LINE
8
Calque 1
10
333.279681
20
276.121134
11
332.169670
21
275.205321
0
LINE
8
Calque 1
10
332.169670
20
275.205321
11
331.253807
21
274.095339
0
LINE
8
Calque 1
10
331.253807
20
274.095339
11
330.562254
21
272.821345
0
LINE
8
Calque 1
10
330.562254
20
272.821345
11
330.125172
21
271.413493
0
LINE
8
Calque 1
10
330.125172
20
271.413493
11
329.972720
21
269.901940
0
LINE
8
Calque 1
10
329.972720
20
269.901940
11
330.125099
21
268.390306
0
LINE
8
Calque 1
10
330.125099
20
268.390306
11
330.562131
21
266.982377
0
LINE
8
Calque 1
10
330.562131
20
266.982377
11
331.253653
21
265.708316
0
LINE
8
Calque 1
10
331.253653
20
265.708316
11
332.169505
21
264.598284
0
LINE
8
Calque 1
10
332.169505
20
264.598284
11
333.279527
21
263.682441
0
LINE
8
Calque 1
10
333.279527
20
263.682441
11
334.553557
21
262.990948
0
LINE
8
Calque 1
10
334.553557
20
262.990948
11
335.961435
21
262.553968
0
LINE
8
Calque 1
10
335.961435
20
262.553968
11
337.473000
21
262.401660
0
LINE
8
Calque 1
10
337.473000
20
262.401660
11
338.984552
21
262.554039
0
LINE
8
Calque 1
10
338.984552
20
262.554039
11
340.392401
21
262.991071
0
LINE
8
Calque 1
10
340.392401
20
262.991071
11
341.666388
21
263.682593
0
LINE
8
Calque 1
10
341.666388
20
263.682593
11
342.776354
21
264.598445
0
LINE
8
Calque 1
10
342.776354
20
264.598445
11
343.692141
21
265.708467
0
LINE
8
Calque 1
10
343.692141
20
265.708467
11
344.383590
21
266.982497
0
LINE
8
Calque 1
10
344.383590
20
266.982497
11
344.820542
21
268.390375
0
LINE
8
Calque 1
10
344.820542
20
268.390375
11
344.972840
21
269.901940
0
LINE
8
Calque 1
10
344.972840
20
269.901940
11
344.820470
21
271.413423
0
LINE
8
Calque 1
10
344.820470
20
271.413423
11
344.383466
21
272.821225
0
LINE
8
Calque 1
10
344.383466
20
272.821225
11
343.691986
21
274.095189
0
LINE
8
Calque 1
10
343.691986
20
274.095189
11
342.776189
21
275.205160
0
LINE
8
Calque 1
10
342.776189
20
275.205160
11
341.666233
21
276.120982
0
LINE
8
Calque 1
10
341.666233
20
276.120982
11
340.392277
21
276.812500
0
LINE
8
Calque 1
10
340.392277
20
276.812500
11
338.984480
21
277.249558
0
LINE
8
Calque 1
10
338.984480
20
277.249558
11
337.473000
21
277.402000
0
LINE
8
Calque 1
10
337.473000
20
277.402000
11
337.473000
21
277.402000
0
LINE
8
Calque 1
10
337.473000
20
271.651610
11
338.154127
21
271.514106
0
LINE
8
Calque 1
10
338.154127
20
271.514106
11
338.710296
21
271.139128
0
LINE
8
Calque 1
10
338.710296
20
271.139128
11
339.085290
21
270.582973
0
LINE
8
Calque 1
10
339.085290
20
270.582973
11
339.222890
21
269.901940
0
LINE
8
Calque 1
10
339.222890
20
269.901940
11
339.085413
21
269.220742
0
LINE
8
Calque 1
10
339.085413
20
269.220742
11
338.710461
21
268.664422
0
LINE
8
Calque 1
10
338.710461
20
268.664422
11
338.154251
21
268.289279
0
LINE
8
Calque 1
10
338.154251
20
268.289279
11
337.473000
21
268.151610
0
LINE
8
Calque 1
10
337.473000
20
268.151610
11
336.791679
21
268.289155
0
LINE
8
Calque 1
10
336.791679
20
268.289155
11
336.235343
21
268.664256
0
LINE
8
Calque 1
10
336.235343
20
268.664256
11
335.860307
21
269.220618
0
LINE
8
Calque 1
10
335.860307
20
269.220618
11
335.722890
21
269.901940
0
LINE
8
Calque 1
10
335.722890
20
269.901940
11
335.860431
21
270.583097
0
LINE
8
Calque 1
10
335.860431
20
270.583097
11
336.235507
21
271.139293
0
LINE
8
Calque 1
10
336.235507
20
271.139293
11
336.791803
21
271.514230
0
LINE
8
Calque 1
10
336.791803
20
271.514230
11
337.473000
21
271.651610
0
LINE
8
Calque 1
10
337.473000
20
271.651610
11
337.473000
21
271.651610
0
LINE
8
Calque 1
10
277.973000
20
292.402000
11
276.461510
21
292.249630
0
LINE
8
Calque 1
10
276.461510
20
292.249630
11
275.053686
21
291.812624
0
LINE
8
Calque 1
10
275.053686
20
291.812624
11
273.779689
21
291.121137
0
LINE
8
Calque 1
10
273.779689
20
291.121137
11
272.669679
21
290.205325
0
LINE
8
Calque 1
10
272.669679
20
290.205325
11
271.753817
21
289.095344
0
LINE
8
Calque 1
10
271.753817
20
289.095344
11
271.062264
21
287.821349
0
LINE
8
Calque 1
10
271.062264
20
287.821349
11
270.625182
21
286.413496
0
LINE
8
Calque 1
10
270.625182
20
286.413496
11
270.472730
21
284.901940
0
LINE
8
Calque 1
10
270.472730
20
284.901940
11
270.625109
21
283.390303
0
LINE
8
Calque 1
10
270.625109
20
283.390303
11
271.062140
21
281.982373
0
LINE
8
Calque 1
10
271.062140
20
281.982373
11
271.753662
21
280.708312
0
LINE
8
Calque 1
10
271.753662
20
280.708312
11
272.669514
21
279.598280
0
LINE
8
Calque 1
10
272.669514
20
279.598280
11
273.779534
21
278.682438
0
LINE
8
Calque 1
10
273.779534
20
278.682438
11
275.053563
21
277.990947
0
LINE
8
Calque 1
10
275.053563
20
277.990947
11
276.461438
21
277.553967
0
LINE
8
Calque 1
10
276.461438
20
277.553967
11
277.973000
21
277.401660
0
LINE
8
Calque 1
10
277.973000
20
277.401660
11
279.484555
21
277.554039
0
LINE
8
Calque 1
10
279.484555
20
277.554039
11
280.892405
21
277.991071
0
LINE
8
Calque 1
10
280.892405
20
277.991071
11
282.166392
21
278.682593
0
LINE
8
Calque 1
10
282.166392
20
278.682593
11
283.276358
21
279.598445
0
LINE
8
Calque 1
10
283.276358
20
279.598445
11
284.192143
21
280.708467
0
LINE
8
Calque 1
10
284.192143
20
280.708467
11
284.883591
21
281.982497
0
LINE
8
Calque 1
10
284.883591
20
281.982497
11
285.320543
21
283.390375
0
LINE
8
Calque 1
10
285.320543
20
283.390375
11
285.472840
21
284.901940
0
LINE
8
Calque 1
10
285.472840
20
284.901940
11
285.320470
21
286.413423
0
LINE
8
Calque 1
10
285.320470
20
286.413423
11
284.883467
21
287.821225
0
LINE
8
Calque 1
10
284.883467
20
287.821225
11
284.191988
21
289.095189
0
LINE
8
Calque 1
10
284.191988
20
289.095189
11
283.276192
21
290.205160
0
LINE
8
Calque 1
10
283.276192
20
290.205160
11
282.166237
21
291.120982
0
LINE
8
Calque 1
10
282.166237
20
291.120982
11
280.892282
21
291.812500
0
LINE
8
Calque 1
10
280.892282
20
291.812500
11
279.484483
21
292.249558
0
LINE
8
Calque 1
10
279.484483
20
292.249558
11
277.973000
21
292.402000
0
LINE
8
Calque 1
10
277.973000
20
292.402000
11
277.973000
21
292.402000
0
LINE
8
Calque 1
10
277.973000
20
286.651610
11
278.654132
21
286.514107
0
LINE
8
Calque 1
10
278.654132
20
286.514107
11
279.210300
21
286.139128
0
LINE
8
Calque 1
10
279.210300
20
286.139128
11
279.585291
21
285.582974
0
LINE
8
Calque 1
10
279.585291
20
285.582974
11
279.722890
21
284.901940
0
LINE
8
Calque 1
10
279.722890
20
284.901940
11
279.585415
21
284.220742
0
LINE
8
Calque 1
10
279.585415
20
284.220742
11
279.210465
21
283.664422
0
LINE
8
Calque 1
10
279.210465
20
283.664422
11
278.654255
21
283.289279
0
LINE
8
Calque 1
10
278.654255
20
283.289279
11
277.973000
21
283.151610
0
LINE
8
Calque 1
10
277.973000
20
283.151610
11
277.291685
21
283.289155
0
LINE
8
Calque 1
10
277.291685
20
283.289155
11
276.735350
21
283.664257
0
LINE
8
Calque 1
10
276.735350
20
283.664257
11
276.360313
21
284.220618
0
LINE
8
Calque 1
10
276.360313
20
284.220618
11
276.222890
21
284.901940
0
LINE
8
Calque 1
10
276.222890
20
284.901940
11
276.360432
21
285.583097
0
LINE
8
Calque 1
10
276.360432
20
285.583097
11
276.735511
21
286.139293
0
LINE
8
Calque 1
10
276.735511
20
286.139293
11
277.291807
21
286.514230
0
LINE
8
Calque 1
10
277.291807
20
286.514230
11
277.973000
21
286.651610
0
LINE
8
Calque 1
10
277.973000
20
286.651610
11
277.973000
21
286.651610
0
LINE
8
Calque 1
10
294.973000
20
292.402000
11
293.461507
21
292.249630
0
LINE
8
Calque 1
10
293.461507
20
292.249630
11
292.053681
21
291.812624
0
LINE
8
Calque 1
10
292.053681
20
291.812624
11
290.779681
21
291.121137
0
LINE
8
Calque 1
10
290.779681
20
291.121137
11
289.669670
21
290.205325
0
LINE
8
Calque 1
10
289.669670
20
290.205325
11
288.753807
21
289.095344
0
LINE
8
Calque 1
10
288.753807
20
289.095344
11
288.062254
21
287.821349
0
LINE
8
Calque 1
10
288.062254
20
287.821349
11
287.625172
21
286.413496
0
LINE
8
Calque 1
10
287.625172
20
286.413496
11
287.472720
21
284.901940
0
LINE
8
Calque 1
10
287.472720
20
284.901940
11
287.625099
21
283.390303
0
LINE
8
Calque 1
10
287.625099
20
283.390303
11
288.062131
21
281.982373
0
LINE
8
Calque 1
10
288.062131
20
281.982373
11
288.753653
21
280.708312
0
LINE
8
Calque 1
10
288.753653
20
280.708312
11
289.669505
21
279.598280
0
LINE
8
Calque 1
10
289.669505
20
279.598280
11
290.779527
21
278.682438
0
LINE
8
Calque 1
10
290.779527
20
278.682438
11
292.053557
21
277.990947
0
LINE
8
Calque 1
10
292.053557
20
277.990947
11
293.461435
21
277.553967
0
LINE
8
Calque 1
10
293.461435
20
277.553967
11
294.973000
21
277.401660
0
LINE
8
Calque 1
10
294.973000
20
277.401660
11
296.484555
21
277.554039
0
LINE
8
Calque 1
10
296.484555
20
277.554039
11
297.892405
21
277.991071
0
LINE
8
Calque 1
10
297.892405
20
277.991071
11
299.166392
21
278.682593
0
LINE
8
Calque 1
10
299.166392
20
278.682593
11
300.276358
21
279.598445
0
LINE
8
Calque 1
10
300.276358
20
279.598445
11
301.192143
21
280.708467
0
LINE
8
Calque 1
10
301.192143
20
280.708467
11
301.883591
21
281.982497
0
LINE
8
Calque 1
10
301.883591
20
281.982497
11
302.320543
21
283.390375
0
LINE
8
Calque 1
10
302.320543
20
283.390375
11
302.472840
21
284.901940
0
LINE
8
Calque 1
10
302.472840
20
284.901940
11
302.320470
21
286.413423
0
LINE
8
Calque 1
10
302.320470
20
286.413423
11
301.883467
21
287.821225
0
LINE
8
Calque 1
10
301.883467
20
287.821225
11
301.191988
21
289.095189
0
LINE
8
Calque 1
10
301.191988
20
289.095189
11
300.276192
21
290.205160
0
LINE
8
Calque 1
10
300.276192
20
290.205160
11
299.166237
21
291.120982
0
LINE
8
Calque 1
10
299.166237
20
291.120982
11
297.892282
21
291.812500
0
LINE
8
Calque 1
10
297.892282
20
291.812500
11
296.484483
21
292.249558
0
LINE
8
Calque 1
10
296.484483
20
292.249558
11
294.973000
21
292.402000
0
LINE
8
Calque 1
10
294.973000
20
292.402000
11
294.973000
21
292.402000
0
LINE
8
Calque 1
10
294.973000
20
286.651610
11
295.654127
21
286.514107
0
LINE
8
Calque 1
10
295.654127
20
286.514107
11
296.210296
21
286.139128
0
LINE
8
Calque 1
10
296.210296
20
286.139128
11
296.585290
21
285.582974
0
LINE
8
Calque 1
10
296.585290
20
285.582974
11
296.722890
21
284.901940
0
LINE
8
Calque 1
10
296.722890
20
284.901940
11
296.585413
21
284.220742
0
LINE
8
Calque 1
10
296.585413
20
284.220742
11
296.210461
21
283.664422
0
LINE
8
Calque 1
10
296.210461
20
283.664422
11
295.654251
21
283.289279
0
LINE
8
Calque 1
10
295.654251
20
283.289279
11
294.973000
21
283.151610
0
LINE
8
Calque 1
10
294.973000
20
283.151610
11
294.291684
21
283.289155
0
LINE
8
Calque 1
10
294.291684
20
283.289155
11
293.735346
21
283.664257
0
LINE
8
Calque 1
10
293.735346
20
283.664257
11
293.360308
21
284.220618
0
LINE
8
Calque 1
10
293.360308
20
284.220618
11
293.222890
21
284.901940
0
LINE
8
Calque 1
10
293.222890
20
284.901940
11
293.360432
21
285.583097
0
LINE
8
Calque 1
10
293.360432
20
285.583097
11
293.735511
21
286.139293
0
LINE
8
Calque 1
10
293.735511
20
286.139293
11
294.291807
21
286.514230
0
LINE
8
Calque 1
10
294.291807
20
286.514230
11
294.973000
21
286.651610
0
LINE
8
Calque 1
10
294.973000
20
286.651610
11
294.973000
21
286.651610
0
LINE
8
Calque 1
10
311.973000
20
292.402000
11
310.461507
21
292.249630
0
LINE
8
Calque 1
10
310.461507
20
292.249630
11
309.053681
21
291.812624
0
LINE
8
Calque 1
10
309.053681
20
291.812624
11
307.779681
21
291.121137
0
LINE
8
Calque 1
10
307.779681
20
291.121137
11
306.669670
21
290.205325
0
LINE
8
Calque 1
10
306.669670
20
290.205325
11
305.753807
21
289.095344
0
LINE
8
Calque 1
10
305.753807
20
289.095344
11
305.062254
21
287.821349
0
LINE
8
Calque 1
10
305.062254
20
287.821349
11
304.625172
21
286.413496
0
LINE
8
Calque 1
10
304.625172
20
286.413496
11
304.472720
21
284.901940
0
LINE
8
Calque 1
10
304.472720
20
284.901940
11
304.625099
21
283.390303
0
LINE
8
Calque 1
10
304.625099
20
283.390303
11
305.062131
21
281.982373
0
LINE
8
Calque 1
10
305.062131
20
281.982373
11
305.753653
21
280.708312
0
LINE
8
Calque 1
10
305.753653
20
280.708312
11
306.669505
21
279.598280
0
LINE
8
Calque 1
10
306.669505
20
279.598280
11
307.779527
21
278.682438
0
LINE
8
Calque 1
10
307.779527
20
278.682438
11
309.053557
21
277.990947
0
LINE
8
Calque 1
10
309.053557
20
277.990947
11
310.461435
21
277.553967
0
LINE
8
Calque 1
10
310.461435
20
277.553967
11
311.973000
21
277.401660
0
LINE
8
Calque 1
10
311.973000
20
277.401660
11
313.484552
21
277.554039
0
LINE
8
Calque 1
10
313.484552
20
277.554039
11
314.892401
21
277.991071
0
LINE
8
Calque 1
10
314.892401
20
277.991071
11
316.166388
21
278.682593
0
LINE
8
Calque 1
10
316.166388
20
278.682593
11
317.276354
21
279.598445
0
LINE
8
Calque 1
10
317.276354
20
279.598445
11
318.192141
21
280.708467
0
LINE
8
Calque 1
10
318.192141
20
280.708467
11
318.883590
21
281.982497
0
LINE
8
Calque 1
10
318.883590
20
281.982497
11
319.320542
21
283.390375
0
LINE
8
Calque 1
10
319.320542
20
283.390375
11
319.472840
21
284.901940
0
LINE
8
Calque 1
10
319.472840
20
284.901940
11
319.320470
21
286.413423
0
LINE
8
Calque 1
10
319.320470
20
286.413423
11
318.883466
21
287.821225
0
LINE
8
Calque 1
10
318.883466
20
287.821225
11
318.191986
21
289.095189
0
LINE
8
Calque 1
10
318.191986
20
289.095189
11
317.276189
21
290.205160
0
LINE
8
Calque 1
10
317.276189
20
290.205160
11
316.166233
21
291.120982
0
LINE
8
Calque 1
10
316.166233
20
291.120982
11
314.892277
21
291.812500
0
LINE
8
Calque 1
10
314.892277
20
291.812500
11
313.484480
21
292.249558
0
LINE
8
Calque 1
10
313.484480
20
292.249558
11
311.973000
21
292.402000
0
LINE
8
Calque 1
10
311.973000
20
292.402000
11
311.973000
21
292.402000
0
LINE
8
Calque 1
10
311.973000
20
286.651610
11
312.654127
21
286.514107
0
LINE
8
Calque 1
10
312.654127
20
286.514107
11
313.210296
21
286.139128
0
LINE
8
Calque 1
10
313.210296
20
286.139128
11
313.585290
21
285.582974
0
LINE
8
Calque 1
10
313.585290
20
285.582974
11
313.722890
21
284.901940
0
LINE
8
Calque 1
10
313.722890
20
284.901940
11
313.585413
21
284.220742
0
LINE
8
Calque 1
10
313.585413
20
284.220742
11
313.210461
21
283.664422
0
LINE
8
Calque 1
10
313.210461
20
283.664422
11
312.654251
21
283.289279
0
LINE
8
Calque 1
10
312.654251
20
283.289279
11
311.973000
21
283.151610
0
LINE
8
Calque 1
10
311.973000
20
283.151610
11
311.291679
21
283.289155
0
LINE
8
Calque 1
10
311.291679
20
283.289155
11
310.735343
21
283.664257
0
LINE
8
Calque 1
10
310.735343
20
283.664257
11
310.360307
21
284.220618
0
LINE
8
Calque 1
10
310.360307
20
284.220618
11
310.222890
21
284.901940
0
LINE
8
Calque 1
10
310.222890
20
284.901940
11
310.360431
21
285.583097
0
LINE
8
Calque 1
10
310.360431
20
285.583097
11
310.735507
21
286.139293
0
LINE
8
Calque 1
10
310.735507
20
286.139293
11
311.291803
21
286.514230
0
LINE
8
Calque 1
10
311.291803
20
286.514230
11
311.973000
21
286.651610
0
LINE
8
Calque 1
10
311.973000
20
286.651610
11
311.973000
21
286.651610
0
LINE
8
Calque 1
10
328.973000
20
292.402000
11
327.461510
21
292.249630
0
LINE
8
Calque 1
10
327.461510
20
292.249630
11
326.053686
21
291.812624
0
LINE
8
Calque 1
10
326.053686
20
291.812624
11
324.779689
21
291.121137
0
LINE
8
Calque 1
10
324.779689
20
291.121137
11
323.669679
21
290.205325
0
LINE
8
Calque 1
10
323.669679
20
290.205325
11
322.753817
21
289.095344
0
LINE
8
Calque 1
10
322.753817
20
289.095344
11
322.062264
21
287.821349
0
LINE
8
Calque 1
10
322.062264
20
287.821349
11
321.625182
21
286.413496
0
LINE
8
Calque 1
10
321.625182
20
286.413496
11
321.472730
21
284.901940
0
LINE
8
Calque 1
10
321.472730
20
284.901940
11
321.625109
21
283.390303
0
LINE
8
Calque 1
10
321.625109
20
283.390303
11
322.062140
21
281.982373
0
LINE
8
Calque 1
10
322.062140
20
281.982373
11
322.753662
21
280.708312
0
LINE
8
Calque 1
10
322.753662
20
280.708312
11
323.669514
21
279.598280
0
LINE
8
Calque 1
10
323.669514
20
279.598280
11
324.779534
21
278.682438
0
LINE
8
Calque 1
10
324.779534
20
278.682438
11
326.053563
21
277.990947
0
LINE
8
Calque 1
10
326.053563
20
277.990947
11
327.461438
21
277.553967
0
LINE
8
Calque 1
10
327.461438
20
277.553967
11
328.973000
21
277.401660
0
LINE
8
Calque 1
10
328.973000
20
277.401660
11
330.484555
21
277.554039
0
LINE
8
Calque 1
10
330.484555
20
277.554039
11
331.892405
21
277.991071
0
LINE
8
Calque 1
10
331.892405
20
277.991071
11
333.166392
21
278.682593
0
LINE
8
Calque 1
10
333.166392
20
278.682593
11
334.276358
21
279.598445
0
LINE
8
Calque 1
10
334.276358
20
279.598445
11
335.192143
21
280.708467
0
LINE
8
Calque 1
10
335.192143
20
280.708467
11
335.883591
21
281.982497
0
LINE
8
Calque 1
10
335.883591
20
281.982497
11
336.320543
21
283.390375
0
LINE
8
Calque 1
10
336.320543
20
283.390375
11
336.472840
21
284.901940
0
LINE
8
Calque 1
10
336.472840
20
284.901940
11
336.320470
21
286.413423
0
LINE
8
Calque 1
10
336.320470
20
286.413423
11
335.883467
21
287.821225
0
LINE
8
Calque 1
10
335.883467
20
287.821225
11
335.191988
21
289.095189
0
LINE
8
Calque 1
10
335.191988
20
289.095189
11
334.276192
21
290.205160
0
LINE
8
Calque 1
10
334.276192
20
290.205160
11
333.166237
21
291.120982
0
LINE
8
Calque 1
10
333.166237
20
291.120982
11
331.892282
21
291.812500
0
LINE
8
Calque 1
10
331.892282
20
291.812500
11
330.484483
21
292.249558
0
LINE
8
Calque 1
10
330.484483
20
292.249558
11
328.973000
21
292.402000
0
LINE
8
Calque 1
10
328.973000
20
292.402000
11
328.973000
21
292.402000
0
LINE
8
Calque 1
10
328.973000
20
286.651610
11
329.654132
21
286.514107
0
LINE
8
Calque 1
10
329.654132
20
286.514107
11
330.210300
21
286.139128
0
LINE
8
Calque 1
10
330.210300
20
286.139128
11
330.585291
21
285.582974
0
LINE
8
Calque 1
10
330.585291
20
285.582974
11
330.722890
21
284.901940
0
LINE
8
Calque 1
10
330.722890
20
284.901940
11
330.585415
21
284.220742
0
LINE
8
Calque 1
10
330.585415
20
284.220742
11
330.210465
21
283.664422
0
LINE
8
Calque 1
10
330.210465
20
283.664422
11
329.654255
21
283.289279
0
LINE
8
Calque 1
10
329.654255
20
283.289279
11
328.973000
21
283.151610
0
LINE
8
Calque 1
10
328.973000
20
283.151610
11
328.291684
21
283.289155
0
LINE
8
Calque 1
10
328.291684
20
283.289155
11
327.735346
21
283.664257
0
LINE
8
Calque 1
10
327.735346
20
283.664257
11
327.360308
21
284.220618
0
LINE
8
Calque 1
10
327.360308
20
284.220618
11
327.222890
21
284.901940
0
LINE
8
Calque 1
10
327.222890
20
284.901940
11
327.360432
21
285.583097
0
LINE
8
Calque 1
10
327.360432
20
285.583097
11
327.735511
21
286.139293
0
LINE
8
Calque 1
10
327.735511
20
286.139293
11
328.291807
21
286.514230
0
LINE
8
Calque 1
10
328.291807
20
286.514230
11
328.973000
21
286.651610
0
LINE
8
Calque 1
10
328.973000
20
286.651610
11
328.973000
21
286.651610
0
LINE
8
Calque 1
10
345.973000
20
292.402000
11
344.461507
21
292.249630
0
LINE
8
Calque 1
10
344.461507
20
292.249630
11
343.053681
21
291.812624
0
LINE
8
Calque 1
10
343.053681
20
291.812624
11
341.779681
21
291.121137
0
LINE
8
Calque 1
10
341.779681
20
291.121137
11
340.669670
21
290.205325
0
LINE
8
Calque 1
10
340.669670
20
290.205325
11
339.753807
21
289.095344
0
LINE
8
Calque 1
10
339.753807
20
289.095344
11
339.062254
21
287.821349
0
LINE
8
Calque 1
10
339.062254
20
287.821349
11
338.625172
21
286.413496
0
LINE
8
Calque 1
10
338.625172
20
286.413496
11
338.472720
21
284.901940
0
LINE
8
Calque 1
10
338.472720
20
284.901940
11
338.625099
21
283.390303
0
LINE
8
Calque 1
10
338.625099
20
283.390303
11
339.062131
21
281.982373
0
LINE
8
Calque 1
10
339.062131
20
281.982373
11
339.753653
21
280.708312
0
LINE
8
Calque 1
10
339.753653
20
280.708312
11
340.669505
21
279.598280
0
LINE
8
Calque 1
10
340.669505
20
279.598280
11
341.779527
21
278.682438
0
LINE
8
Calque 1
10
341.779527
20
278.682438
11
343.053557
21
277.990947
0
LINE
8
Calque 1
10
343.053557
20
277.990947
11
344.461435
21
277.553967
0
LINE
8
Calque 1
10
344.461435
20
277.553967
11
345.973000
21
277.401660
0
LINE
8
Calque 1
10
345.973000
20
277.401660
11
347.484555
21
277.554039
0
LINE
8
Calque 1
10
347.484555
20
277.554039
11
348.892405
21
277.991071
0
LINE
8
Calque 1
10
348.892405
20
277.991071
11
350.166392
21
278.682593
0
LINE
8
Calque 1
10
350.166392
20
278.682593
11
351.276358
21
279.598445
0
LINE
8
Calque 1
10
351.276358
20
279.598445
11
352.192143
21
280.708467
0
LINE
8
Calque 1
10
352.192143
20
280.708467
11
352.883591
21
281.982497
0
LINE
8
Calque 1
10
352.883591
20
281.982497
11
353.320543
21
283.390375
0
LINE
8
Calque 1
10
353.320543
20
283.390375
11
353.472840
21
284.901940
0
LINE
8
Calque 1
10
353.472840
20
284.901940
11
353.320470
21
286.413423
0
LINE
8
Calque 1
10
353.320470
20
286.413423
11
352.883467
21
287.821225
0
LINE
8
Calque 1
10
352.883467
20
287.821225
11
352.191988
21
289.095189
0
LINE
8
Calque 1
10
352.191988
20
289.095189
11
351.276192
21
290.205160
0
LINE
8
Calque 1
10
351.276192
20
290.205160
11
350.166237
21
291.120982
0
LINE
8
Calque 1
10
350.166237
20
291.120982
11
348.892282
21
291.812500
0
LINE
8
Calque 1
10
348.892282
20
291.812500
11
347.484483
21
292.249558
0
LINE
8
Calque 1
10
347.484483
20
292.249558
11
345.973000
21
292.402000
0
LINE
8
Calque 1
10
345.973000
20
292.402000
11
345.973000
21
292.402000
0
LINE
8
Calque 1
10
345.973000
20
286.651610
11
346.654127
21
286.514107
0
LINE
8
Calque 1
10
346.654127
20
286.514107
11
347.210296
21
286.139128
0
LINE
8
Calque 1
10
347.210296
20
286.139128
11
347.585290
21
285.582974
0
LINE
8
Calque 1
10
347.585290
20
285.582974
11
347.722890
21
284.901940
0
LINE
8
Calque 1
10
347.722890
20
284.901940
11
347.585413
21
284.220742
0
LINE
8
Calque 1
10
347.585413
20
284.220742
11
347.210461
21
283.664422
0
LINE
8
Calque 1
10
347.210461
20
283.664422
11
346.654251
21
283.289279
0
LINE
8
Calque 1
10
346.654251
20
283.289279
11
345.973000
21
283.151610
0
LINE
8
Calque 1
10
345.973000
20
283.151610
11
345.291684
21
283.289155
0
LINE
8
Calque 1
10
345.291684
20
283.289155
11
344.735346
21
283.664257
0
LINE
8
Calque 1
10
344.735346
20
283.664257
11
344.360308
21
284.220618
0
LINE
8
Calque 1
10
344.360308
20
284.220618
11
344.222890
21
284.901940
0
LINE
8
Calque 1
10
344.222890
20
284.901940
11
344.360432
21
285.583097
0
LINE
8
Calque 1
10
344.360432
20
285.583097
11
344.735511
21
286.139293
0
LINE
8
Calque 1
10
344.735511
20
286.139293
11
345.291807
21
286.514230
0
LINE
8
Calque 1
10
345.291807
20
286.514230
11
345.973000
21
286.651610
0
LINE
8
Calque 1
10
345.973000
20
286.651610
11
345.973000
21
286.651610
 0 
ENDSEC
 0 
EOF