999
"DXF R12 Output" (www.mydxf.blogspot.com)
 0 
SECTION
 2 
HEADER
 9 
$ACADVER
 1 
AC1009
 9 
$EXTMIN
 10 
 0 
 20 
 0 
 9 
$EXTMAX
 10 
 8.5 
 20 
 11 
 0 
ENDSEC
 0 
SECTION
 2 
ENTITIES
0
LINE
8
Calque 1
10
-69.114700
20
-29.895100
11
-69.900266
21
-30.011066
0
LINE
8
Calque 1
10
-69.900266
20
-30.011066
11
-70.557608
21
-30.405560
0
LINE
8
Calque 1
10
-70.557608
20
-30.405560
11
-71.019083
21
-31.017749
0
LINE
8
Calque 1
10
-71.019083
20
-31.017749
11
-71.217050
21
-31.786800
0
LINE
8
Calque 1
10
-71.217050
20
-31.786800
11
-71.101141
21
-32.572421
0
LINE
8
Calque 1
10
-71.101141
20
-32.572421
11
-70.706675
21
-33.229794
0
LINE
8
Calque 1
10
-70.706675
20
-33.229794
11
-70.094513
21
-33.691294
0
LINE
8
Calque 1
10
-70.094513
20
-33.691294
11
-69.325520
21
-33.889300
0
LINE
8
Calque 1
10
-69.325520
20
-33.889300
11
-68.539803
21
-33.773337
0
LINE
8
Calque 1
10
-68.539803
20
-33.773337
11
-67.882381
21
-33.378850
0
LINE
8
Calque 1
10
-67.882381
20
-33.378850
11
-67.420877
21
-32.766668
0
LINE
8
Calque 1
10
-67.420877
20
-32.766668
11
-67.222910
21
-31.997620
0
LINE
8
Calque 1
10
-67.222910
20
-31.997620
11
-67.338823
21
-31.211998
0
LINE
8
Calque 1
10
-67.338823
20
-31.211998
11
-67.733319
21
-30.554624
0
LINE
8
Calque 1
10
-67.733319
20
-30.554624
11
-68.345560
21
-30.093117
0
LINE
8
Calque 1
10
-68.345560
20
-30.093117
11
-69.114710
21
-29.895100
0
LINE
8
Calque 1
10
-69.114710
20
-29.895100
11
-69.114700
21
-29.895100
0
LINE
8
Calque 1
10
108.118000
20
-32.806400
11
107.332285
21
-32.922416
0
LINE
8
Calque 1
10
107.332285
20
-32.922416
11
106.674887
21
-33.317035
0
LINE
8
Calque 1
10
106.674887
20
-33.317035
11
106.213454
21
-33.929386
0
LINE
8
Calque 1
10
106.213454
20
-33.929386
11
106.015630
21
-34.698600
0
LINE
8
Calque 1
10
106.015630
20
-34.698600
11
106.131543
21
-35.484221
0
LINE
8
Calque 1
10
106.131543
20
-35.484221
11
106.526009
21
-36.141594
0
LINE
8
Calque 1
10
106.526009
20
-36.141594
11
107.138168
21
-36.603094
0
LINE
8
Calque 1
10
107.138168
20
-36.603094
11
107.907160
21
-36.801100
0
LINE
8
Calque 1
10
107.907160
20
-36.801100
11
108.692839
21
-36.685134
0
LINE
8
Calque 1
10
108.692839
20
-36.685134
11
109.350197
21
-36.290642
0
LINE
8
Calque 1
10
109.350197
20
-36.290642
11
109.811689
21
-35.678460
0
LINE
8
Calque 1
10
109.811689
20
-35.678460
11
110.009770
21
-34.909420
0
LINE
8
Calque 1
10
110.009770
20
-34.909420
11
109.893857
21
-34.123639
0
LINE
8
Calque 1
10
109.893857
20
-34.123639
11
109.499373
21
-33.466099
0
LINE
8
Calque 1
10
109.499373
20
-33.466099
11
108.887144
21
-33.004465
0
LINE
8
Calque 1
10
108.887144
20
-33.004465
11
108.118000
21
-32.806400
0
LINE
8
Calque 1
10
108.118000
20
-32.806400
11
108.118000
21
-32.806400
0
LINE
8
Calque 1
10
-237.722000
20
5.045450
11
-238.507871
21
4.929435
0
LINE
8
Calque 1
10
-238.507871
20
4.929435
11
-239.165349
21
4.534816
0
LINE
8
Calque 1
10
-239.165349
20
4.534816
11
-239.626812
21
3.922460
0
LINE
8
Calque 1
10
-239.626812
20
3.922460
11
-239.824640
21
3.153230
0
LINE
8
Calque 1
10
-239.824640
20
3.153230
11
-239.708723
21
2.367610
0
LINE
8
Calque 1
10
-239.708723
20
2.367610
11
-239.314229
21
1.710239
0
LINE
8
Calque 1
10
-239.314229
20
1.710239
11
-238.701993
21
1.248736
0
LINE
8
Calque 1
10
-238.701993
20
1.248736
11
-237.932850
21
1.050720
0
LINE
8
Calque 1
10
-237.932850
20
1.050720
11
-237.147284
21
1.166686
0
LINE
8
Calque 1
10
-237.147284
20
1.166686
11
-236.489943
21
1.561180
0
LINE
8
Calque 1
10
-236.489943
20
1.561180
11
-236.028467
21
2.173369
0
LINE
8
Calque 1
10
-236.028467
20
2.173369
11
-235.830500
21
2.942420
0
LINE
8
Calque 1
10
-235.830500
20
2.942420
11
-235.946372
21
3.728210
0
LINE
8
Calque 1
10
-235.946372
20
3.728210
11
-236.340766
21
4.385750
0
LINE
8
Calque 1
10
-236.340766
20
4.385750
11
-236.952903
21
4.847382
0
LINE
8
Calque 1
10
-236.952903
20
4.847382
11
-237.722000
21
5.045450
0
LINE
8
Calque 1
10
-237.722000
20
5.045450
11
-237.722000
21
5.045450
0
LINE
8
Calque 1
10
269.169000
20
-6.247730
11
268.383057
21
-6.363587
0
LINE
8
Calque 1
10
268.383057
20
-6.363587
11
267.725402
21
-6.758164
0
LINE
8
Calque 1
10
267.725402
20
-6.758164
11
267.263756
21
-7.370569
0
LINE
8
Calque 1
10
267.263756
20
-7.370569
11
267.065840
21
-8.139910
0
LINE
8
Calque 1
10
267.065840
20
-8.139910
11
267.181800
21
-8.925664
0
LINE
8
Calque 1
10
267.181800
20
-8.925664
11
267.576411
21
-9.583104
0
LINE
8
Calque 1
10
267.576411
20
-9.583104
11
268.188816
21
-10.044581
0
LINE
8
Calque 1
10
268.188816
20
-10.044581
11
268.958160
21
-10.242450
0
LINE
8
Calque 1
10
268.958160
20
-10.242450
11
269.743726
21
-10.126484
0
LINE
8
Calque 1
10
269.743726
20
-10.126484
11
270.401067
21
-9.731990
0
LINE
8
Calque 1
10
270.401067
20
-9.731990
11
270.862543
21
-9.119801
0
LINE
8
Calque 1
10
270.862543
20
-9.119801
11
271.060510
21
-8.350750
0
LINE
8
Calque 1
10
271.060510
20
-8.350750
11
270.944638
21
-7.564960
0
LINE
8
Calque 1
10
270.944638
20
-7.564960
11
270.550242
21
-6.907421
0
LINE
8
Calque 1
10
270.550242
20
-6.907421
11
269.938103
21
-6.445792
0
LINE
8
Calque 1
10
269.938103
20
-6.445792
11
269.169000
21
-6.247730
0
LINE
8
Calque 1
10
269.169000
20
-6.247730
11
269.169000
21
-6.247730
0
LINE
8
Calque 1
10
-377.485000
20
55.746000
11
-378.270565
21
55.630035
0
LINE
8
Calque 1
10
-378.270565
20
55.630035
11
-378.927906
21
55.235545
0
LINE
8
Calque 1
10
-378.927906
20
55.235545
11
-379.389379
21
54.623360
0
LINE
8
Calque 1
10
-379.389379
20
54.623360
11
-379.587340
21
53.854310
0
LINE
8
Calque 1
10
-379.587340
20
53.854310
11
-379.471428
21
53.068684
0
LINE
8
Calque 1
10
-379.471428
20
53.068684
11
-379.076965
21
52.411305
0
LINE
8
Calque 1
10
-379.076965
20
52.411305
11
-378.464807
21
51.949803
0
LINE
8
Calque 1
10
-378.464807
20
51.949803
11
-377.695810
21
51.751810
0
LINE
8
Calque 1
10
-377.695810
20
51.751810
11
-376.909907
21
51.867617
0
LINE
8
Calque 1
10
-376.909907
20
51.867617
11
-376.252320
21
52.262065
0
LINE
8
Calque 1
10
-376.252320
20
52.262065
11
-375.790693
21
52.874298
0
LINE
8
Calque 1
10
-375.790693
20
52.874298
11
-375.592670
21
53.643460
0
LINE
8
Calque 1
10
-375.592670
20
53.643460
11
-375.708631
21
54.429206
0
LINE
8
Calque 1
10
-375.708631
20
54.429206
11
-376.103243
21
55.086646
0
LINE
8
Calque 1
10
-376.103243
20
55.086646
11
-376.715651
21
55.548129
0
LINE
8
Calque 1
10
-376.715651
20
55.548129
11
-377.485000
21
55.746000
0
LINE
8
Calque 1
10
-377.485000
20
55.746000
11
-377.485000
21
55.746000
0
LINE
8
Calque 1
10
386.038000
20
32.515400
11
385.252285
21
32.399382
0
LINE
8
Calque 1
10
385.252285
20
32.399382
11
384.594886
21
32.004757
0
LINE
8
Calque 1
10
384.594886
20
32.004757
11
384.133450
21
31.392397
0
LINE
8
Calque 1
10
384.133450
20
31.392397
11
383.935620
21
30.623170
0
LINE
8
Calque 1
10
383.935620
20
30.623170
11
384.051533
21
29.837549
0
LINE
8
Calque 1
10
384.051533
20
29.837549
11
384.445999
21
29.180176
0
LINE
8
Calque 1
10
384.445999
20
29.180176
11
385.058158
21
28.718676
0
LINE
8
Calque 1
10
385.058158
20
28.718676
11
385.827150
21
28.520670
0
LINE
8
Calque 1
10
385.827150
20
28.520670
11
386.612835
21
28.636636
0
LINE
8
Calque 1
10
386.612835
20
28.636636
11
387.270196
21
29.031129
0
LINE
8
Calque 1
10
387.270196
20
29.031129
11
387.731689
21
29.643315
0
LINE
8
Calque 1
10
387.731689
20
29.643315
11
387.929770
21
30.412360
0
LINE
8
Calque 1
10
387.929770
20
30.412360
11
387.813856
21
31.198152
0
LINE
8
Calque 1
10
387.813856
20
31.198152
11
387.419369
21
31.855695
0
LINE
8
Calque 1
10
387.419369
20
31.855695
11
386.807140
21
32.317331
0
LINE
8
Calque 1
10
386.807140
20
32.317331
11
386.038000
21
32.515400
0
LINE
8
Calque 1
10
386.038000
20
32.515400
11
386.038000
21
32.515400
0
LINE
8
Calque 1
10
402.751000
20
52.219300
11
401.476020
21
28.063100
0
LINE
8
Calque 1
10
401.476020
20
28.063100
11
396.351810
21
25.662850
0
LINE
8
Calque 1
10
396.351810
20
25.662850
11
383.352635
21
20.040902
0
LINE
8
Calque 1
10
383.352635
20
20.040902
11
374.032189
21
16.270719
0
LINE
8
Calque 1
10
374.032189
20
16.270719
11
362.901704
21
11.993824
0
LINE
8
Calque 1
10
362.901704
20
11.993824
11
350.014082
21
7.309787
0
LINE
8
Calque 1
10
350.014082
20
7.309787
11
335.422224
21
2.318181
0
LINE
8
Calque 1
10
335.422224
20
2.318181
11
319.179030
21
-2.881425
0
LINE
8
Calque 1
10
319.179030
20
-2.881425
11
301.337401
21
-8.189460
0
LINE
8
Calque 1
10
301.337401
20
-8.189460
11
281.950239
21
-13.506351
0
LINE
8
Calque 1
10
281.950239
20
-13.506351
11
261.070443
21
-18.732530
0
LINE
8
Calque 1
10
261.070443
20
-18.732530
11
238.750916
21
-23.768425
0
LINE
8
Calque 1
10
238.750916
20
-23.768425
11
227.067784
21
-26.183899
0
LINE
8
Calque 1
10
227.067784
20
-26.183899
11
215.044558
21
-28.514464
0
LINE
8
Calque 1
10
215.044558
20
-28.514464
11
202.687848
21
-30.747672
0
LINE
8
Calque 1
10
202.687848
20
-30.747672
11
190.004269
21
-32.871078
0
LINE
8
Calque 1
10
190.004269
20
-32.871078
11
177.000433
21
-34.872234
0
LINE
8
Calque 1
10
177.000433
20
-34.872234
11
163.682951
21
-36.738695
0
LINE
8
Calque 1
10
163.682951
20
-36.738695
11
150.058438
21
-38.458014
0
LINE
8
Calque 1
10
150.058438
20
-38.458014
11
136.133505
21
-40.017745
0
LINE
8
Calque 1
10
136.133505
20
-40.017745
11
121.914765
21
-41.405441
0
LINE
8
Calque 1
10
121.914765
20
-41.405441
11
107.408831
21
-42.608656
0
LINE
8
Calque 1
10
107.408831
20
-42.608656
11
92.622316
21
-43.614943
0
LINE
8
Calque 1
10
92.622316
20
-43.614943
11
77.561831
21
-44.411858
0
LINE
8
Calque 1
10
77.561831
20
-44.411858
11
62.233990
21
-44.986952
0
LINE
8
Calque 1
10
62.233990
20
-44.986952
11
46.645405
21
-45.327779
0
LINE
8
Calque 1
10
46.645405
20
-45.327779
11
30.802689
21
-45.421894
0
LINE
8
Calque 1
10
30.802689
20
-45.421894
11
14.712455
21
-45.256850
0
LINE
8
Calque 1
10
14.712455
20
-45.256850
11
-1.618686
21
-44.820200
0
LINE
8
Calque 1
10
-1.618686
20
-44.820200
11
-18.184120
21
-44.099499
0
LINE
8
Calque 1
10
-18.184120
20
-44.099499
11
-34.977235
21
-43.082299
0
LINE
8
Calque 1
10
-34.977235
20
-43.082299
11
-51.991417
21
-41.756155
0
LINE
8
Calque 1
10
-51.991417
20
-41.756155
11
-69.220056
21
-40.108620
0
LINE
8
Calque 1
10
-69.220056
20
-40.108620
11
-86.656537
21
-38.127248
0
LINE
8
Calque 1
10
-86.656537
20
-38.127248
11
-104.294249
21
-35.799592
0
LINE
8
Calque 1
10
-104.294249
20
-35.799592
11
-122.126578
21
-33.113206
0
LINE
8
Calque 1
10
-122.126578
20
-33.113206
11
-140.146912
21
-30.055644
0
LINE
8
Calque 1
10
-140.146912
20
-30.055644
11
-158.348639
21
-26.614460
0
LINE
8
Calque 1
10
-158.348639
20
-26.614460
11
-176.725145
21
-22.777206
0
LINE
8
Calque 1
10
-176.725145
20
-22.777206
11
-195.269819
21
-18.531437
0
LINE
8
Calque 1
10
-195.269819
20
-18.531437
11
-213.976048
21
-13.864706
0
LINE
8
Calque 1
10
-213.976048
20
-13.864706
11
-232.837218
21
-8.764567
0
LINE
8
Calque 1
10
-232.837218
20
-8.764567
11
-251.846718
21
-3.218573
0
LINE
8
Calque 1
10
-251.846718
20
-3.218573
11
-270.997934
21
2.785721
0
LINE
8
Calque 1
10
-270.997934
20
2.785721
11
-290.284255
21
9.260763
0
LINE
8
Calque 1
10
-290.284255
20
9.260763
11
-309.699067
21
16.218998
0
LINE
8
Calque 1
10
-309.699067
20
16.218998
11
-329.235759
21
23.672872
0
LINE
8
Calque 1
10
-329.235759
20
23.672872
11
-348.887716
21
31.634834
0
LINE
8
Calque 1
10
-348.887716
20
31.634834
11
-368.648328
21
40.117327
0
LINE
8
Calque 1
10
-368.648328
20
40.117327
11
-388.510980
21
49.132800
0
LINE
8
Calque 1
10
-388.510980
20
49.132800
11
-387.248390
21
73.054200
0
LINE
8
Calque 1
10
-387.248390
20
73.054200
11
-386.487680
21
72.683370
0
LINE
8
Calque 1
10
-386.487680
20
72.683370
11
-369.005351
21
64.757798
0
LINE
8
Calque 1
10
-369.005351
20
64.757798
11
-351.597922
21
57.246928
0
LINE
8
Calque 1
10
-351.597922
20
57.246928
11
-334.270074
21
50.142200
0
LINE
8
Calque 1
10
-334.270074
20
50.142200
11
-317.026489
21
43.435058
0
LINE
8
Calque 1
10
-317.026489
20
43.435058
11
-299.871847
21
37.116944
0
LINE
8
Calque 1
10
-299.871847
20
37.116944
11
-282.810831
21
31.179300
0
LINE
8
Calque 1
10
-282.810831
20
31.179300
11
-265.848121
21
25.613568
0
LINE
8
Calque 1
10
-265.848121
20
25.613568
11
-248.988399
21
20.411190
0
LINE
8
Calque 1
10
-248.988399
20
20.411190
11
-232.236345
21
15.563609
0
LINE
8
Calque 1
10
-232.236345
20
15.563609
11
-215.596642
21
11.062266
0
LINE
8
Calque 1
10
-215.596642
20
11.062266
11
-199.073971
21
6.898604
0
LINE
8
Calque 1
10
-199.073971
20
6.898604
11
-182.673012
21
3.064065
0
LINE
8
Calque 1
10
-182.673012
20
3.064065
11
-166.398447
21
-0.449909
0
LINE
8
Calque 1
10
-166.398447
20
-0.449909
11
-150.254958
21
-3.651875
0
LINE
8
Calque 1
10
-150.254958
20
-3.651875
11
-134.247225
21
-6.550392
0
LINE
8
Calque 1
10
-134.247225
20
-6.550392
11
-118.379930
21
-9.154017
0
LINE
8
Calque 1
10
-118.379930
20
-9.154017
11
-102.657754
21
-11.471309
0
LINE
8
Calque 1
10
-102.657754
20
-11.471309
11
-87.085379
21
-13.510824
0
LINE
8
Calque 1
10
-87.085379
20
-13.510824
11
-71.667485
21
-15.281121
0
LINE
8
Calque 1
10
-71.667485
20
-15.281121
11
-56.408754
21
-16.790758
0
LINE
8
Calque 1
10
-56.408754
20
-16.790758
11
-41.313868
21
-18.048292
0
LINE
8
Calque 1
10
-41.313868
20
-18.048292
11
-26.387507
21
-19.062281
0
LINE
8
Calque 1
10
-26.387507
20
-19.062281
11
-11.634352
21
-19.841283
0
LINE
8
Calque 1
10
-11.634352
20
-19.841283
11
2.940914
21
-20.393857
0
LINE
8
Calque 1
10
2.940914
20
-20.393857
11
17.333611
21
-20.728558
0
LINE
8
Calque 1
10
17.333611
20
-20.728558
11
31.539057
21
-20.853947
0
LINE
8
Calque 1
10
31.539057
20
-20.853947
11
45.552571
21
-20.778579
0
LINE
8
Calque 1
10
45.552571
20
-20.778579
11
59.369472
21
-20.511014
0
LINE
8
Calque 1
10
59.369472
20
-20.511014
11
72.985079
21
-20.059808
0
LINE
8
Calque 1
10
72.985079
20
-20.059808
11
86.394710
21
-19.433521
0
LINE
8
Calque 1
10
86.394710
20
-19.433521
11
99.593684
21
-18.640709
0
LINE
8
Calque 1
10
99.593684
20
-18.640709
11
112.577320
21
-17.689930
0
LINE
8
Calque 1
10
112.577320
20
-17.689930
11
128.812379
21
-16.262015
0
LINE
8
Calque 1
10
128.812379
20
-16.262015
11
144.680025
21
-14.608929
0
LINE
8
Calque 1
10
144.680025
20
-14.608929
11
160.170552
21
-12.748411
0
LINE
8
Calque 1
10
160.170552
20
-12.748411
11
175.274256
21
-10.698200
0
LINE
8
Calque 1
10
175.274256
20
-10.698200
11
189.981431
21
-8.476036
0
LINE
8
Calque 1
10
189.981431
20
-8.476036
11
204.282374
21
-6.099657
0
LINE
8
Calque 1
10
204.282374
20
-6.099657
11
218.167379
21
-3.586804
0
LINE
8
Calque 1
10
218.167379
20
-3.586804
11
231.626742
21
-0.955216
0
LINE
8
Calque 1
10
231.626742
20
-0.955216
11
244.650757
21
1.777368
0
LINE
8
Calque 1
10
244.650757
20
1.777368
11
257.229721
21
4.593209
0
LINE
8
Calque 1
10
257.229721
20
4.593209
11
269.353928
21
7.474566
0
LINE
8
Calque 1
10
269.353928
20
7.474566
11
281.013674
21
10.403702
0
LINE
8
Calque 1
10
281.013674
20
10.403702
11
302.900961
21
16.334348
0
LINE
8
Calque 1
10
302.900961
20
16.334348
11
322.813945
21
22.243233
0
LINE
8
Calque 1
10
322.813945
20
22.243233
11
340.674988
21
27.988440
0
LINE
8
Calque 1
10
340.674988
20
27.988440
11
356.406451
21
33.428055
0
LINE
8
Calque 1
10
356.406451
20
33.428055
11
369.930696
21
38.420164
0
LINE
8
Calque 1
10
369.930696
20
38.420164
11
381.170086
21
42.822850
0
LINE
8
Calque 1
10
381.170086
20
42.822850
11
390.046981
21
46.494198
0
LINE
8
Calque 1
10
390.046981
20
46.494198
11
396.483744
21
49.292295
0
LINE
8
Calque 1
10
396.483744
20
49.292295
11
401.726320
21
51.701070
0
LINE
8
Calque 1
10
401.726320
20
51.701070
11
402.751000
21
52.219300
0
LINE
8
Calque 1
10
40.141000
20
9.723880
11
39.394645
21
9.452276
0
LINE
8
Calque 1
10
39.394645
20
9.452276
11
38.829984
21
8.933532
0
LINE
8
Calque 1
10
38.829984
20
8.933532
11
38.501016
21
8.240882
0
LINE
8
Calque 1
10
38.501016
20
8.240882
11
38.461740
21
7.447560
0
LINE
8
Calque 1
10
38.461740
20
7.447560
11
38.733275
21
6.701291
0
LINE
8
Calque 1
10
38.733275
20
6.701291
11
39.251946
21
6.136665
0
LINE
8
Calque 1
10
39.251946
20
6.136665
11
39.944487
21
5.807681
0
LINE
8
Calque 1
10
39.944487
20
5.807681
11
40.737630
21
5.768340
0
LINE
8
Calque 1
10
40.737630
20
5.768340
11
41.483847
21
6.039864
0
LINE
8
Calque 1
10
41.483847
20
6.039864
11
42.048480
21
6.558467
0
LINE
8
Calque 1
10
42.048480
20
6.558467
11
42.377523
21
7.250955
0
LINE
8
Calque 1
10
42.377523
20
7.250955
11
42.416970
21
8.044130
0
LINE
8
Calque 1
10
42.416970
20
8.044130
11
42.145447
21
8.790574
0
LINE
8
Calque 1
10
42.145447
20
8.790574
11
41.626815
21
9.355380
0
LINE
8
Calque 1
10
41.626815
20
9.355380
11
40.934269
21
9.684498
0
LINE
8
Calque 1
10
40.934269
20
9.684498
11
40.141010
21
9.723880
0
LINE
8
Calque 1
10
40.141010
20
9.723880
11
40.141000
21
9.723880
0
LINE
8
Calque 1
10
-45.226200
20
14.837100
11
-45.972413
21
14.565572
0
LINE
8
Calque 1
10
-45.972413
20
14.565572
11
-46.537017
21
14.046972
0
LINE
8
Calque 1
10
-46.537017
20
14.046972
11
-46.865983
21
13.354496
0
LINE
8
Calque 1
10
-46.865983
20
13.354496
11
-46.905280
21
12.561340
0
LINE
8
Calque 1
10
-46.905280
20
12.561340
11
-46.633787
21
11.815066
0
LINE
8
Calque 1
10
-46.633787
20
11.815066
11
-46.115209
21
11.250429
0
LINE
8
Calque 1
10
-46.115209
20
11.250429
11
-45.422761
21
10.921432
0
LINE
8
Calque 1
10
-45.422761
20
10.921432
11
-44.629660
21
10.882080
0
LINE
8
Calque 1
10
-44.629660
20
10.882080
11
-43.883193
21
11.153491
0
LINE
8
Calque 1
10
-43.883193
20
11.153491
11
-43.318324
21
11.672095
0
LINE
8
Calque 1
10
-43.318324
20
11.672095
11
-42.989155
21
12.364661
0
LINE
8
Calque 1
10
-42.989155
20
12.364661
11
-42.949790
21
13.157960
0
LINE
8
Calque 1
10
-42.949790
20
13.157960
11
-43.221389
21
13.904350
0
LINE
8
Calque 1
10
-43.221389
20
13.904350
11
-43.740186
21
14.469014
0
LINE
8
Calque 1
10
-43.740186
20
14.469014
11
-44.432887
21
14.797936
0
LINE
8
Calque 1
10
-44.432887
20
14.797936
11
-45.226200
21
14.837100
0
LINE
8
Calque 1
10
-45.226200
20
14.837100
11
-45.226200
21
14.837100
0
LINE
8
Calque 1
10
116.076000
20
50.649300
11
115.329673
21
50.377755
0
LINE
8
Calque 1
10
115.329673
20
50.377755
11
114.765052
21
49.859154
0
LINE
8
Calque 1
10
114.765052
20
49.859154
11
114.436071
21
49.166678
0
LINE
8
Calque 1
10
114.436071
20
49.166678
11
114.396660
21
48.373510
0
LINE
8
Calque 1
10
114.396660
20
48.373510
11
114.668158
21
47.627231
0
LINE
8
Calque 1
10
114.668158
20
47.627231
11
115.186765
21
47.062595
0
LINE
8
Calque 1
10
115.186765
20
47.062595
11
115.879289
21
46.733609
0
LINE
8
Calque 1
10
115.879289
20
46.733609
11
116.672540
21
46.694280
0
LINE
8
Calque 1
10
116.672540
20
46.694280
11
117.418753
21
46.965809
0
LINE
8
Calque 1
10
117.418753
20
46.965809
11
117.983359
21
47.484411
0
LINE
8
Calque 1
10
117.983359
20
47.484411
11
118.312327
21
48.176888
0
LINE
8
Calque 1
10
118.312327
20
48.176888
11
118.351630
21
48.970040
0
LINE
8
Calque 1
10
118.351630
20
48.970040
11
118.080134
21
49.716314
0
LINE
8
Calque 1
10
118.080134
20
49.716314
11
117.561553
21
50.280951
0
LINE
8
Calque 1
10
117.561553
20
50.280951
11
116.869102
21
50.609948
0
LINE
8
Calque 1
10
116.869102
20
50.609948
11
116.076000
21
50.649300
0
LINE
8
Calque 1
10
116.076000
20
50.649300
11
116.076000
21
50.649300
0
LINE
8
Calque 1
10
-151.408000
20
68.873700
11
-152.154456
21
68.602217
0
LINE
8
Calque 1
10
-152.154456
20
68.602217
11
-152.719331
21
68.083664
0
LINE
8
Calque 1
10
-152.719331
20
68.083664
11
-153.048513
21
67.391199
0
LINE
8
Calque 1
10
-153.048513
20
67.391199
11
-153.087890
21
66.597980
0
LINE
8
Calque 1
10
-153.087890
20
66.597980
11
-152.816297
21
65.851390
0
LINE
8
Calque 1
10
-152.816297
20
65.851390
11
-152.297526
21
65.286499
0
LINE
8
Calque 1
10
-152.297526
20
65.286499
11
-151.604810
21
64.957405
0
LINE
8
Calque 1
10
-151.604810
20
64.957405
11
-150.811380
21
64.918210
0
LINE
8
Calque 1
10
-150.811380
20
64.918210
11
-150.065024
21
65.189765
0
LINE
8
Calque 1
10
-150.065024
20
65.189765
11
-149.500391
21
65.708494
0
LINE
8
Calque 1
10
-149.500391
20
65.708494
11
-149.171508
21
66.401175
0
LINE
8
Calque 1
10
-149.171508
20
66.401175
11
-149.132400
21
67.194590
0
LINE
8
Calque 1
10
-149.132400
20
67.194590
11
-149.403884
21
67.940809
0
LINE
8
Calque 1
10
-149.403884
20
67.940809
11
-149.922459
21
68.505419
0
LINE
8
Calque 1
10
-149.922459
20
68.505419
11
-150.614904
21
68.834391
0
LINE
8
Calque 1
10
-150.614904
20
68.834391
11
-151.408000
21
68.873700
0
LINE
8
Calque 1
10
-151.408000
20
68.873700
11
-151.408000
21
68.873700
0
LINE
8
Calque 1
10
196.249000
20
132.757000
11
195.502590
21
132.485482
0
LINE
8
Calque 1
10
195.502590
20
132.485482
11
194.937819
21
131.966854
0
LINE
8
Calque 1
10
194.937819
20
131.966854
11
194.608740
21
131.274313
0
LINE
8
Calque 1
10
194.608740
20
131.274313
11
194.569410
21
130.481060
0
LINE
8
Calque 1
10
194.569410
20
130.481060
11
194.840963
21
129.734702
0
LINE
8
Calque 1
10
194.840963
20
129.734702
11
195.359666
21
129.170063
0
LINE
8
Calque 1
10
195.359666
20
129.170063
11
196.052274
21
128.841167
0
LINE
8
Calque 1
10
196.052274
20
128.841167
11
196.845540
21
128.802040
0
LINE
8
Calque 1
10
196.845540
20
128.802040
11
197.591908
21
129.073547
0
LINE
8
Calque 1
10
197.591908
20
129.073547
11
198.156591
21
129.592132
0
LINE
8
Calque 1
10
198.156591
20
129.592132
11
198.485589
21
130.284579
0
LINE
8
Calque 1
10
198.485589
20
130.284579
11
198.524900
21
131.077670
0
LINE
8
Calque 1
10
198.524900
20
131.077670
11
198.253394
21
131.824002
0
LINE
8
Calque 1
10
198.253394
20
131.824002
11
197.734789
21
132.388624
0
LINE
8
Calque 1
10
197.734789
20
132.388624
11
197.042264
21
132.717601
0
LINE
8
Calque 1
10
197.042264
20
132.717601
11
196.249000
21
132.757000
0
LINE
8
Calque 1
10
196.249000
20
132.757000
11
196.249000
21
132.757000
0
LINE
8
Calque 1
10
276.903000
20
195.182000
11
276.156785
21
194.910473
0
LINE
8
Calque 1
10
276.156785
20
194.910473
11
275.592164
21
194.391802
0
LINE
8
Calque 1
10
275.592164
20
194.391802
11
275.263131
21
193.699256
0
LINE
8
Calque 1
10
275.263131
20
193.699256
11
275.223680
21
192.906100
0
LINE
8
Calque 1
10
275.223680
20
192.906100
11
275.495205
21
192.159883
0
LINE
8
Calque 1
10
275.495205
20
192.159883
11
276.013874
21
191.595259
0
LINE
8
Calque 1
10
276.013874
20
191.595259
11
276.706420
21
191.266223
0
LINE
8
Calque 1
10
276.706420
20
191.266223
11
277.499580
21
191.226770
0
LINE
8
Calque 1
10
277.499580
20
191.226770
11
278.245988
21
191.498288
0
LINE
8
Calque 1
10
278.245988
20
191.498288
11
278.810786
21
192.016921
0
LINE
8
Calque 1
10
278.810786
20
192.016921
11
279.139944
21
192.709474
0
LINE
8
Calque 1
10
279.139944
20
192.709474
11
279.179430
21
193.502750
0
LINE
8
Calque 1
10
279.179430
20
193.502750
11
278.907836
21
194.249106
0
LINE
8
Calque 1
10
278.907836
20
194.249106
11
278.389039
21
194.813761
0
LINE
8
Calque 1
10
278.389039
20
194.813761
11
277.696330
21
195.142723
0
LINE
8
Calque 1
10
277.696330
20
195.142723
11
276.903000
21
195.182000
0
LINE
8
Calque 1
10
276.903000
20
195.182000
11
276.903000
21
195.182000
0
LINE
8
Calque 1
10
-279.599000
20
113.769000
11
-280.345370
21
113.497493
0
LINE
8
Calque 1
10
-280.345370
20
113.497493
11
-280.910056
21
112.978906
0
LINE
8
Calque 1
10
-280.910056
20
112.978906
11
-281.239057
21
112.286457
0
LINE
8
Calque 1
10
-281.239057
20
112.286457
11
-281.278370
21
111.493360
0
LINE
8
Calque 1
10
-281.278370
20
111.493360
11
-281.006866
21
110.746795
0
LINE
8
Calque 1
10
-281.006866
20
110.746795
11
-280.488286
21
110.181936
0
LINE
8
Calque 1
10
-280.488286
20
110.181936
11
-279.795754
21
109.852827
0
LINE
8
Calque 1
10
-279.795754
20
109.852827
11
-279.002390
21
109.813510
0
LINE
8
Calque 1
10
-279.002390
20
109.813510
11
-278.256032
21
110.085066
0
LINE
8
Calque 1
10
-278.256032
20
110.085066
11
-277.691396
21
110.603795
0
LINE
8
Calque 1
10
-277.691396
20
110.603795
11
-277.362510
21
111.296479
0
LINE
8
Calque 1
10
-277.362510
20
111.296479
11
-277.323400
21
112.089900
0
LINE
8
Calque 1
10
-277.323400
20
112.089900
11
-277.594884
21
112.836113
0
LINE
8
Calque 1
10
-277.594884
20
112.836113
11
-278.113459
21
113.400720
0
LINE
8
Calque 1
10
-278.113459
20
113.400720
11
-278.805904
21
113.729692
0
LINE
8
Calque 1
10
-278.805904
20
113.729692
11
-279.599000
21
113.769000
0
LINE
8
Calque 1
10
-279.599000
20
113.769000
11
-279.599000
21
113.769000
0
LINE
8
Calque 1
10
-377.214000
20
101.111000
11
-377.960217
21
100.839505
0
LINE
8
Calque 1
10
-377.960217
20
100.839505
11
-378.524847
21
100.320896
0
LINE
8
Calque 1
10
-378.524847
20
100.320896
11
-378.853884
21
99.628364
0
LINE
8
Calque 1
10
-378.853884
20
99.628364
11
-378.893320
21
98.835100
0
LINE
8
Calque 1
10
-378.893320
20
98.835100
11
-378.621795
21
98.088887
0
LINE
8
Calque 1
10
-378.621795
20
98.088887
11
-378.103131
21
97.524291
0
LINE
8
Calque 1
10
-378.103131
20
97.524291
11
-377.410597
21
97.195332
0
LINE
8
Calque 1
10
-377.410597
20
97.195332
11
-376.617460
21
97.156030
0
LINE
8
Calque 1
10
-376.617460
20
97.156030
11
-375.871242
21
97.427515
0
LINE
8
Calque 1
10
-375.871242
20
97.427515
11
-375.306607
21
97.946094
0
LINE
8
Calque 1
10
-375.306607
20
97.946094
11
-374.977559
21
98.638551
0
LINE
8
Calque 1
10
-374.977559
20
98.638551
11
-374.938100
21
99.431670
0
LINE
8
Calque 1
10
-374.938100
20
99.431670
11
-375.209648
21
100.178033
0
LINE
8
Calque 1
10
-375.209648
20
100.178033
11
-375.728324
21
100.742706
0
LINE
8
Calque 1
10
-375.728324
20
100.742706
11
-376.420863
21
101.071694
0
LINE
8
Calque 1
10
-376.420863
20
101.071694
11
-377.214000
21
101.111000
0
LINE
8
Calque 1
10
-377.214000
20
101.111000
11
-377.214000
21
101.111000
0
LINE
8
Calque 1
10
360.612000
20
224.154000
11
359.865648
21
223.882407
0
LINE
8
Calque 1
10
359.865648
20
223.882407
11
359.301021
21
223.363615
0
LINE
8
Calque 1
10
359.301021
20
223.363615
11
358.972137
21
222.670921
0
LINE
8
Calque 1
10
358.972137
20
222.670921
11
358.933010
21
221.877620
0
LINE
8
Calque 1
10
358.933010
20
221.877620
11
359.204495
21
221.131397
0
LINE
8
Calque 1
10
359.204495
20
221.131397
11
359.723074
21
220.566759
0
LINE
8
Calque 1
10
359.723074
20
220.566759
11
360.415531
21
220.237709
0
LINE
8
Calque 1
10
360.415531
20
220.237709
11
361.208650
21
220.198250
0
LINE
8
Calque 1
10
361.208650
20
220.198250
11
361.955100
21
220.469774
0
LINE
8
Calque 1
10
361.955100
20
220.469774
11
362.519961
21
220.988416
0
LINE
8
Calque 1
10
362.519961
20
220.988416
11
362.849129
21
221.680970
0
LINE
8
Calque 1
10
362.849129
20
221.680970
11
362.888500
21
222.474230
0
LINE
8
Calque 1
10
362.888500
20
222.474230
11
362.616915
21
223.220783
0
LINE
8
Calque 1
10
362.616915
20
223.220783
11
362.098156
21
223.785614
0
LINE
8
Calque 1
10
362.098156
20
223.785614
11
361.405445
21
224.114695
0
LINE
8
Calque 1
10
361.405445
20
224.114695
11
360.612000
21
224.154000
0
LINE
8
Calque 1
10
360.612000
20
224.154000
11
360.612000
21
224.154000
0
LINE
8
Calque 1
10
350.017000
20
234.604000
11
357.976819
21
235.741442
0
LINE
8
Calque 1
10
357.976819
20
235.741442
11
365.056775
21
236.429943
0
LINE
8
Calque 1
10
365.056775
20
236.429943
11
371.221844
21
236.757706
0
LINE
8
Calque 1
10
371.221844
20
236.757706
11
376.437000
21
236.812935
0
LINE
8
Calque 1
10
376.437000
20
236.812935
11
380.667219
21
236.683832
0
LINE
8
Calque 1
10
380.667219
20
236.683832
11
383.877475
21
236.458602
0
LINE
8
Calque 1
10
383.877475
20
236.458602
11
387.098000
21
236.072570
0
LINE
8
Calque 1
10
387.098000
20
236.072570
11
390.582850
21
212.968270
0
LINE
8
Calque 1
10
390.582850
20
212.968270
11
389.769380
21
213.115824
0
LINE
8
Calque 1
10
389.769380
20
213.115824
11
388.673606
21
213.279584
0
LINE
8
Calque 1
10
388.673606
20
213.279584
11
385.456185
21
213.608852
0
LINE
8
Calque 1
10
385.456185
20
213.608852
11
380.221964
21
213.860604
0
LINE
8
Calque 1
10
380.221964
20
213.860604
11
373.075792
21
213.791822
0
LINE
8
Calque 1
10
373.075792
20
213.791822
11
368.818491
21
213.561285
0
LINE
8
Calque 1
10
368.818491
20
213.561285
11
364.122520
21
213.159482
0
LINE
8
Calque 1
10
364.122520
20
213.159482
11
359.000985
21
212.556035
0
LINE
8
Calque 1
10
359.000985
20
212.556035
11
353.466994
21
211.720565
0
LINE
8
Calque 1
10
353.466994
20
211.720565
11
347.533652
21
210.622696
0
LINE
8
Calque 1
10
347.533652
20
210.622696
11
341.214065
21
209.232050
0
LINE
8
Calque 1
10
341.214065
20
209.232050
11
334.521339
21
207.518248
0
LINE
8
Calque 1
10
334.521339
20
207.518248
11
327.468580
21
205.450914
0
LINE
8
Calque 1
10
327.468580
20
205.450914
11
320.071592
21
202.999045
0
LINE
8
Calque 1
10
320.071592
20
202.999045
11
312.346851
21
200.131409
0
LINE
8
Calque 1
10
312.346851
20
200.131409
11
304.308528
21
196.817141
0
LINE
8
Calque 1
10
304.308528
20
196.817141
11
295.970796
21
193.025373
0
LINE
8
Calque 1
10
295.970796
20
193.025373
11
287.347825
21
188.725241
0
LINE
8
Calque 1
10
287.347825
20
188.725241
11
278.453789
21
183.885877
0
LINE
8
Calque 1
10
278.453789
20
183.885877
11
269.302858
21
178.476415
0
LINE
8
Calque 1
10
269.302858
20
178.476415
11
259.909205
21
172.465989
0
LINE
8
Calque 1
10
259.909205
20
172.465989
11
250.287001
21
165.823733
0
LINE
8
Calque 1
10
250.287001
20
165.823733
11
240.450418
21
158.518779
0
LINE
8
Calque 1
10
240.450418
20
158.518779
11
230.413628
21
150.520263
0
LINE
8
Calque 1
10
230.413628
20
150.520263
11
220.190802
21
141.797317
0
LINE
8
Calque 1
10
220.190802
20
141.797317
11
209.796112
21
132.319076
0
LINE
8
Calque 1
10
209.796112
20
132.319076
11
199.243731
21
122.054672
0
LINE
8
Calque 1
10
199.243731
20
122.054672
11
188.547830
21
110.973240
0
LINE
8
Calque 1
10
188.547830
20
110.973240
11
177.722580
21
99.043914
0
LINE
8
Calque 1
10
177.722580
20
99.043914
11
166.906481
21
86.999097
0
LINE
8
Calque 1
10
166.906481
20
86.999097
11
156.343522
21
75.733173
0
LINE
8
Calque 1
10
156.343522
20
75.733173
11
146.011993
21
65.237573
0
LINE
8
Calque 1
10
146.011993
20
65.237573
11
135.890182
21
55.503730
0
LINE
8
Calque 1
10
135.890182
20
55.503730
11
125.956377
21
46.523075
0
LINE
8
Calque 1
10
125.956377
20
46.523075
11
116.188868
21
38.287041
0
LINE
8
Calque 1
10
116.188868
20
38.287041
11
106.565944
21
30.787060
0
LINE
8
Calque 1
10
106.565944
20
30.787060
11
97.065893
21
24.014564
0
LINE
8
Calque 1
10
97.065893
20
24.014564
11
87.667003
21
17.960985
0
LINE
8
Calque 1
10
87.667003
20
17.960985
11
78.347565
21
12.617756
0
LINE
8
Calque 1
10
78.347565
20
12.617756
11
73.710856
21
10.209845
0
LINE
8
Calque 1
10
73.710856
20
10.209845
11
69.085867
21
7.976308
0
LINE
8
Calque 1
10
69.085867
20
7.976308
11
64.469885
21
5.916074
0
LINE
8
Calque 1
10
64.469885
20
5.916074
11
59.860197
21
4.028073
0
LINE
8
Calque 1
10
59.860197
20
4.028073
11
55.254088
21
2.311234
0
LINE
8
Calque 1
10
55.254088
20
2.311234
11
50.648845
21
0.764485
0
LINE
8
Calque 1
10
50.648845
20
0.764485
11
46.041753
21
-0.613245
0
LINE
8
Calque 1
10
46.041753
20
-0.613245
11
41.430099
21
-1.823026
0
LINE
8
Calque 1
10
41.430099
20
-1.823026
11
36.811168
21
-2.865930
0
LINE
8
Calque 1
10
36.811168
20
-2.865930
11
32.182247
21
-3.743027
0
LINE
8
Calque 1
10
32.182247
20
-3.743027
11
27.540623
21
-4.455389
0
LINE
8
Calque 1
10
27.540623
20
-4.455389
11
22.883580
21
-5.004086
0
LINE
8
Calque 1
10
22.883580
20
-5.004086
11
18.210325
21
-5.390190
0
LINE
8
Calque 1
10
18.210325
20
-5.390190
11
13.520040
21
-5.614990
0
LINE
8
Calque 1
10
13.520040
20
-5.614990
11
8.810006
21
-5.679787
0
LINE
8
Calque 1
10
8.810006
20
-5.679787
11
4.077501
21
-5.585882
0
LINE
8
Calque 1
10
4.077501
20
-5.585882
11
-0.680193
21
-5.334574
0
LINE
8
Calque 1
10
-0.680193
20
-5.334574
11
-5.465796
21
-4.927165
0
LINE
8
Calque 1
10
-5.465796
20
-4.927165
11
-15.131612
21
-3.649245
0
LINE
8
Calque 1
10
-15.131612
20
-3.649245
11
-24.941706
21
-1.762524
0
LINE
8
Calque 1
10
-24.941706
20
-1.762524
11
-34.917839
21
0.722592
0
LINE
8
Calque 1
10
-34.917839
20
0.722592
11
-45.081769
21
3.795700
0
LINE
8
Calque 1
10
-45.081769
20
3.795700
11
-55.455257
21
7.446395
0
LINE
8
Calque 1
10
-55.455257
20
7.446395
11
-66.060063
21
11.664274
0
LINE
8
Calque 1
10
-66.060063
20
11.664274
11
-76.917946
21
16.438932
0
LINE
8
Calque 1
10
-76.917946
20
16.438932
11
-88.050667
21
21.759965
0
LINE
8
Calque 1
10
-88.050667
20
21.759965
11
-99.479984
21
27.616969
0
LINE
8
Calque 1
10
-99.479984
20
27.616969
11
-111.227658
21
33.999541
0
LINE
8
Calque 1
10
-111.227658
20
33.999541
11
-123.315449
21
40.897274
0
LINE
8
Calque 1
10
-123.315449
20
40.897274
11
-135.765116
21
48.299767
0
LINE
8
Calque 1
10
-135.765116
20
48.299767
11
-148.598420
21
56.196614
0
LINE
8
Calque 1
10
-148.598420
20
56.196614
11
-155.042873
21
60.133466
0
LINE
8
Calque 1
10
-155.042873
20
60.133466
11
-161.432379
21
63.862390
0
LINE
8
Calque 1
10
-161.432379
20
63.862390
11
-174.040618
21
70.715193
0
LINE
8
Calque 1
10
-174.040618
20
70.715193
11
-186.411262
21
76.792509
0
LINE
8
Calque 1
10
-186.411262
20
76.792509
11
-198.532439
21
82.131819
0
LINE
8
Calque 1
10
-198.532439
20
82.131819
11
-210.392276
21
86.770607
0
LINE
8
Calque 1
10
-210.392276
20
86.770607
11
-221.978900
21
90.746357
0
LINE
8
Calque 1
10
-221.978900
20
90.746357
11
-233.280439
21
94.096553
0
LINE
8
Calque 1
10
-233.280439
20
94.096553
11
-244.285020
21
96.858677
0
LINE
8
Calque 1
10
-244.285020
20
96.858677
11
-254.980769
21
99.070213
0
LINE
8
Calque 1
10
-254.980769
20
99.070213
11
-265.355815
21
100.768644
0
LINE
8
Calque 1
10
-265.355815
20
100.768644
11
-275.398283
21
101.991455
0
LINE
8
Calque 1
10
-275.398283
20
101.991455
11
-285.096301
21
102.776128
0
LINE
8
Calque 1
10
-285.096301
20
102.776128
11
-294.437997
21
103.160147
0
LINE
8
Calque 1
10
-294.437997
20
103.160147
11
-303.411497
21
103.180995
0
LINE
8
Calque 1
10
-303.411497
20
103.180995
11
-312.004929
21
102.876157
0
LINE
8
Calque 1
10
-312.004929
20
102.876157
11
-320.206420
21
102.283114
0
LINE
8
Calque 1
10
-320.206420
20
102.283114
11
-328.002171
21
101.439816
0
LINE
8
Calque 1
10
-328.002171
20
101.439816
11
-335.378536
21
100.383805
0
LINE
8
Calque 1
10
-335.378536
20
100.383805
11
-342.323986
21
99.151940
0
LINE
8
Calque 1
10
-342.323986
20
99.151940
11
-348.826989
21
97.781076
0
LINE
8
Calque 1
10
-348.826989
20
97.781076
11
-354.876014
21
96.308073
0
LINE
8
Calque 1
10
-354.876014
20
96.308073
11
-360.459532
21
94.769788
0
LINE
8
Calque 1
10
-360.459532
20
94.769788
11
-365.566011
21
93.203079
0
LINE
8
Calque 1
10
-365.566011
20
93.203079
11
-370.183920
21
91.644803
0
LINE
8
Calque 1
10
-370.183920
20
91.644803
11
-377.907908
21
88.700981
0
LINE
8
Calque 1
10
-377.907908
20
88.700981
11
-383.539251
21
86.233185
0
LINE
8
Calque 1
10
-383.539251
20
86.233185
11
-388.155020
21
83.905114
0
LINE
8
Calque 1
10
-388.155020
20
83.905114
11
-388.828390
21
83.519384
0
LINE
8
Calque 1
10
-388.828390
20
83.519384
11
-392.320470
21
106.671484
0
LINE
8
Calque 1
10
-392.320470
20
106.671484
11
-390.563052
21
107.600046
0
LINE
8
Calque 1
10
-390.563052
20
107.600046
11
-386.688518
21
109.458152
0
LINE
8
Calque 1
10
-386.688518
20
109.458152
11
-380.776224
21
111.979594
0
LINE
8
Calque 1
10
-380.776224
20
111.979594
11
-372.905524
21
114.898162
0
LINE
8
Calque 1
10
-372.905524
20
114.898162
11
-363.155773
21
117.947644
0
LINE
8
Calque 1
10
-363.155773
20
117.947644
11
-357.601053
21
119.438288
0
LINE
8
Calque 1
10
-357.601053
20
119.438288
11
-351.606328
21
120.861832
0
LINE
8
Calque 1
10
-351.606328
20
120.861832
11
-345.181517
21
122.185000
0
LINE
8
Calque 1
10
-345.181517
20
122.185000
11
-338.336542
21
123.374515
0
LINE
8
Calque 1
10
-338.336542
20
123.374515
11
-331.081319
21
124.397102
0
LINE
8
Calque 1
10
-331.081319
20
124.397102
11
-323.425770
21
125.219484
0
LINE
8
Calque 1
10
-323.425770
20
125.219484
11
-315.079170
21
125.822184
0
LINE
8
Calque 1
10
-315.079170
20
125.822184
11
-306.335798
21
126.130219
0
LINE
8
Calque 1
10
-306.335798
20
126.130219
11
-297.208279
21
126.106159
0
LINE
8
Calque 1
10
-297.208279
20
126.106159
11
-287.709240
21
125.712571
0
LINE
8
Calque 1
10
-287.709240
20
125.712571
11
-277.851306
21
124.912026
0
LINE
8
Calque 1
10
-277.851306
20
124.912026
11
-267.647101
21
123.667092
0
LINE
8
Calque 1
10
-267.647101
20
123.667092
11
-257.109252
21
121.940339
0
LINE
8
Calque 1
10
-257.109252
20
121.940339
11
-246.250382
21
119.694335
0
LINE
8
Calque 1
10
-246.250382
20
119.694335
11
-235.083119
21
116.891650
0
LINE
8
Calque 1
10
-235.083119
20
116.891650
11
-223.620087
21
113.494853
0
LINE
8
Calque 1
10
-223.620087
20
113.494853
11
-211.873912
21
109.466513
0
LINE
8
Calque 1
10
-211.873912
20
109.466513
11
-199.857218
21
104.769199
0
LINE
8
Calque 1
10
-199.857218
20
104.769199
11
-187.582632
21
99.365480
0
LINE
8
Calque 1
10
-187.582632
20
99.365480
11
-175.062778
21
93.217925
0
LINE
8
Calque 1
10
-175.062778
20
93.217925
11
-168.714822
21
89.853512
0
LINE
8
Calque 1
10
-168.714822
20
89.853512
11
-162.310283
21
86.289103
0
LINE
8
Calque 1
10
-162.310283
20
86.289103
11
-155.850739
21
82.520020
0
LINE
8
Calque 1
10
-155.850739
20
82.520020
11
-149.337770
21
78.541584
0
LINE
8
Calque 1
10
-149.337770
20
78.541584
11
-136.554768
21
70.676829
0
LINE
8
Calque 1
10
-136.554768
20
70.676829
11
-124.168925
21
63.315155
0
LINE
8
Calque 1
10
-124.168925
20
63.315155
11
-112.158644
21
56.465228
0
LINE
8
Calque 1
10
-112.158644
20
56.465228
11
-100.502325
21
50.135715
0
LINE
8
Calque 1
10
-100.502325
20
50.135715
11
-89.178370
21
44.335283
0
LINE
8
Calque 1
10
-89.178370
20
44.335283
11
-78.165181
21
39.072597
0
LINE
8
Calque 1
10
-78.165181
20
39.072597
11
-67.441160
21
34.356326
0
LINE
8
Calque 1
10
-67.441160
20
34.356326
11
-56.984707
21
30.195134
0
LINE
8
Calque 1
10
-56.984707
20
30.195134
11
-46.774226
21
26.597689
0
LINE
8
Calque 1
10
-46.774226
20
26.597689
11
-36.788117
21
23.572658
0
LINE
8
Calque 1
10
-36.788117
20
23.572658
11
-27.004781
21
21.128707
0
LINE
8
Calque 1
10
-27.004781
20
21.128707
11
-17.402622
21
19.274503
0
LINE
8
Calque 1
10
-17.402622
20
19.274503
11
-7.960039
21
18.018712
0
LINE
8
Calque 1
10
-7.960039
20
18.018712
11
-3.291840
21
17.617929
0
LINE
8
Calque 1
10
-3.291840
20
17.617929
11
1.344565
21
17.370000
0
LINE
8
Calque 1
10
1.344565
20
17.370000
11
5.951874
21
17.276008
0
LINE
8
Calque 1
10
5.951874
20
17.276008
11
10.532788
21
17.337036
0
LINE
8
Calque 1
10
10.532788
20
17.337036
11
15.090007
21
17.554167
0
LINE
8
Calque 1
10
15.090007
20
17.554167
11
19.626230
21
17.928484
0
LINE
8
Calque 1
10
19.626230
20
17.928484
11
24.146129
21
18.461114
0
LINE
8
Calque 1
10
24.146129
20
18.461114
11
28.654285
21
19.153338
0
LINE
8
Calque 1
10
28.654285
20
19.153338
11
33.153404
21
20.006469
0
LINE
8
Calque 1
10
33.153404
20
20.006469
11
37.646194
21
21.021819
0
LINE
8
Calque 1
10
37.646194
20
21.021819
11
42.135360
21
22.200700
0
LINE
8
Calque 1
10
42.135360
20
22.200700
11
46.623607
21
23.544423
0
LINE
8
Calque 1
10
46.623607
20
23.544423
11
51.113643
21
25.054302
0
LINE
8
Calque 1
10
51.113643
20
25.054302
11
55.608174
21
26.731647
0
LINE
8
Calque 1
10
55.608174
20
26.731647
11
60.109905
21
28.577772
0
LINE
8
Calque 1
10
60.109905
20
28.577772
11
64.621543
21
30.593988
0
LINE
8
Calque 1
10
64.621543
20
30.593988
11
73.685363
21
35.141942
0
LINE
8
Calque 1
10
73.685363
20
35.141942
11
82.821284
21
40.386006
0
LINE
8
Calque 1
10
82.821284
20
40.386006
11
92.050955
21
46.336677
0
LINE
8
Calque 1
10
92.050955
20
46.336677
11
101.396025
21
53.004450
0
LINE
8
Calque 1
10
101.396025
20
53.004450
11
110.878144
21
60.399824
0
LINE
8
Calque 1
10
110.878144
20
60.399824
11
120.518960
21
68.533295
0
LINE
8
Calque 1
10
120.518960
20
68.533295
11
130.340124
21
77.415359
0
LINE
8
Calque 1
10
130.340124
20
77.415359
11
140.363283
21
87.056514
0
LINE
8
Calque 1
10
140.363283
20
87.056514
11
150.610088
21
97.467255
0
LINE
8
Calque 1
10
150.610088
20
97.467255
11
161.102187
21
108.658079
0
LINE
8
Calque 1
10
161.102187
20
108.658079
11
171.861230
21
120.639484
0
LINE
8
Calque 1
10
171.861230
20
120.639484
11
182.768665
21
132.658848
0
LINE
8
Calque 1
10
182.768665
20
132.658848
11
193.552294
21
143.829712
0
LINE
8
Calque 1
10
193.552294
20
143.829712
11
204.197645
21
154.182599
0
LINE
8
Calque 1
10
204.197645
20
154.182599
11
214.690243
21
163.748029
0
LINE
8
Calque 1
10
214.690243
20
163.748029
11
225.015614
21
172.556525
0
LINE
8
Calque 1
10
225.015614
20
172.556525
11
235.159285
21
180.638608
0
LINE
8
Calque 1
10
235.159285
20
180.638608
11
245.106781
21
188.024800
0
LINE
8
Calque 1
10
245.106781
20
188.024800
11
254.843630
21
194.745622
0
LINE
8
Calque 1
10
254.843630
20
194.745622
11
264.355357
21
200.831595
0
LINE
8
Calque 1
10
264.355357
20
200.831595
11
273.627488
21
206.313243
0
LINE
8
Calque 1
10
273.627488
20
206.313243
11
282.645549
21
211.221085
0
LINE
8
Calque 1
10
282.645549
20
211.221085
11
291.395068
21
215.585645
0
LINE
8
Calque 1
10
291.395068
20
215.585645
11
299.861568
21
219.437443
0
LINE
8
Calque 1
10
299.861568
20
219.437443
11
308.030578
21
222.807001
0
LINE
8
Calque 1
10
308.030578
20
222.807001
11
315.887624
21
225.724841
0
LINE
8
Calque 1
10
315.887624
20
225.724841
11
323.418230
21
228.221484
0
LINE
8
Calque 1
10
323.418230
20
228.221484
11
330.610318
21
230.326983
0
LINE
8
Calque 1
10
330.610318
20
230.326983
11
337.450948
21
232.071852
0
LINE
8
Calque 1
10
337.450948
20
232.071852
11
343.924643
21
233.487092
0
LINE
8
Calque 1
10
343.924643
20
233.487092
11
350.015930
21
234.603704
0
LINE
8
Calque 1
10
350.015930
20
234.603704
11
350.017000
21
234.604000
0
LINE
8
Calque 1
10
-394.322000
20
261.116000
11
-394.164821
21
261.894257
0
LINE
8
Calque 1
10
-394.164821
20
261.894257
11
-393.736188
21
262.529934
0
LINE
8
Calque 1
10
-393.736188
20
262.529934
11
-393.100453
21
262.958639
0
LINE
8
Calque 1
10
-393.100453
20
262.958639
11
-392.321970
21
263.115980
0
LINE
8
Calque 1
10
-392.321970
20
263.115980
11
-391.543237
21
262.958822
0
LINE
8
Calque 1
10
-391.543237
20
262.958822
11
-390.907371
21
262.530227
0
LINE
8
Calque 1
10
-390.907371
20
262.530227
11
-390.478687
21
261.894514
0
LINE
8
Calque 1
10
-390.478687
20
261.894514
11
-390.321500
21
261.116000
0
LINE
8
Calque 1
10
-390.321500
20
261.116000
11
-390.478687
21
260.337253
0
LINE
8
Calque 1
10
-390.478687
20
260.337253
11
-390.907371
21
259.701306
0
LINE
8
Calque 1
10
-390.907371
20
259.701306
11
-391.543237
21
259.272579
0
LINE
8
Calque 1
10
-391.543237
20
259.272579
11
-392.321970
21
259.115490
0
LINE
8
Calque 1
10
-392.321970
20
259.115490
11
-393.100453
21
259.272694
0
LINE
8
Calque 1
10
-393.100453
20
259.272694
11
-393.736188
21
259.701409
0
LINE
8
Calque 1
10
-393.736188
20
259.701409
11
-394.164821
21
260.337292
0
LINE
8
Calque 1
10
-394.164821
20
260.337292
11
-394.322000
21
261.116000
0
LINE
8
Calque 1
10
-394.322000
20
261.116000
11
-394.322000
21
261.116000
0
LINE
8
Calque 1
10
-380.321600
20
261.116000
11
-380.164390
21
261.894257
0
LINE
8
Calque 1
10
-380.164390
20
261.894257
11
-379.735705
21
262.529934
0
LINE
8
Calque 1
10
-379.735705
20
262.529934
11
-379.099960
21
262.958639
0
LINE
8
Calque 1
10
-379.099960
20
262.958639
11
-378.321570
21
263.115980
0
LINE
8
Calque 1
10
-378.321570
20
263.115980
11
-377.543116
21
262.958822
0
LINE
8
Calque 1
10
-377.543116
20
262.958822
11
-376.907219
21
262.530227
0
LINE
8
Calque 1
10
-376.907219
20
262.530227
11
-376.478380
21
261.894514
0
LINE
8
Calque 1
10
-376.478380
20
261.894514
11
-376.321100
21
261.116000
0
LINE
8
Calque 1
10
-376.321100
20
261.116000
11
-376.478287
21
260.337253
0
LINE
8
Calque 1
10
-376.478287
20
260.337253
11
-376.906971
21
259.701306
0
LINE
8
Calque 1
10
-376.906971
20
259.701306
11
-377.542837
21
259.272579
0
LINE
8
Calque 1
10
-377.542837
20
259.272579
11
-378.321570
21
259.115490
0
LINE
8
Calque 1
10
-378.321570
20
259.115490
11
-379.100145
21
259.272694
0
LINE
8
Calque 1
10
-379.100145
20
259.272694
11
-379.735870
21
259.701409
0
LINE
8
Calque 1
10
-379.735870
20
259.701409
11
-380.164452
21
260.337292
0
LINE
8
Calque 1
10
-380.164452
20
260.337292
11
-380.321600
21
261.116000
0
LINE
8
Calque 1
10
-380.321600
20
261.116000
11
-380.321600
21
261.116000
0
LINE
8
Calque 1
10
-389.819000
20
271.115000
11
490.181000
21
271.115000
0
LINE
8
Calque 1
10
490.181000
20
271.115000
11
492.201273
21
270.912539
0
LINE
8
Calque 1
10
492.201273
20
270.912539
11
494.080688
21
270.331563
0
LINE
8
Calque 1
10
494.080688
20
270.331563
11
495.779633
21
269.411680
0
LINE
8
Calque 1
10
495.779633
20
269.411680
11
497.258500
21
268.192500
0
LINE
8
Calque 1
10
497.258500
20
268.192500
11
498.477680
21
266.713633
0
LINE
8
Calque 1
10
498.477680
20
266.713633
11
499.397562
21
265.014687
0
LINE
8
Calque 1
10
499.397562
20
265.014687
11
499.978539
21
263.135273
0
LINE
8
Calque 1
10
499.978539
20
263.135273
11
500.181000
21
261.115000
0
LINE
8
Calque 1
10
500.181000
20
261.115000
11
499.978539
21
259.094727
0
LINE
8
Calque 1
10
499.978539
20
259.094727
11
499.397562
21
257.215313
0
LINE
8
Calque 1
10
499.397562
20
257.215313
11
498.477680
21
255.516367
0
LINE
8
Calque 1
10
498.477680
20
255.516367
11
497.258500
21
254.037500
0
LINE
8
Calque 1
10
497.258500
20
254.037500
11
495.779633
21
252.818320
0
LINE
8
Calque 1
10
495.779633
20
252.818320
11
494.080688
21
251.898438
0
LINE
8
Calque 1
10
494.080688
20
251.898438
11
492.201273
21
251.317461
0
LINE
8
Calque 1
10
492.201273
20
251.317461
11
490.181000
21
251.115000
0
LINE
8
Calque 1
10
490.181000
20
251.115000
11
-389.819000
21
251.115000
0
LINE
8
Calque 1
10
-389.819000
20
251.115000
11
-391.839273
21
251.317461
0
LINE
8
Calque 1
10
-391.839273
20
251.317461
11
-393.718688
21
251.898438
0
LINE
8
Calque 1
10
-393.718688
20
251.898438
11
-395.417633
21
252.818320
0
LINE
8
Calque 1
10
-395.417633
20
252.818320
11
-396.896500
21
254.037500
0
LINE
8
Calque 1
10
-396.896500
20
254.037500
11
-398.115680
21
255.516367
0
LINE
8
Calque 1
10
-398.115680
20
255.516367
11
-399.035563
21
257.215313
0
LINE
8
Calque 1
10
-399.035563
20
257.215313
11
-399.616539
21
259.094727
0
LINE
8
Calque 1
10
-399.616539
20
259.094727
11
-399.819000
21
261.115000
0
LINE
8
Calque 1
10
-399.819000
20
261.115000
11
-399.616539
21
263.135273
0
LINE
8
Calque 1
10
-399.616539
20
263.135273
11
-399.035563
21
265.014687
0
LINE
8
Calque 1
10
-399.035563
20
265.014687
11
-398.115680
21
266.713633
0
LINE
8
Calque 1
10
-398.115680
20
266.713633
11
-396.896500
21
268.192500
0
LINE
8
Calque 1
10
-396.896500
20
268.192500
11
-395.417633
21
269.411680
0
LINE
8
Calque 1
10
-395.417633
20
269.411680
11
-393.718688
21
270.331563
0
LINE
8
Calque 1
10
-393.718688
20
270.331563
11
-391.839273
21
270.912539
0
LINE
8
Calque 1
10
-391.839273
20
270.912539
11
-389.819000
21
271.115000
0
LINE
8
Calque 1
10
-389.819000
20
271.115000
11
-389.819000
21
271.115000
0
LINE
8
Calque 1
10
-394.322000
20
286.407000
11
-394.164854
21
287.185257
0
LINE
8
Calque 1
10
-394.164854
20
287.185257
11
-393.736292
21
287.820934
0
LINE
8
Calque 1
10
-393.736292
20
287.820934
11
-393.100630
21
288.249639
0
LINE
8
Calque 1
10
-393.100630
20
288.249639
11
-392.322180
21
288.406980
0
LINE
8
Calque 1
10
-392.322180
20
288.406980
11
-391.543415
21
288.249822
0
LINE
8
Calque 1
10
-391.543415
20
288.249822
11
-390.907476
21
287.821226
0
LINE
8
Calque 1
10
-390.907476
20
287.821226
11
-390.478720
21
287.185513
0
LINE
8
Calque 1
10
-390.478720
20
287.185513
11
-390.321500
21
286.407000
0
LINE
8
Calque 1
10
-390.321500
20
286.407000
11
-390.478720
21
285.628253
0
LINE
8
Calque 1
10
-390.478720
20
285.628253
11
-390.907476
21
284.992306
0
LINE
8
Calque 1
10
-390.907476
20
284.992306
11
-391.543415
21
284.563579
0
LINE
8
Calque 1
10
-391.543415
20
284.563579
11
-392.322180
21
284.406490
0
LINE
8
Calque 1
10
-392.322180
20
284.406490
11
-393.100630
21
284.563694
0
LINE
8
Calque 1
10
-393.100630
20
284.563694
11
-393.736292
21
284.992409
0
LINE
8
Calque 1
10
-393.736292
20
284.992409
11
-394.164854
21
285.628292
0
LINE
8
Calque 1
10
-394.164854
20
285.628292
11
-394.322000
21
286.407000
0
LINE
8
Calque 1
10
-394.322000
20
286.407000
11
-394.322000
21
286.407000
0
LINE
8
Calque 1
10
-380.321600
20
286.407000
11
-380.164425
21
287.185257
0
LINE
8
Calque 1
10
-380.164425
20
287.185257
11
-379.735815
21
287.820934
0
LINE
8
Calque 1
10
-379.735815
20
287.820934
11
-379.100145
21
288.249639
0
LINE
8
Calque 1
10
-379.100145
20
288.249639
11
-378.321790
21
288.406980
0
LINE
8
Calque 1
10
-378.321790
20
288.406980
11
-377.543209
21
288.249822
0
LINE
8
Calque 1
10
-377.543209
20
288.249822
11
-376.907246
21
287.821226
0
LINE
8
Calque 1
10
-376.907246
20
287.821226
11
-376.478383
21
287.185513
0
LINE
8
Calque 1
10
-376.478383
20
287.185513
11
-376.321100
21
286.407000
0
LINE
8
Calque 1
10
-376.321100
20
286.407000
11
-376.478321
21
285.628253
0
LINE
8
Calque 1
10
-376.478321
20
285.628253
11
-376.907081
21
284.992306
0
LINE
8
Calque 1
10
-376.907081
20
284.992306
11
-377.543023
21
284.563579
0
LINE
8
Calque 1
10
-377.543023
20
284.563579
11
-378.321790
21
284.406490
0
LINE
8
Calque 1
10
-378.321790
20
284.406490
11
-379.100238
21
284.563694
0
LINE
8
Calque 1
10
-379.100238
20
284.563694
11
-379.735897
21
284.992409
0
LINE
8
Calque 1
10
-379.735897
20
284.992409
11
-380.164456
21
285.628292
0
LINE
8
Calque 1
10
-380.164456
20
285.628292
11
-380.321600
21
286.407000
0
LINE
8
Calque 1
10
-380.321600
20
286.407000
11
-380.321600
21
286.407000
0
LINE
8
Calque 1
10
-389.819000
20
296.407000
11
490.181000
21
296.407000
0
LINE
8
Calque 1
10
490.181000
20
296.407000
11
492.201273
21
296.204539
0
LINE
8
Calque 1
10
492.201273
20
296.204539
11
494.080688
21
295.623562
0
LINE
8
Calque 1
10
494.080688
20
295.623562
11
495.779633
21
294.703680
0
LINE
8
Calque 1
10
495.779633
20
294.703680
11
497.258500
21
293.484500
0
LINE
8
Calque 1
10
497.258500
20
293.484500
11
498.477680
21
292.005633
0
LINE
8
Calque 1
10
498.477680
20
292.005633
11
499.397562
21
290.306688
0
LINE
8
Calque 1
10
499.397562
20
290.306688
11
499.978539
21
288.427273
0
LINE
8
Calque 1
10
499.978539
20
288.427273
11
500.181000
21
286.407000
0
LINE
8
Calque 1
10
500.181000
20
286.407000
11
499.978539
21
284.386727
0
LINE
8
Calque 1
10
499.978539
20
284.386727
11
499.397562
21
282.507312
0
LINE
8
Calque 1
10
499.397562
20
282.507312
11
498.477680
21
280.808367
0
LINE
8
Calque 1
10
498.477680
20
280.808367
11
497.258500
21
279.329500
0
LINE
8
Calque 1
10
497.258500
20
279.329500
11
495.779633
21
278.110320
0
LINE
8
Calque 1
10
495.779633
20
278.110320
11
494.080688
21
277.190437
0
LINE
8
Calque 1
10
494.080688
20
277.190437
11
492.201273
21
276.609461
0
LINE
8
Calque 1
10
492.201273
20
276.609461
11
490.181000
21
276.407000
0
LINE
8
Calque 1
10
490.181000
20
276.407000
11
-389.819000
21
276.407000
0
LINE
8
Calque 1
10
-389.819000
20
276.407000
11
-391.839273
21
276.609461
0
LINE
8
Calque 1
10
-391.839273
20
276.609461
11
-393.718688
21
277.190437
0
LINE
8
Calque 1
10
-393.718688
20
277.190437
11
-395.417633
21
278.110320
0
LINE
8
Calque 1
10
-395.417633
20
278.110320
11
-396.896500
21
279.329500
0
LINE
8
Calque 1
10
-396.896500
20
279.329500
11
-398.115680
21
280.808367
0
LINE
8
Calque 1
10
-398.115680
20
280.808367
11
-399.035563
21
282.507312
0
LINE
8
Calque 1
10
-399.035563
20
282.507312
11
-399.616539
21
284.386727
0
LINE
8
Calque 1
10
-399.616539
20
284.386727
11
-399.819000
21
286.407000
0
LINE
8
Calque 1
10
-399.819000
20
286.407000
11
-399.616539
21
288.427273
0
LINE
8
Calque 1
10
-399.616539
20
288.427273
11
-399.035563
21
290.306688
0
LINE
8
Calque 1
10
-399.035563
20
290.306688
11
-398.115680
21
292.005633
0
LINE
8
Calque 1
10
-398.115680
20
292.005633
11
-396.896500
21
293.484500
0
LINE
8
Calque 1
10
-396.896500
20
293.484500
11
-395.417633
21
294.703680
0
LINE
8
Calque 1
10
-395.417633
20
294.703680
11
-393.718688
21
295.623562
0
LINE
8
Calque 1
10
-393.718688
20
295.623562
11
-391.839273
21
296.204539
0
LINE
8
Calque 1
10
-391.839273
20
296.204539
11
-389.819000
21
296.407000
0
LINE
8
Calque 1
10
-389.819000
20
296.407000
11
-389.819000
21
296.407000
0
LINE
8
Calque 1
10
-394.321000
20
311.699000
11
-394.163820
21
312.477257
0
LINE
8
Calque 1
10
-394.163820
20
312.477257
11
-393.735184
21
313.112935
0
LINE
8
Calque 1
10
-393.735184
20
313.112935
11
-393.099448
21
313.541643
0
LINE
8
Calque 1
10
-393.099448
20
313.541643
11
-392.320970
21
313.698990
0
LINE
8
Calque 1
10
-392.320970
20
313.698990
11
-391.542233
21
313.541832
0
LINE
8
Calque 1
10
-391.542233
20
313.541832
11
-390.906368
21
313.113235
0
LINE
8
Calque 1
10
-390.906368
20
313.113235
11
-390.477686
21
312.477518
0
LINE
8
Calque 1
10
-390.477686
20
312.477518
11
-390.320500
21
311.699000
0
LINE
8
Calque 1
10
-390.320500
20
311.699000
11
-390.477686
21
310.920257
0
LINE
8
Calque 1
10
-390.477686
20
310.920257
11
-390.906368
21
310.284310
0
LINE
8
Calque 1
10
-390.906368
20
310.284310
11
-391.542233
21
309.855581
0
LINE
8
Calque 1
10
-391.542233
20
309.855581
11
-392.320970
21
309.698490
0
LINE
8
Calque 1
10
-392.320970
20
309.698490
11
-393.099448
21
309.855695
0
LINE
8
Calque 1
10
-393.099448
20
309.855695
11
-393.735184
21
310.284413
0
LINE
8
Calque 1
10
-393.735184
20
310.284413
11
-394.163820
21
310.920297
0
LINE
8
Calque 1
10
-394.163820
20
310.920297
11
-394.321000
21
311.699000
0
LINE
8
Calque 1
10
-394.321000
20
311.699000
11
-394.321000
21
311.699000
0
LINE
8
Calque 1
10
-380.320600
20
311.699000
11
-380.163390
21
312.477257
0
LINE
8
Calque 1
10
-380.163390
20
312.477257
11
-379.734705
21
313.112935
0
LINE
8
Calque 1
10
-379.734705
20
313.112935
11
-379.098960
21
313.541643
0
LINE
8
Calque 1
10
-379.098960
20
313.541643
11
-378.320570
21
313.698990
0
LINE
8
Calque 1
10
-378.320570
20
313.698990
11
-377.542116
21
313.541832
0
LINE
8
Calque 1
10
-377.542116
20
313.541832
11
-376.906219
21
313.113235
0
LINE
8
Calque 1
10
-376.906219
20
313.113235
11
-376.477380
21
312.477518
0
LINE
8
Calque 1
10
-376.477380
20
312.477518
11
-376.320100
21
311.699000
0
LINE
8
Calque 1
10
-376.320100
20
311.699000
11
-376.477287
21
310.920257
0
LINE
8
Calque 1
10
-376.477287
20
310.920257
11
-376.905971
21
310.284310
0
LINE
8
Calque 1
10
-376.905971
20
310.284310
11
-377.541837
21
309.855581
0
LINE
8
Calque 1
10
-377.541837
20
309.855581
11
-378.320570
21
309.698490
0
LINE
8
Calque 1
10
-378.320570
20
309.698490
11
-379.099145
21
309.855695
0
LINE
8
Calque 1
10
-379.099145
20
309.855695
11
-379.734870
21
310.284413
0
LINE
8
Calque 1
10
-379.734870
20
310.284413
11
-380.163452
21
310.920297
0
LINE
8
Calque 1
10
-380.163452
20
310.920297
11
-380.320600
21
311.699000
0
LINE
8
Calque 1
10
-380.320600
20
311.699000
11
-380.320600
21
311.699000
0
LINE
8
Calque 1
10
-389.819000
20
321.699000
11
490.181000
21
321.699000
0
LINE
8
Calque 1
10
490.181000
20
321.699000
11
492.201273
21
321.496539
0
LINE
8
Calque 1
10
492.201273
20
321.496539
11
494.080688
21
320.915563
0
LINE
8
Calque 1
10
494.080688
20
320.915563
11
495.779633
21
319.995680
0
LINE
8
Calque 1
10
495.779633
20
319.995680
11
497.258500
21
318.776500
0
LINE
8
Calque 1
10
497.258500
20
318.776500
11
498.477680
21
317.297633
0
LINE
8
Calque 1
10
498.477680
20
317.297633
11
499.397562
21
315.598688
0
LINE
8
Calque 1
10
499.397562
20
315.598688
11
499.978539
21
313.719273
0
LINE
8
Calque 1
10
499.978539
20
313.719273
11
500.181000
21
311.699000
0
LINE
8
Calque 1
10
500.181000
20
311.699000
11
499.978539
21
309.678727
0
LINE
8
Calque 1
10
499.978539
20
309.678727
11
499.397562
21
307.799312
0
LINE
8
Calque 1
10
499.397562
20
307.799312
11
498.477680
21
306.100367
0
LINE
8
Calque 1
10
498.477680
20
306.100367
11
497.258500
21
304.621500
0
LINE
8
Calque 1
10
497.258500
20
304.621500
11
495.779633
21
303.402320
0
LINE
8
Calque 1
10
495.779633
20
303.402320
11
494.080688
21
302.482438
0
LINE
8
Calque 1
10
494.080688
20
302.482438
11
492.201273
21
301.901461
0
LINE
8
Calque 1
10
492.201273
20
301.901461
11
490.181000
21
301.699000
0
LINE
8
Calque 1
10
490.181000
20
301.699000
11
-389.819000
21
301.699000
0
LINE
8
Calque 1
10
-389.819000
20
301.699000
11
-391.839273
21
301.901461
0
LINE
8
Calque 1
10
-391.839273
20
301.901461
11
-393.718688
21
302.482438
0
LINE
8
Calque 1
10
-393.718688
20
302.482438
11
-395.417633
21
303.402320
0
LINE
8
Calque 1
10
-395.417633
20
303.402320
11
-396.896500
21
304.621500
0
LINE
8
Calque 1
10
-396.896500
20
304.621500
11
-398.115680
21
306.100367
0
LINE
8
Calque 1
10
-398.115680
20
306.100367
11
-399.035563
21
307.799312
0
LINE
8
Calque 1
10
-399.035563
20
307.799312
11
-399.616539
21
309.678727
0
LINE
8
Calque 1
10
-399.616539
20
309.678727
11
-399.819000
21
311.699000
0
LINE
8
Calque 1
10
-399.819000
20
311.699000
11
-399.616539
21
313.719273
0
LINE
8
Calque 1
10
-399.616539
20
313.719273
11
-399.035563
21
315.598688
0
LINE
8
Calque 1
10
-399.035563
20
315.598688
11
-398.115680
21
317.297633
0
LINE
8
Calque 1
10
-398.115680
20
317.297633
11
-396.896500
21
318.776500
0
LINE
8
Calque 1
10
-396.896500
20
318.776500
11
-395.417633
21
319.995680
0
LINE
8
Calque 1
10
-395.417633
20
319.995680
11
-393.718688
21
320.915563
0
LINE
8
Calque 1
10
-393.718688
20
320.915563
11
-391.839273
21
321.496539
0
LINE
8
Calque 1
10
-391.839273
20
321.496539
11
-389.819000
21
321.699000
0
LINE
8
Calque 1
10
-389.819000
20
321.699000
11
-389.819000
21
321.699000
0
LINE
8
Calque 1
10
-394.321000
20
336.991000
11
-394.163854
21
337.769257
0
LINE
8
Calque 1
10
-394.163854
20
337.769257
11
-393.735294
21
338.404934
0
LINE
8
Calque 1
10
-393.735294
20
338.404934
11
-393.099634
21
338.833639
0
LINE
8
Calque 1
10
-393.099634
20
338.833639
11
-392.321190
21
338.990980
0
LINE
8
Calque 1
10
-392.321190
20
338.990980
11
-391.542419
21
338.833823
0
LINE
8
Calque 1
10
-391.542419
20
338.833823
11
-390.906477
21
338.405230
0
LINE
8
Calque 1
10
-390.906477
20
338.405230
11
-390.477720
21
337.769517
0
LINE
8
Calque 1
10
-390.477720
20
337.769517
11
-390.320500
21
336.991000
0
LINE
8
Calque 1
10
-390.320500
20
336.991000
11
-390.477720
21
336.212257
0
LINE
8
Calque 1
10
-390.477720
20
336.212257
11
-390.906477
21
335.576309
0
LINE
8
Calque 1
10
-390.906477
20
335.576309
11
-391.542419
21
335.147576
0
LINE
8
Calque 1
10
-391.542419
20
335.147576
11
-392.321190
21
334.990480
0
LINE
8
Calque 1
10
-392.321190
20
334.990480
11
-393.099634
21
335.147686
0
LINE
8
Calque 1
10
-393.099634
20
335.147686
11
-393.735294
21
335.576406
0
LINE
8
Calque 1
10
-393.735294
20
335.576406
11
-394.163854
21
336.212293
0
LINE
8
Calque 1
10
-394.163854
20
336.212293
11
-394.321000
21
336.991000
0
LINE
8
Calque 1
10
-394.321000
20
336.991000
11
-394.321000
21
336.991000
0
LINE
8
Calque 1
10
-380.320600
20
336.991000
11
-380.163425
21
337.769257
0
LINE
8
Calque 1
10
-380.163425
20
337.769257
11
-379.734815
21
338.404934
0
LINE
8
Calque 1
10
-379.734815
20
338.404934
11
-379.099145
21
338.833639
0
LINE
8
Calque 1
10
-379.099145
20
338.833639
11
-378.320790
21
338.990980
0
LINE
8
Calque 1
10
-378.320790
20
338.990980
11
-377.542209
21
338.833823
0
LINE
8
Calque 1
10
-377.542209
20
338.833823
11
-376.906246
21
338.405230
0
LINE
8
Calque 1
10
-376.906246
20
338.405230
11
-376.477383
21
337.769517
0
LINE
8
Calque 1
10
-376.477383
20
337.769517
11
-376.320100
21
336.991000
0
LINE
8
Calque 1
10
-376.320100
20
336.991000
11
-376.477321
21
336.212257
0
LINE
8
Calque 1
10
-376.477321
20
336.212257
11
-376.906081
21
335.576309
0
LINE
8
Calque 1
10
-376.906081
20
335.576309
11
-377.542023
21
335.147576
0
LINE
8
Calque 1
10
-377.542023
20
335.147576
11
-378.320790
21
334.990480
0
LINE
8
Calque 1
10
-378.320790
20
334.990480
11
-379.099238
21
335.147686
0
LINE
8
Calque 1
10
-379.099238
20
335.147686
11
-379.734897
21
335.576406
0
LINE
8
Calque 1
10
-379.734897
20
335.576406
11
-380.163456
21
336.212293
0
LINE
8
Calque 1
10
-380.163456
20
336.212293
11
-380.320600
21
336.991000
0
LINE
8
Calque 1
10
-380.320600
20
336.991000
11
-380.320600
21
336.991000
0
LINE
8
Calque 1
10
-389.819000
20
346.990000
11
490.181000
21
346.990000
0
LINE
8
Calque 1
10
490.181000
20
346.990000
11
492.201273
21
346.787539
0
LINE
8
Calque 1
10
492.201273
20
346.787539
11
494.080688
21
346.206563
0
LINE
8
Calque 1
10
494.080688
20
346.206563
11
495.779633
21
345.286680
0
LINE
8
Calque 1
10
495.779633
20
345.286680
11
497.258500
21
344.067500
0
LINE
8
Calque 1
10
497.258500
20
344.067500
11
498.477680
21
342.588633
0
LINE
8
Calque 1
10
498.477680
20
342.588633
11
499.397562
21
340.889687
0
LINE
8
Calque 1
10
499.397562
20
340.889687
11
499.978539
21
339.010273
0
LINE
8
Calque 1
10
499.978539
20
339.010273
11
500.181000
21
336.990000
0
LINE
8
Calque 1
10
500.181000
20
336.990000
11
499.978539
21
334.969727
0
LINE
8
Calque 1
10
499.978539
20
334.969727
11
499.397562
21
333.090313
0
LINE
8
Calque 1
10
499.397562
20
333.090313
11
498.477680
21
331.391367
0
LINE
8
Calque 1
10
498.477680
20
331.391367
11
497.258500
21
329.912500
0
LINE
8
Calque 1
10
497.258500
20
329.912500
11
495.779633
21
328.693320
0
LINE
8
Calque 1
10
495.779633
20
328.693320
11
494.080688
21
327.773438
0
LINE
8
Calque 1
10
494.080688
20
327.773438
11
492.201273
21
327.192461
0
LINE
8
Calque 1
10
492.201273
20
327.192461
11
490.181000
21
326.990000
0
LINE
8
Calque 1
10
490.181000
20
326.990000
11
-389.819000
21
326.990000
0
LINE
8
Calque 1
10
-389.819000
20
326.990000
11
-391.839273
21
327.192461
0
LINE
8
Calque 1
10
-391.839273
20
327.192461
11
-393.718688
21
327.773438
0
LINE
8
Calque 1
10
-393.718688
20
327.773438
11
-395.417633
21
328.693320
0
LINE
8
Calque 1
10
-395.417633
20
328.693320
11
-396.896500
21
329.912500
0
LINE
8
Calque 1
10
-396.896500
20
329.912500
11
-398.115680
21
331.391367
0
LINE
8
Calque 1
10
-398.115680
20
331.391367
11
-399.035563
21
333.090313
0
LINE
8
Calque 1
10
-399.035563
20
333.090313
11
-399.616539
21
334.969727
0
LINE
8
Calque 1
10
-399.616539
20
334.969727
11
-399.819000
21
336.990000
0
LINE
8
Calque 1
10
-399.819000
20
336.990000
11
-399.616539
21
339.010273
0
LINE
8
Calque 1
10
-399.616539
20
339.010273
11
-399.035563
21
340.889687
0
LINE
8
Calque 1
10
-399.035563
20
340.889687
11
-398.115680
21
342.588633
0
LINE
8
Calque 1
10
-398.115680
20
342.588633
11
-396.896500
21
344.067500
0
LINE
8
Calque 1
10
-396.896500
20
344.067500
11
-395.417633
21
345.286680
0
LINE
8
Calque 1
10
-395.417633
20
345.286680
11
-393.718688
21
346.206563
0
LINE
8
Calque 1
10
-393.718688
20
346.206563
11
-391.839273
21
346.787539
0
LINE
8
Calque 1
10
-391.839273
20
346.787539
11
-389.819000
21
346.990000
0
LINE
8
Calque 1
10
-389.819000
20
346.990000
11
-389.819000
21
346.990000
 0 
ENDSEC
 0 
EOF