999
"DXF R12 Output" (www.mydxf.blogspot.com)
 0 
SECTION
 2 
HEADER
 9 
$ACADVER
 1 
AC1009
 9 
$EXTMIN
 10 
 0 
 20 
 0 
 9 
$EXTMAX
 10 
 8.5 
 20 
 11 
 0 
ENDSEC
 0 
SECTION
 2 
ENTITIES
0
LINE
8
Calque 1
10
46.490200
20
151.321000
11
47.112801
21
151.195273
0
LINE
8
Calque 1
10
47.112801
20
151.195273
11
47.621341
21
150.852396
0
LINE
8
Calque 1
10
47.621341
20
150.852396
11
47.964306
21
150.343824
0
LINE
8
Calque 1
10
47.964306
20
150.343824
11
48.090180
21
149.721010
0
LINE
8
Calque 1
10
48.090180
20
149.721010
11
47.964453
21
149.098014
0
LINE
8
Calque 1
10
47.964453
20
149.098014
11
47.621578
21
148.589234
0
LINE
8
Calque 1
10
47.621578
20
148.589234
11
47.113008
21
148.246187
0
LINE
8
Calque 1
10
47.113008
20
148.246187
11
46.490200
21
148.120390
0
LINE
8
Calque 1
10
46.490200
20
148.120390
11
45.867203
21
148.246156
0
LINE
8
Calque 1
10
45.867203
20
148.246156
11
45.358446
21
148.589151
0
LINE
8
Calque 1
10
45.358446
20
148.589151
11
45.015464
21
149.097921
0
LINE
8
Calque 1
10
45.015464
20
149.097921
11
44.889790
21
149.721010
0
LINE
8
Calque 1
10
44.889790
20
149.721010
11
45.015553
21
150.343735
0
LINE
8
Calque 1
10
45.015553
20
150.343735
11
45.358525
21
150.852318
0
LINE
8
Calque 1
10
45.358525
20
150.852318
11
45.867232
21
151.195244
0
LINE
8
Calque 1
10
45.867232
20
151.195244
11
46.490200
21
151.321000
0
LINE
8
Calque 1
10
46.490200
20
151.321000
11
46.490200
21
151.321000
0
LINE
8
Calque 1
10
46.490200
20
140.120700
11
47.112801
21
139.994941
0
LINE
8
Calque 1
10
47.112801
20
139.994941
11
47.621341
21
139.651993
0
LINE
8
Calque 1
10
47.621341
20
139.651993
11
47.964306
21
139.143351
0
LINE
8
Calque 1
10
47.964306
20
139.143351
11
48.090180
21
138.520510
0
LINE
8
Calque 1
10
48.090180
20
138.520510
11
47.964453
21
137.897808
0
LINE
8
Calque 1
10
47.964453
20
137.897808
11
47.621578
21
137.389071
0
LINE
8
Calque 1
10
47.621578
20
137.389071
11
47.113008
21
137.045951
0
LINE
8
Calque 1
10
47.113008
20
137.045951
11
46.490200
21
136.920100
0
LINE
8
Calque 1
10
46.490200
20
136.920100
11
45.867203
21
137.045863
0
LINE
8
Calque 1
10
45.867203
20
137.045863
11
45.358446
21
137.388835
0
LINE
8
Calque 1
10
45.358446
20
137.388835
11
45.015464
21
137.897542
0
LINE
8
Calque 1
10
45.015464
20
137.897542
11
44.889790
21
138.520510
0
LINE
8
Calque 1
10
44.889790
20
138.520510
11
45.015553
21
139.143351
0
LINE
8
Calque 1
10
45.015553
20
139.143351
11
45.358525
21
139.651993
0
LINE
8
Calque 1
10
45.358525
20
139.651993
11
45.867232
21
139.994941
0
LINE
8
Calque 1
10
45.867232
20
139.994941
11
46.490200
21
140.120700
0
LINE
8
Calque 1
10
46.490200
20
140.120700
11
46.490200
21
140.120700
0
LINE
8
Calque 1
10
48.341300
20
162.334000
11
48.189059
21
161.568633
0
LINE
8
Calque 1
10
48.189059
20
161.568633
11
47.755514
21
160.919786
0
LINE
8
Calque 1
10
47.755514
20
160.919786
11
47.106667
21
160.486241
0
LINE
8
Calque 1
10
47.106667
20
160.486241
11
46.341300
21
160.334000
0
LINE
8
Calque 1
10
46.341300
20
160.334000
11
45.575933
21
160.486241
0
LINE
8
Calque 1
10
45.575933
20
160.486241
11
44.927086
21
160.919786
0
LINE
8
Calque 1
10
44.927086
20
160.919786
11
44.493541
21
161.568633
0
LINE
8
Calque 1
10
44.493541
20
161.568633
11
44.341300
21
162.334000
0
LINE
8
Calque 1
10
44.341300
20
162.334000
11
44.493541
21
163.099367
0
LINE
8
Calque 1
10
44.493541
20
163.099367
11
44.927086
21
163.748214
0
LINE
8
Calque 1
10
44.927086
20
163.748214
11
45.575933
21
164.181759
0
LINE
8
Calque 1
10
45.575933
20
164.181759
11
46.341300
21
164.334000
0
LINE
8
Calque 1
10
46.341300
20
164.334000
11
47.106667
21
164.181759
0
LINE
8
Calque 1
10
47.106667
20
164.181759
11
47.755514
21
163.748214
0
LINE
8
Calque 1
10
47.755514
20
163.748214
11
48.189059
21
163.099367
0
LINE
8
Calque 1
10
48.189059
20
163.099367
11
48.341300
21
162.334000
0
LINE
8
Calque 1
10
48.341300
20
162.334000
11
48.341300
21
162.334000
0
LINE
8
Calque 1
10
112.857000
20
143.976000
11
112.704759
21
143.210633
0
LINE
8
Calque 1
10
112.704759
20
143.210633
11
112.271214
21
142.561786
0
LINE
8
Calque 1
10
112.271214
20
142.561786
11
111.622367
21
142.128241
0
LINE
8
Calque 1
10
111.622367
20
142.128241
11
110.857000
21
141.976000
0
LINE
8
Calque 1
10
110.857000
20
141.976000
11
110.091633
21
142.128241
0
LINE
8
Calque 1
10
110.091633
20
142.128241
11
109.442786
21
142.561786
0
LINE
8
Calque 1
10
109.442786
20
142.561786
11
109.009241
21
143.210633
0
LINE
8
Calque 1
10
109.009241
20
143.210633
11
108.857000
21
143.976000
0
LINE
8
Calque 1
10
108.857000
20
143.976000
11
109.009241
21
144.741367
0
LINE
8
Calque 1
10
109.009241
20
144.741367
11
109.442786
21
145.390214
0
LINE
8
Calque 1
10
109.442786
20
145.390214
11
110.091633
21
145.823759
0
LINE
8
Calque 1
10
110.091633
20
145.823759
11
110.857000
21
145.976000
0
LINE
8
Calque 1
10
110.857000
20
145.976000
11
111.622367
21
145.823759
0
LINE
8
Calque 1
10
111.622367
20
145.823759
11
112.271214
21
145.390214
0
LINE
8
Calque 1
10
112.271214
20
145.390214
11
112.704759
21
144.741367
0
LINE
8
Calque 1
10
112.704759
20
144.741367
11
112.857000
21
143.976000
0
LINE
8
Calque 1
10
112.857000
20
143.976000
11
112.857000
21
143.976000
0
LINE
8
Calque 1
10
68.008300
20
208.432000
11
67.156131
21
208.383200
0
LINE
8
Calque 1
10
67.156131
20
208.383200
11
65.772891
21
208.049620
0
LINE
8
Calque 1
10
65.772891
20
208.049620
11
64.030241
21
207.560580
0
LINE
8
Calque 1
10
64.030241
20
207.560580
11
63.450275
21
207.291850
0
LINE
8
Calque 1
10
63.450275
20
207.291850
11
63.416405
21
207.279950
0
LINE
8
Calque 1
10
63.416405
20
207.279950
11
63.372218
21
207.293566
0
LINE
8
Calque 1
10
63.372218
20
207.293566
11
62.827337
21
207.076580
0
LINE
8
Calque 1
10
62.827337
20
207.076580
11
62.037186
21
206.651040
0
LINE
8
Calque 1
10
62.037186
20
206.651040
11
62.030625
21
206.643040
0
LINE
8
Calque 1
10
62.030625
20
206.643040
11
62.137728
21
206.718140
0
LINE
8
Calque 1
10
62.137728
20
206.718140
11
61.967760
21
206.628040
0
LINE
8
Calque 1
10
61.967760
20
206.628040
11
60.194210
21
205.624570
0
LINE
8
Calque 1
10
60.194210
20
205.624570
11
60.010695
21
205.499430
0
LINE
8
Calque 1
10
60.010695
20
205.499430
11
59.784212
21
205.340260
0
LINE
8
Calque 1
10
59.784212
20
205.340260
11
59.551379
21
205.173630
0
LINE
8
Calque 1
10
59.551379
20
205.173630
11
59.443641
21
205.093030
0
LINE
8
Calque 1
10
59.443641
20
205.093030
11
59.353051
21
205.019930
0
LINE
8
Calque 1
10
59.353051
20
205.019930
11
59.228168
21
204.904610
0
LINE
8
Calque 1
10
59.228168
20
204.904610
11
59.057353
21
204.708190
0
LINE
8
Calque 1
10
59.057353
20
204.708190
11
58.879341
21
204.424210
0
LINE
8
Calque 1
10
58.879341
20
204.424210
11
58.754881
21
204.119080
0
LINE
8
Calque 1
10
58.754881
20
204.119080
11
58.667891
21
203.548930
0
LINE
8
Calque 1
10
58.667891
20
203.548930
11
58.839102
21
202.541887
0
LINE
8
Calque 1
10
58.839102
20
202.541887
11
59.083815
21
202.305350
0
LINE
8
Calque 1
10
59.083815
20
202.305350
11
59.214253
21
202.127700
0
LINE
8
Calque 1
10
59.214253
20
202.127700
11
59.198327
21
202.153630
0
LINE
8
Calque 1
10
59.198327
20
202.153630
11
59.403008
21
201.876260
0
LINE
8
Calque 1
10
59.403008
20
201.876260
11
59.474548
21
201.784160
0
LINE
8
Calque 1
10
59.474548
20
201.784160
11
59.572205
21
201.674209
0
LINE
8
Calque 1
10
59.572205
20
201.674209
11
59.575090
21
201.670030
0
LINE
8
Calque 1
10
59.575090
20
201.670030
11
59.437295
21
201.810809
0
LINE
8
Calque 1
10
59.437295
20
201.810809
11
59.775114
21
201.380980
0
LINE
8
Calque 1
10
59.775114
20
201.380980
11
60.321214
21
200.634390
0
LINE
8
Calque 1
10
60.321214
20
200.634390
11
60.264914
21
200.509080
0
LINE
8
Calque 1
10
60.264914
20
200.509080
11
59.682832
21
198.805675
0
LINE
8
Calque 1
10
59.682832
20
198.805675
11
59.372529
21
197.124620
0
LINE
8
Calque 1
10
59.372529
20
197.124620
11
59.289339
21
196.299805
0
LINE
8
Calque 1
10
59.289339
20
196.299805
11
59.289339
21
195.682925
0
LINE
8
Calque 1
10
59.289339
20
195.682925
11
59.262029
21
194.866575
0
LINE
8
Calque 1
10
59.262029
20
194.866575
11
59.293067
21
194.581181
0
LINE
8
Calque 1
10
59.293067
20
194.581181
11
59.302669
21
194.594115
0
LINE
8
Calque 1
10
59.302669
20
194.594115
11
59.329129
21
194.458475
0
LINE
8
Calque 1
10
59.329129
20
194.458475
11
59.322829
21
194.403975
0
LINE
8
Calque 1
10
59.322829
20
194.403975
11
59.377859
21
193.557645
0
LINE
8
Calque 1
10
59.377859
20
193.557645
11
59.540630
21
193.006975
0
LINE
8
Calque 1
10
59.540630
20
193.006975
11
60.020072
21
192.195466
0
LINE
8
Calque 1
10
60.020072
20
192.195466
11
60.783616
21
191.726986
0
LINE
8
Calque 1
10
60.783616
20
191.726986
11
61.676343
21
191.652333
0
LINE
8
Calque 1
10
61.676343
20
191.652333
11
62.543330
21
192.022305
0
LINE
8
Calque 1
10
62.543330
20
192.022305
11
63.220027
21
192.525395
0
LINE
8
Calque 1
10
63.220027
20
192.525395
11
63.261727
21
192.555195
0
LINE
8
Calque 1
10
63.261727
20
192.555195
11
63.436775
21
192.302205
0
LINE
8
Calque 1
10
63.436775
20
192.302205
11
63.952289
21
191.684100
0
LINE
8
Calque 1
10
63.952289
20
191.684100
11
64.628455
21
191.045415
0
LINE
8
Calque 1
10
64.628455
20
191.045415
11
67.081665
21
188.566215
0
LINE
8
Calque 1
10
67.081665
20
188.566215
11
69.278125
21
186.172855
0
LINE
8
Calque 1
10
69.278125
20
186.172855
11
69.777054
21
185.064547
0
LINE
8
Calque 1
10
69.777054
20
185.064547
11
70.417945
21
184.031815
0
LINE
8
Calque 1
10
70.417945
20
184.031815
11
71.893661
21
182.444817
0
LINE
8
Calque 1
10
71.893661
20
182.444817
11
73.674388
21
181.260960
0
LINE
8
Calque 1
10
73.674388
20
181.260960
11
75.680509
21
180.520697
0
LINE
8
Calque 1
10
75.680509
20
180.520697
11
77.832405
21
180.264485
0
LINE
8
Calque 1
10
77.832405
20
180.264485
11
79.683620
21
180.451088
0
LINE
8
Calque 1
10
79.683620
20
180.451088
11
81.407851
21
180.986302
0
LINE
8
Calque 1
10
81.407851
20
180.986302
11
82.968162
21
181.833191
0
LINE
8
Calque 1
10
82.968162
20
181.833191
11
84.327615
21
182.954817
0
LINE
8
Calque 1
10
84.327615
20
182.954817
11
85.449272
21
184.314244
0
LINE
8
Calque 1
10
85.449272
20
184.314244
11
86.296196
21
185.874535
0
LINE
8
Calque 1
10
86.296196
20
185.874535
11
86.831450
21
187.598754
0
LINE
8
Calque 1
10
86.831450
20
187.598754
11
87.018095
21
189.449965
0
LINE
8
Calque 1
10
87.018095
20
189.449965
11
86.772562
21
191.548505
0
LINE
8
Calque 1
10
86.772562
20
191.548505
11
86.774662
21
191.550505
0
LINE
8
Calque 1
10
86.774662
20
191.550505
11
86.770462
21
191.558505
0
LINE
8
Calque 1
10
86.770462
20
191.558505
11
86.365641
21
192.844599
0
LINE
8
Calque 1
10
86.365641
20
192.844599
11
85.780482
21
194.051387
0
LINE
8
Calque 1
10
85.780482
20
194.051387
11
85.025841
21
195.160109
0
LINE
8
Calque 1
10
85.025841
20
195.160109
11
84.112572
21
196.152005
0
LINE
8
Calque 1
10
84.112572
20
196.152005
11
82.726582
21
198.438505
0
LINE
8
Calque 1
10
82.726582
20
198.438505
11
82.024961
21
199.651353
0
LINE
8
Calque 1
10
82.024961
20
199.651353
11
81.147762
21
200.869795
0
LINE
8
Calque 1
10
81.147762
20
200.869795
11
80.939694
21
201.107535
0
LINE
8
Calque 1
10
80.939694
20
201.107535
11
80.486728
21
201.659395
0
LINE
8
Calque 1
10
80.486728
20
201.659395
11
80.305965
21
201.916605
0
LINE
8
Calque 1
10
80.305965
20
201.916605
11
79.556878
21
202.798835
0
LINE
8
Calque 1
10
79.556878
20
202.798835
11
79.093116
21
203.404535
0
LINE
8
Calque 1
10
79.093116
20
203.404535
11
78.946538
21
203.569535
0
LINE
8
Calque 1
10
78.946538
20
203.569535
11
78.924418
21
203.585555
0
LINE
8
Calque 1
10
78.924418
20
203.585555
11
78.703227
21
203.817545
0
LINE
8
Calque 1
10
78.703227
20
203.817545
11
78.283493
21
204.249515
0
LINE
8
Calque 1
10
78.283493
20
204.249515
11
77.061963
21
205.345095
0
LINE
8
Calque 1
10
77.061963
20
205.345095
11
75.642659
21
206.262075
0
LINE
8
Calque 1
10
75.642659
20
206.262075
11
74.201923
21
206.992875
0
LINE
8
Calque 1
10
74.201923
20
206.992875
11
73.363089
21
207.347625
0
LINE
8
Calque 1
10
73.363089
20
207.347625
11
71.391209
21
207.921335
0
LINE
8
Calque 1
10
71.391209
20
207.921335
11
71.026085
21
208.008735
0
LINE
8
Calque 1
10
71.026085
20
208.008735
11
70.551105
21
208.059535
0
LINE
8
Calque 1
10
70.551105
20
208.059535
11
70.842570
21
208.035135
0
LINE
8
Calque 1
10
70.842570
20
208.035135
11
70.673872
21
208.073935
0
LINE
8
Calque 1
10
70.673872
20
208.073935
11
70.640002
21
208.087535
0
LINE
8
Calque 1
10
70.640002
20
208.087535
11
69.970713
21
208.255005
0
LINE
8
Calque 1
10
69.970713
20
208.255005
11
68.008993
21
208.432295
0
LINE
8
Calque 1
10
68.008993
20
208.432295
11
68.008300
21
208.432000
0
LINE
8
Calque 1
10
79.831600
20
189.450000
11
79.679359
21
188.684633
0
LINE
8
Calque 1
10
79.679359
20
188.684633
11
79.245814
21
188.035786
0
LINE
8
Calque 1
10
79.245814
20
188.035786
11
78.596967
21
187.602241
0
LINE
8
Calque 1
10
78.596967
20
187.602241
11
77.831600
21
187.450000
0
LINE
8
Calque 1
10
77.831600
20
187.450000
11
77.066233
21
187.602241
0
LINE
8
Calque 1
10
77.066233
20
187.602241
11
76.417386
21
188.035786
0
LINE
8
Calque 1
10
76.417386
20
188.035786
11
75.983841
21
188.684633
0
LINE
8
Calque 1
10
75.983841
20
188.684633
11
75.831600
21
189.450000
0
LINE
8
Calque 1
10
75.831600
20
189.450000
11
75.983841
21
190.215367
0
LINE
8
Calque 1
10
75.983841
20
190.215367
11
76.417386
21
190.864214
0
LINE
8
Calque 1
10
76.417386
20
190.864214
11
77.066233
21
191.297759
0
LINE
8
Calque 1
10
77.066233
20
191.297759
11
77.831600
21
191.450000
0
LINE
8
Calque 1
10
77.831600
20
191.450000
11
78.596967
21
191.297759
0
LINE
8
Calque 1
10
78.596967
20
191.297759
11
79.245814
21
190.864214
0
LINE
8
Calque 1
10
79.245814
20
190.864214
11
79.679359
21
190.215367
0
LINE
8
Calque 1
10
79.679359
20
190.215367
11
79.831600
21
189.450000
0
LINE
8
Calque 1
10
79.831600
20
189.450000
11
79.831600
21
189.450000
0
LINE
8
Calque 1
10
108.454000
20
168.657000
11
107.974025
21
168.041704
0
LINE
8
Calque 1
10
107.974025
20
168.041704
11
107.295122
21
167.656923
0
LINE
8
Calque 1
10
107.295122
20
167.656923
11
106.520648
21
167.561237
0
LINE
8
Calque 1
10
106.520648
20
167.561237
11
105.768510
21
167.769214
0
LINE
8
Calque 1
10
105.768510
20
167.769214
11
105.153214
21
168.249189
0
LINE
8
Calque 1
10
105.153214
20
168.249189
11
104.768433
21
168.928092
0
LINE
8
Calque 1
10
104.768433
20
168.928092
11
104.672747
21
169.702566
0
LINE
8
Calque 1
10
104.672747
20
169.702566
11
104.880724
21
170.454704
0
LINE
8
Calque 1
10
104.880724
20
170.454704
11
105.360699
21
171.070000
0
LINE
8
Calque 1
10
105.360699
20
171.070000
11
106.039602
21
171.454781
0
LINE
8
Calque 1
10
106.039602
20
171.454781
11
106.814076
21
171.550467
0
LINE
8
Calque 1
10
106.814076
20
171.550467
11
107.566214
21
171.342490
0
LINE
8
Calque 1
10
107.566214
20
171.342490
11
108.181510
21
170.862515
0
LINE
8
Calque 1
10
108.181510
20
170.862515
11
108.566291
21
170.183612
0
LINE
8
Calque 1
10
108.566291
20
170.183612
11
108.661977
21
169.409138
0
LINE
8
Calque 1
10
108.661977
20
169.409138
11
108.454000
21
168.657000
0
LINE
8
Calque 1
10
108.454000
20
168.657000
11
108.454000
21
168.657000
0
LINE
8
Calque 1
10
46.341400
20
176.334000
11
43.519996
21
176.049521
0
LINE
8
Calque 1
10
43.519996
20
176.049521
11
40.892127
21
175.233740
0
LINE
8
Calque 1
10
40.892127
20
175.233740
11
38.514087
21
173.942951
0
LINE
8
Calque 1
10
38.514087
20
173.942951
11
36.442169
21
172.233450
0
LINE
8
Calque 1
10
36.442169
20
172.233450
11
34.732667
21
170.161530
0
LINE
8
Calque 1
10
34.732667
20
170.161530
11
33.441876
21
167.783485
0
LINE
8
Calque 1
10
33.441876
20
167.783485
11
32.626089
21
165.155611
0
LINE
8
Calque 1
10
32.626089
20
165.155611
11
32.341600
21
162.334200
0
LINE
8
Calque 1
10
32.341600
20
162.334200
11
32.453776
21
160.746636
0
LINE
8
Calque 1
10
32.453776
20
160.746636
11
32.745030
21
159.182060
0
LINE
8
Calque 1
10
32.745030
20
159.182060
11
32.485950
21
155.909870
0
LINE
8
Calque 1
10
32.485950
20
155.909870
11
32.463550
21
154.419400
0
LINE
8
Calque 1
10
32.463550
20
154.419400
11
32.518950
21
153.701430
0
LINE
8
Calque 1
10
32.518950
20
153.701430
11
32.666490
21
151.860100
0
LINE
8
Calque 1
10
32.666490
20
151.860100
11
32.394231
21
147.599168
0
LINE
8
Calque 1
10
32.394231
20
147.599168
11
31.632710
21
144.135800
0
LINE
8
Calque 1
10
31.632710
20
144.135800
11
31.632710
21
144.128800
0
LINE
8
Calque 1
10
31.632710
20
144.128800
11
31.434160
21
143.230830
0
LINE
8
Calque 1
10
31.434160
20
143.230830
11
31.453260
21
143.359020
0
LINE
8
Calque 1
10
31.453260
20
143.359020
11
31.344470
21
142.948890
0
LINE
8
Calque 1
10
31.344470
20
142.948890
11
31.149310
21
142.324220
0
LINE
8
Calque 1
10
31.149310
20
142.324220
11
31.002630
21
141.697520
0
LINE
8
Calque 1
10
31.002630
20
141.697520
11
30.742070
21
140.711490
0
LINE
8
Calque 1
10
30.742070
20
140.711490
11
30.484680
21
139.358860
0
LINE
8
Calque 1
10
30.484680
20
139.358860
11
30.430480
21
138.928410
0
LINE
8
Calque 1
10
30.430480
20
138.928410
11
30.287820
21
138.040090
0
LINE
8
Calque 1
10
30.287820
20
138.040090
11
30.233620
21
137.074390
0
LINE
8
Calque 1
10
30.233620
20
137.074390
11
30.233620
21
137.042590
0
LINE
8
Calque 1
10
30.233620
20
137.042590
11
30.150020
21
136.871400
0
LINE
8
Calque 1
10
30.150020
20
136.871400
11
29.962531
21
136.155665
0
LINE
8
Calque 1
10
29.962531
20
136.155665
11
30.052620
21
135.445739
0
LINE
8
Calque 1
10
30.052620
20
135.445739
11
30.395669
21
134.817666
0
LINE
8
Calque 1
10
30.395669
20
134.817666
11
30.967060
21
134.347490
0
LINE
8
Calque 1
10
30.967060
20
134.347490
11
31.984540
21
133.783610
0
LINE
8
Calque 1
10
31.984540
20
133.783610
11
32.713385
21
133.576535
0
LINE
8
Calque 1
10
32.713385
20
133.576535
11
33.428100
21
133.508270
0
LINE
8
Calque 1
10
33.428100
20
133.508270
11
35.549210
21
133.456670
0
LINE
8
Calque 1
10
35.549210
20
133.456670
11
37.258420
21
133.623640
0
LINE
8
Calque 1
10
37.258420
20
133.623640
11
38.391890
21
133.812610
0
LINE
8
Calque 1
10
38.391890
20
133.812610
11
40.768270
21
133.945710
0
LINE
8
Calque 1
10
40.768270
20
133.945710
11
42.692950
21
133.963510
0
LINE
8
Calque 1
10
42.692950
20
133.963510
11
44.658490
21
134.001910
0
LINE
8
Calque 1
10
44.658490
20
134.001910
11
46.489400
21
133.853060
0
LINE
8
Calque 1
10
46.489400
20
133.853060
11
48.835090
21
133.817460
0
LINE
8
Calque 1
10
48.835090
20
133.817460
11
51.848790
21
134.072140
0
LINE
8
Calque 1
10
51.848790
20
134.072140
11
52.363570
21
134.089040
0
LINE
8
Calque 1
10
52.363570
20
134.089040
11
53.205360
21
134.174240
0
LINE
8
Calque 1
10
53.205360
20
134.174240
11
53.312260
21
134.166240
0
LINE
8
Calque 1
10
53.312260
20
134.166240
11
53.818350
21
134.199440
0
LINE
8
Calque 1
10
53.818350
20
134.199440
11
54.686180
21
134.330000
0
LINE
8
Calque 1
10
54.686180
20
134.330000
11
54.930020
21
134.401600
0
LINE
8
Calque 1
10
54.930020
20
134.401600
11
55.009820
21
134.408600
0
LINE
8
Calque 1
10
55.009820
20
134.408600
11
56.543980
21
134.486300
0
LINE
8
Calque 1
10
56.543980
20
134.486300
11
56.877140
21
134.499800
0
LINE
8
Calque 1
10
56.877140
20
134.499800
11
57.064040
21
134.507800
0
LINE
8
Calque 1
10
57.064040
20
134.507800
11
57.783280
21
134.378430
0
LINE
8
Calque 1
10
57.783280
20
134.378430
11
58.226940
21
134.325130
0
LINE
8
Calque 1
10
58.226940
20
134.325130
11
58.501050
21
134.227930
0
LINE
8
Calque 1
10
58.501050
20
134.227930
11
58.524550
21
134.220930
0
LINE
8
Calque 1
10
58.524550
20
134.220930
11
59.302640
21
134.015870
0
LINE
8
Calque 1
10
59.302640
20
134.015870
11
60.423516
21
134.079056
0
LINE
8
Calque 1
10
60.423516
20
134.079056
11
60.714450
21
134.209420
0
LINE
8
Calque 1
10
60.714450
20
134.209420
11
61.267720
21
134.375115
0
LINE
8
Calque 1
10
61.267720
20
134.375115
11
62.008790
21
134.795990
0
LINE
8
Calque 1
10
62.008790
20
134.795990
11
61.915210
21
134.694018
0
LINE
8
Calque 1
10
61.915210
20
134.694018
11
62.102479
21
134.829811
0
LINE
8
Calque 1
10
62.102479
20
134.829811
11
62.423455
21
135.178224
0
LINE
8
Calque 1
10
62.423455
20
135.178224
11
62.731000
21
135.714110
0
LINE
8
Calque 1
10
62.731000
20
135.714110
11
62.901390
21
136.273590
0
LINE
8
Calque 1
10
62.901390
20
136.273590
11
62.975976
21
137.392184
0
LINE
8
Calque 1
10
62.975976
20
137.392184
11
62.897390
21
137.801990
0
LINE
8
Calque 1
10
62.897390
20
137.801990
11
62.889390
21
138.245980
0
LINE
8
Calque 1
10
62.889390
20
138.245980
11
62.855090
21
138.905700
0
LINE
8
Calque 1
10
62.855090
20
138.905700
11
62.819490
21
139.833820
0
LINE
8
Calque 1
10
62.819490
20
139.833820
11
62.744390
21
140.868950
0
LINE
8
Calque 1
10
62.744390
20
140.868950
11
62.717215
21
141.250081
0
LINE
8
Calque 1
10
62.717215
20
141.250081
11
62.714490
21
141.227090
0
LINE
8
Calque 1
10
62.714490
20
141.227090
11
62.686390
21
141.945570
0
LINE
8
Calque 1
10
62.686390
20
141.945570
11
62.602190
21
143.351210
0
LINE
8
Calque 1
10
62.602190
20
143.351210
11
62.585290
21
143.807900
0
LINE
8
Calque 1
10
62.585290
20
143.807900
11
62.585290
21
144.688600
0
LINE
8
Calque 1
10
62.585290
20
144.688600
11
62.505890
21
145.767590
0
LINE
8
Calque 1
10
62.505890
20
145.767590
11
62.394550
21
147.319870
0
LINE
8
Calque 1
10
62.394550
20
147.319870
11
62.337150
21
148.488270
0
LINE
8
Calque 1
10
62.337150
20
148.488270
11
62.294150
21
148.938860
0
LINE
8
Calque 1
10
62.294150
20
148.938860
11
62.250750
21
149.487330
0
LINE
8
Calque 1
10
62.250750
20
149.487330
11
62.134970
21
150.605610
0
LINE
8
Calque 1
10
62.134970
20
150.605610
11
62.094070
21
151.108360
0
LINE
8
Calque 1
10
62.094070
20
151.108360
11
62.057270
21
151.466500
0
LINE
8
Calque 1
10
62.057270
20
151.466500
11
62.033570
21
151.603320
0
LINE
8
Calque 1
10
62.033570
20
151.603320
11
62.010970
21
151.821590
0
LINE
8
Calque 1
10
62.010970
20
151.821590
11
61.886090
21
153.178790
0
LINE
8
Calque 1
10
61.886090
20
153.178790
11
61.752950
21
154.382240
0
LINE
8
Calque 1
10
61.752950
20
154.382240
11
61.301040
21
157.985990
0
LINE
8
Calque 1
10
61.301040
20
157.985990
11
60.653770
21
161.734350
0
LINE
8
Calque 1
10
60.653770
20
161.734350
11
60.343680
21
166.339700
0
LINE
8
Calque 1
10
60.343680
20
166.339700
11
59.993967
21
167.900787
0
LINE
8
Calque 1
10
59.993967
20
167.900787
11
59.135977
21
169.563907
0
LINE
8
Calque 1
10
59.135977
20
169.563907
11
57.823785
21
171.233501
0
LINE
8
Calque 1
10
57.823785
20
171.233501
11
56.111464
21
172.814005
0
LINE
8
Calque 1
10
56.111464
20
172.814005
11
54.053089
21
174.209859
0
LINE
8
Calque 1
10
54.053089
20
174.209859
11
51.702734
21
175.325502
0
LINE
8
Calque 1
10
51.702734
20
175.325502
11
49.114473
21
176.065373
0
LINE
8
Calque 1
10
49.114473
20
176.065373
11
46.342380
21
176.333910
0
LINE
8
Calque 1
10
46.342380
20
176.333910
11
46.341400
21
176.334000
0
LINE
8
Calque 1
10
112.049000
20
208.435000
11
112.049000
21
208.430000
0
LINE
8
Calque 1
10
112.049000
20
208.430000
11
111.317690
21
208.430000
0
LINE
8
Calque 1
10
111.317690
20
208.430000
11
109.235740
21
208.333650
0
LINE
8
Calque 1
10
109.235740
20
208.333650
11
108.040670
21
208.323490
0
LINE
8
Calque 1
10
108.040670
20
208.323490
11
105.869820
21
208.022077
0
LINE
8
Calque 1
10
105.869820
20
208.022077
11
105.382770
21
207.881530
0
LINE
8
Calque 1
10
105.382770
20
207.881530
11
104.254590
21
207.669017
0
LINE
8
Calque 1
10
104.254590
20
207.669017
11
102.978240
21
207.338310
0
LINE
8
Calque 1
10
102.978240
20
207.338310
11
100.979480
21
206.749200
0
LINE
8
Calque 1
10
100.979480
20
206.749200
11
99.668210
21
206.105057
0
LINE
8
Calque 1
10
99.668210
20
206.105057
11
98.615590
21
205.476661
0
LINE
8
Calque 1
10
98.615590
20
205.476661
11
98.532620
21
205.408081
0
LINE
8
Calque 1
10
98.532620
20
205.408081
11
98.373024
21
205.333231
0
LINE
8
Calque 1
10
98.373024
20
205.333231
11
98.204036
21
205.277583
0
LINE
8
Calque 1
10
98.204036
20
205.277583
11
97.755805
21
204.783407
0
LINE
8
Calque 1
10
97.755805
20
204.783407
11
97.570173
21
204.466754
0
LINE
8
Calque 1
10
97.570173
20
204.466754
11
97.409307
21
203.920993
0
LINE
8
Calque 1
10
97.409307
20
203.920993
11
97.465397
21
203.127667
0
LINE
8
Calque 1
10
97.465397
20
203.127667
11
97.862695
21
202.397164
0
LINE
8
Calque 1
10
97.862695
20
202.397164
11
98.346565
21
201.997030
0
LINE
8
Calque 1
10
98.346565
20
201.997030
11
98.719732
21
201.830406
0
LINE
8
Calque 1
10
98.719732
20
201.830406
11
99.155977
21
201.743196
0
LINE
8
Calque 1
10
99.155977
20
201.743196
11
99.669480
21
201.770456
0
LINE
8
Calque 1
10
99.669480
20
201.770456
11
99.818281
21
201.803986
0
LINE
8
Calque 1
10
99.818281
20
201.803986
11
99.966236
21
201.849026
0
LINE
8
Calque 1
10
99.966236
20
201.849026
11
100.060856
21
201.886616
0
LINE
8
Calque 1
10
100.060856
20
201.886616
11
100.322896
21
201.990756
0
LINE
8
Calque 1
10
100.322896
20
201.990756
11
100.958316
21
202.290137
0
LINE
8
Calque 1
10
100.958316
20
202.290137
11
102.847177
21
202.462032
0
LINE
8
Calque 1
10
102.847177
20
202.462032
11
104.472826
21
202.212417
0
LINE
8
Calque 1
10
104.472826
20
202.212417
11
104.918176
21
201.978399
0
LINE
8
Calque 1
10
104.918176
20
201.978399
11
105.109946
21
201.641087
0
LINE
8
Calque 1
10
105.109946
20
201.641087
11
105.254506
21
200.846915
0
LINE
8
Calque 1
10
105.254506
20
200.846915
11
105.193306
21
199.781135
0
LINE
8
Calque 1
10
105.193306
20
199.781135
11
104.672396
21
198.471855
0
LINE
8
Calque 1
10
104.672396
20
198.471855
11
104.521056
21
198.234958
0
LINE
8
Calque 1
10
104.521056
20
198.234958
11
104.359556
21
197.941843
0
LINE
8
Calque 1
10
104.359556
20
197.941843
11
104.287156
21
197.798417
0
LINE
8
Calque 1
10
104.287156
20
197.798417
11
104.243756
21
197.740507
0
LINE
8
Calque 1
10
104.243756
20
197.740507
11
104.053256
21
197.365942
0
LINE
8
Calque 1
10
104.053256
20
197.365942
11
103.890554
21
196.794337
0
LINE
8
Calque 1
10
103.890554
20
196.794337
11
103.932549
21
196.319692
0
LINE
8
Calque 1
10
103.932549
20
196.319692
11
104.189986
21
195.709012
0
LINE
8
Calque 1
10
104.189986
20
195.709012
11
104.727967
21
195.134722
0
LINE
8
Calque 1
10
104.727967
20
195.134722
11
105.342936
21
194.825602
0
LINE
8
Calque 1
10
105.342936
20
194.825602
11
106.115306
21
194.776002
0
LINE
8
Calque 1
10
106.115306
20
194.776002
11
106.643206
21
194.927722
0
LINE
8
Calque 1
10
106.643206
20
194.927722
11
106.805336
21
195.015822
0
LINE
8
Calque 1
10
106.805336
20
195.015822
11
106.906096
21
195.033622
0
LINE
8
Calque 1
10
106.906096
20
195.033622
11
107.265286
21
195.107622
0
LINE
8
Calque 1
10
107.265286
20
195.107622
11
108.611066
21
195.141522
0
LINE
8
Calque 1
10
108.611066
20
195.141522
11
109.463026
21
195.074122
0
LINE
8
Calque 1
10
109.463026
20
195.074122
11
111.014116
21
194.385782
0
LINE
8
Calque 1
10
111.014116
20
194.385782
11
111.682766
21
193.926052
0
LINE
8
Calque 1
10
111.682766
20
193.926052
11
111.900576
21
193.484592
0
LINE
8
Calque 1
10
111.900576
20
193.484592
11
111.839381
21
192.983878
0
LINE
8
Calque 1
10
111.839381
20
192.983878
11
111.547516
21
192.075232
0
LINE
8
Calque 1
10
111.547516
20
192.075232
11
111.498016
21
191.967372
0
LINE
8
Calque 1
10
111.498016
20
191.967372
11
111.410616
21
191.835462
0
LINE
8
Calque 1
10
111.410616
20
191.835462
11
111.172649
21
191.504310
0
LINE
8
Calque 1
10
111.172649
20
191.504310
11
110.938176
21
190.718882
0
LINE
8
Calque 1
10
110.938176
20
190.718882
11
110.934176
21
190.207832
0
LINE
8
Calque 1
10
110.934176
20
190.207832
11
111.087640
21
189.647571
0
LINE
8
Calque 1
10
111.087640
20
189.647571
11
111.623356
21
188.958152
0
LINE
8
Calque 1
10
111.623356
20
188.958152
11
112.512490
21
188.566442
0
LINE
8
Calque 1
10
112.512490
20
188.566442
11
113.255096
21
188.566652
0
LINE
8
Calque 1
10
113.255096
20
188.566652
11
113.505496
21
188.637752
0
LINE
8
Calque 1
10
113.505496
20
188.637752
11
114.152986
21
188.617452
0
LINE
8
Calque 1
10
114.152986
20
188.617452
11
114.635796
21
188.610452
0
LINE
8
Calque 1
10
114.635796
20
188.610452
11
115.796576
21
188.384732
0
LINE
8
Calque 1
10
115.796576
20
188.384732
11
116.463956
21
188.200832
0
LINE
8
Calque 1
10
116.463956
20
188.200832
11
116.571906
21
188.128032
0
LINE
8
Calque 1
10
116.571906
20
188.128032
11
116.848346
21
187.936682
0
LINE
8
Calque 1
10
116.848346
20
187.936682
11
117.080326
21
187.642722
0
LINE
8
Calque 1
10
117.080326
20
187.642722
11
117.121626
21
187.465262
0
LINE
8
Calque 1
10
117.121626
20
187.465262
11
117.121626
21
187.295422
0
LINE
8
Calque 1
10
117.121626
20
187.295422
11
116.864876
21
186.826202
0
LINE
8
Calque 1
10
116.864876
20
186.826202
11
116.594996
21
186.440452
0
LINE
8
Calque 1
10
116.594996
20
186.440452
11
116.364706
21
186.027962
0
LINE
8
Calque 1
10
116.364706
20
186.027962
11
116.343506
21
185.984062
0
LINE
8
Calque 1
10
116.343506
20
185.984062
11
116.257106
21
185.867902
0
LINE
8
Calque 1
10
116.257106
20
185.867902
11
116.087566
21
185.629822
0
LINE
8
Calque 1
10
116.087566
20
185.629822
11
115.966066
21
185.434582
0
LINE
8
Calque 1
10
115.966066
20
185.434582
11
115.821076
21
185.115382
0
LINE
8
Calque 1
10
115.821076
20
185.115382
11
115.711436
21
184.483772
0
LINE
8
Calque 1
10
115.711436
20
184.483772
11
115.910616
21
183.620512
0
LINE
8
Calque 1
10
115.910616
20
183.620512
11
116.345557
21
183.064995
0
LINE
8
Calque 1
10
116.345557
20
183.064995
11
116.964496
21
182.671402
0
LINE
8
Calque 1
10
116.964496
20
182.671402
11
117.504407
21
182.551451
0
LINE
8
Calque 1
10
117.504407
20
182.551451
11
117.959546
21
182.571322
0
LINE
8
Calque 1
10
117.959546
20
182.571322
11
118.242756
21
182.539522
0
LINE
8
Calque 1
10
118.242756
20
182.539522
11
118.291656
21
182.534522
0
LINE
8
Calque 1
10
118.291656
20
182.534522
11
118.344156
21
182.529522
0
LINE
8
Calque 1
10
118.344156
20
182.529522
11
118.367256
21
182.527522
0
LINE
8
Calque 1
10
118.367256
20
182.527522
11
118.404556
21
182.524522
0
LINE
8
Calque 1
10
118.404556
20
182.524522
11
118.471456
21
182.521522
0
LINE
8
Calque 1
10
118.471456
20
182.521522
11
118.552556
21
182.542722
0
LINE
8
Calque 1
10
118.552556
20
182.542722
11
118.629356
21
182.537722
0
LINE
8
Calque 1
10
118.629356
20
182.537722
11
119.052266
21
182.481522
0
LINE
8
Calque 1
10
119.052266
20
182.481522
11
120.210716
21
182.256302
0
LINE
8
Calque 1
10
120.210716
20
182.256302
11
120.294916
21
182.206202
0
LINE
8
Calque 1
10
120.294916
20
182.206202
11
120.215116
21
182.174402
0
LINE
8
Calque 1
10
120.215116
20
182.174402
11
113.736646
21
179.235962
0
LINE
8
Calque 1
10
113.736646
20
179.235962
11
113.459576
21
179.120642
0
LINE
8
Calque 1
10
113.459576
20
179.120642
11
110.627805
21
179.996292
0
LINE
8
Calque 1
10
110.627805
20
179.996292
11
107.892092
21
180.504290
0
LINE
8
Calque 1
10
107.892092
20
180.504290
11
105.285771
21
180.571353
0
LINE
8
Calque 1
10
105.285771
20
180.571353
11
102.842174
21
180.124197
0
LINE
8
Calque 1
10
102.842174
20
180.124197
11
101.691813
21
179.684886
0
LINE
8
Calque 1
10
101.691813
20
179.684886
11
100.594633
21
179.089540
0
LINE
8
Calque 1
10
100.594633
20
179.089540
11
99.554800
21
178.328998
0
LINE
8
Calque 1
10
99.554800
20
178.328998
11
98.576481
21
177.394099
0
LINE
8
Calque 1
10
98.576481
20
177.394099
11
97.663843
21
176.275683
0
LINE
8
Calque 1
10
97.663843
20
176.275683
11
96.821052
21
174.964591
0
LINE
8
Calque 1
10
96.821052
20
174.964591
11
96.052274
21
173.451660
0
LINE
8
Calque 1
10
96.052274
20
173.451660
11
95.361676
21
171.727732
0
LINE
8
Calque 1
10
95.361676
20
171.727732
11
93.805506
21
170.941852
0
LINE
8
Calque 1
10
93.805506
20
170.941852
11
92.386286
21
170.409812
0
LINE
8
Calque 1
10
92.386286
20
170.409812
11
90.578016
21
169.497782
0
LINE
8
Calque 1
10
90.578016
20
169.497782
11
89.171706
21
168.866512
0
LINE
8
Calque 1
10
89.171706
20
168.866512
11
88.072736
21
168.533772
0
LINE
8
Calque 1
10
88.072736
20
168.533772
11
87.533145
21
168.281317
0
LINE
8
Calque 1
10
87.533145
20
168.281317
11
87.525367
21
168.244382
0
LINE
8
Calque 1
10
87.525367
20
168.244382
11
86.780936
21
168.026442
0
LINE
8
Calque 1
10
86.780936
20
168.026442
11
85.285086
21
167.451392
0
LINE
8
Calque 1
10
85.285086
20
167.451392
11
84.045776
21
167.237182
0
LINE
8
Calque 1
10
84.045776
20
167.237182
11
83.524865
21
167.020612
0
LINE
8
Calque 1
10
83.524865
20
167.020612
11
82.224595
21
166.688712
0
LINE
8
Calque 1
10
82.224595
20
166.688712
11
81.881484
21
166.552572
0
LINE
8
Calque 1
10
81.881484
20
166.552572
11
80.984442
21
167.451392
0
LINE
8
Calque 1
10
80.984442
20
167.451392
11
80.278323
21
167.864392
0
LINE
8
Calque 1
10
80.278323
20
167.864392
11
79.842502
21
168.137702
0
LINE
8
Calque 1
10
79.842502
20
168.137702
11
78.933606
21
168.596592
0
LINE
8
Calque 1
10
78.933606
20
168.596592
11
77.954940
21
168.789523
0
LINE
8
Calque 1
10
77.954940
20
168.789523
11
77.315836
21
168.750682
0
LINE
8
Calque 1
10
77.315836
20
168.750682
11
77.107899
21
168.762846
0
LINE
8
Calque 1
10
77.107899
20
168.762846
11
76.321639
21
168.518022
0
LINE
8
Calque 1
10
76.321639
20
168.518022
11
75.612979
21
168.019842
0
LINE
8
Calque 1
10
75.612979
20
168.019842
11
74.983272
21
167.335232
0
LINE
8
Calque 1
10
74.983272
20
167.335232
11
74.652600
21
166.673877
0
LINE
8
Calque 1
10
74.652600
20
166.673877
11
74.491650
21
166.042241
0
LINE
8
Calque 1
10
74.491650
20
166.042241
11
74.476119
21
164.923752
0
LINE
8
Calque 1
10
74.476119
20
164.923752
11
74.635292
21
164.145332
0
LINE
8
Calque 1
10
74.635292
20
164.145332
11
74.436749
21
164.071332
0
LINE
8
Calque 1
10
74.436749
20
164.071332
11
73.249089
21
163.378082
0
LINE
8
Calque 1
10
73.249089
20
163.378082
11
72.609857
21
163.039922
0
LINE
8
Calque 1
10
72.609857
20
163.039922
11
71.729748
21
162.414412
0
LINE
8
Calque 1
10
71.729748
20
162.414412
11
71.300700
21
162.139072
0
LINE
8
Calque 1
10
71.300700
20
162.139072
11
70.770449
21
161.612172
0
LINE
8
Calque 1
10
70.770449
20
161.612172
11
70.592464
21
161.265482
0
LINE
8
Calque 1
10
70.592464
20
161.265482
11
70.507107
21
161.090011
0
LINE
8
Calque 1
10
70.507107
20
161.090011
11
70.542084
21
161.148982
0
LINE
8
Calque 1
10
70.542084
20
161.148982
11
70.356426
21
160.874987
0
LINE
8
Calque 1
10
70.356426
20
160.874987
11
70.009954
21
160.129092
0
LINE
8
Calque 1
10
70.009954
20
160.129092
11
69.612233
21
158.677562
0
LINE
8
Calque 1
10
69.612233
20
158.677562
11
69.297618
21
157.564137
0
LINE
8
Calque 1
10
69.297618
20
157.564137
11
69.128575
21
155.978392
0
LINE
8
Calque 1
10
69.128575
20
155.978392
11
69.288861
21
154.843416
0
LINE
8
Calque 1
10
69.288861
20
154.843416
11
69.645041
21
153.777402
0
LINE
8
Calque 1
10
69.645041
20
153.777402
11
70.131636
21
152.708850
0
LINE
8
Calque 1
10
70.131636
20
152.708850
11
71.029551
21
151.660742
0
LINE
8
Calque 1
10
71.029551
20
151.660742
11
72.170407
21
151.015412
0
LINE
8
Calque 1
10
72.170407
20
151.015412
11
73.128861
21
150.758702
0
LINE
8
Calque 1
10
73.128861
20
150.758702
11
73.891170
21
150.763308
0
LINE
8
Calque 1
10
73.891170
20
150.763308
11
74.568985
21
151.049933
0
LINE
8
Calque 1
10
74.568985
20
151.049933
11
75.089875
21
151.569826
0
LINE
8
Calque 1
10
75.089875
20
151.569826
11
75.381411
21
152.274232
0
LINE
8
Calque 1
10
75.381411
20
152.274232
11
75.376960
21
153.036694
0
LINE
8
Calque 1
10
75.376960
20
153.036694
11
75.090370
21
153.714686
0
LINE
8
Calque 1
10
75.090370
20
153.714686
11
74.570419
21
154.235738
0
LINE
8
Calque 1
10
74.570419
20
154.235738
11
73.865881
21
154.527382
0
LINE
8
Calque 1
10
73.865881
20
154.527382
11
73.548381
21
154.587282
0
LINE
8
Calque 1
10
73.548381
20
154.587282
11
73.215219
21
155.190452
0
LINE
8
Calque 1
10
73.215219
20
155.190452
11
72.966722
21
156.095362
0
LINE
8
Calque 1
10
72.966722
20
156.095362
11
73.321898
21
157.684892
0
LINE
8
Calque 1
10
73.321898
20
157.684892
11
73.630296
21
158.847362
0
LINE
8
Calque 1
10
73.630296
20
158.847362
11
73.658130
21
158.853831
0
LINE
8
Calque 1
10
73.658130
20
158.853831
11
73.856779
21
159.208382
0
LINE
8
Calque 1
10
73.856779
20
159.208382
11
74.582795
21
159.745342
0
LINE
8
Calque 1
10
74.582795
20
159.745342
11
75.089948
21
160.008312
0
LINE
8
Calque 1
10
75.089948
20
160.008312
11
75.803052
21
160.439432
0
LINE
8
Calque 1
10
75.803052
20
160.439432
11
75.937037
21
160.491632
0
LINE
8
Calque 1
10
75.937037
20
160.491632
11
76.049432
21
160.217482
0
LINE
8
Calque 1
10
76.049432
20
160.217482
11
76.280148
21
159.828862
0
LINE
8
Calque 1
10
76.280148
20
159.828862
11
76.795767
21
158.625412
0
LINE
8
Calque 1
10
76.795767
20
158.625412
11
76.827517
21
158.556012
0
LINE
8
Calque 1
10
76.827517
20
158.556012
11
76.803177
21
158.478312
0
LINE
8
Calque 1
10
76.803177
20
158.478312
11
76.753939
21
157.370511
0
LINE
8
Calque 1
10
76.753939
20
157.370511
11
76.975685
21
156.652732
0
LINE
8
Calque 1
10
76.975685
20
156.652732
11
77.284718
21
155.931372
0
LINE
8
Calque 1
10
77.284718
20
155.931372
11
78.370778
21
153.205272
0
LINE
8
Calque 1
10
78.370778
20
153.205272
11
78.693781
21
152.222972
0
LINE
8
Calque 1
10
78.693781
20
152.222972
11
79.077744
21
151.265562
0
LINE
8
Calque 1
10
79.077744
20
151.265562
11
79.608180
21
149.711592
0
LINE
8
Calque 1
10
79.608180
20
149.711592
11
79.816036
21
149.271672
0
LINE
8
Calque 1
10
79.816036
20
149.271672
11
80.474319
21
147.867722
0
LINE
8
Calque 1
10
80.474319
20
147.867722
11
80.972608
21
146.869295
0
LINE
8
Calque 1
10
80.972608
20
146.869295
11
81.796809
21
145.681132
0
LINE
8
Calque 1
10
81.796809
20
145.681132
11
82.543363
21
144.959321
0
LINE
8
Calque 1
10
82.543363
20
144.959321
11
83.306307
21
144.410201
0
LINE
8
Calque 1
10
83.306307
20
144.410201
11
84.690709
21
143.644732
0
LINE
8
Calque 1
10
84.690709
20
143.644732
11
85.578650
21
143.183292
0
LINE
8
Calque 1
10
85.578650
20
143.183292
11
86.620050
21
142.689352
0
LINE
8
Calque 1
10
86.620050
20
142.689352
11
87.562600
21
142.414352
0
LINE
8
Calque 1
10
87.562600
20
142.414352
11
88.519782
21
142.101936
0
LINE
8
Calque 1
10
88.519782
20
142.101936
11
89.787640
21
141.797642
0
LINE
8
Calque 1
10
89.787640
20
141.797642
11
91.244960
21
141.712842
0
LINE
8
Calque 1
10
91.244960
20
141.712842
11
92.240851
21
141.766142
0
LINE
8
Calque 1
10
92.240851
20
141.766142
11
92.974698
21
141.942762
0
LINE
8
Calque 1
10
92.974698
20
141.942762
11
95.057288
21
142.703402
0
LINE
8
Calque 1
10
95.057288
20
142.703402
11
95.930835
21
143.246622
0
LINE
8
Calque 1
10
95.930835
20
143.246622
11
96.573031
21
143.699252
0
LINE
8
Calque 1
10
96.573031
20
143.699252
11
96.856029
21
143.954442
0
LINE
8
Calque 1
10
96.856029
20
143.954442
11
96.858129
21
143.957442
0
LINE
8
Calque 1
10
96.858129
20
143.957442
11
96.858200
21
143.977000
0
LINE
8
Calque 1
10
96.858200
20
143.977000
11
96.858200
21
144.377000
0
LINE
8
Calque 1
10
96.858200
20
144.377000
11
96.889700
21
144.377000
0
LINE
8
Calque 1
10
96.889700
20
144.377000
11
96.858160
21
143.976870
0
LINE
8
Calque 1
10
96.858160
20
143.976870
11
97.142584
21
141.155466
0
LINE
8
Calque 1
10
97.142584
20
141.155466
11
97.958326
21
138.527597
0
LINE
8
Calque 1
10
97.958326
20
138.527597
11
99.249092
21
136.149557
0
LINE
8
Calque 1
10
99.249092
20
136.149557
11
100.958586
21
134.077639
0
LINE
8
Calque 1
10
100.958586
20
134.077639
11
103.030515
21
132.368137
0
LINE
8
Calque 1
10
103.030515
20
132.368137
11
105.408583
21
131.077346
0
LINE
8
Calque 1
10
105.408583
20
131.077346
11
108.036497
21
130.261559
0
LINE
8
Calque 1
10
108.036497
20
130.261559
11
110.857960
21
129.977070
0
LINE
8
Calque 1
10
110.857960
20
129.977070
11
113.679441
21
130.261494
0
LINE
8
Calque 1
10
113.679441
20
130.261494
11
116.307381
21
131.077236
0
LINE
8
Calque 1
10
116.307381
20
131.077236
11
118.685481
21
132.368002
0
LINE
8
Calque 1
10
118.685481
20
132.368002
11
120.757445
21
134.077496
0
LINE
8
Calque 1
10
120.757445
20
134.077496
11
122.466973
21
136.149425
0
LINE
8
Calque 1
10
122.466973
20
136.149425
11
123.757767
21
138.527493
0
LINE
8
Calque 1
10
123.757767
20
138.527493
11
124.573529
21
141.155407
0
LINE
8
Calque 1
10
124.573529
20
141.155407
11
124.857960
21
143.976870
0
LINE
8
Calque 1
10
124.857960
20
143.976870
11
124.912160
21
144.468270
0
LINE
8
Calque 1
10
124.912160
20
144.468270
11
124.874660
21
145.317140
0
LINE
8
Calque 1
10
124.874660
20
145.317140
11
124.557370
21
147.089040
0
LINE
8
Calque 1
10
124.557370
20
147.089040
11
124.340840
21
148.506530
0
LINE
8
Calque 1
10
124.340840
20
148.506530
11
123.926180
21
150.915120
0
LINE
8
Calque 1
10
123.926180
20
150.915120
11
122.728150
21
157.454430
0
LINE
8
Calque 1
10
122.728150
20
157.454430
11
122.444090
21
158.742210
0
LINE
8
Calque 1
10
122.444090
20
158.742210
11
122.122150
21
160.391340
0
LINE
8
Calque 1
10
122.122150
20
160.391340
11
121.656480
21
162.744900
0
LINE
8
Calque 1
10
121.656480
20
162.744900
11
121.390840
21
163.817630
0
LINE
8
Calque 1
10
121.390840
20
163.817630
11
121.033970
21
165.156710
0
LINE
8
Calque 1
10
121.033970
20
165.156710
11
120.748220
21
166.004230
0
LINE
8
Calque 1
10
120.748220
20
166.004230
11
120.510100
21
166.733880
0
LINE
8
Calque 1
10
120.510100
20
166.733880
11
119.472510
21
169.518230
0
LINE
8
Calque 1
10
119.472510
20
169.518230
11
119.043460
21
170.760120
0
LINE
8
Calque 1
10
119.043460
20
170.760120
11
118.757710
21
171.564620
0
LINE
8
Calque 1
10
118.757710
20
171.564620
11
118.221140
21
172.577060
0
LINE
8
Calque 1
10
118.221140
20
172.577060
11
117.925010
21
172.920980
0
LINE
8
Calque 1
10
117.925010
20
172.920980
11
117.671230
21
173.238480
0
LINE
8
Calque 1
10
117.671230
20
173.238480
11
117.269060
21
173.601020
0
LINE
8
Calque 1
10
117.269060
20
173.601020
11
117.452580
21
173.448110
0
LINE
8
Calque 1
10
117.452580
20
173.448110
11
117.362380
21
173.553100
0
LINE
8
Calque 1
10
117.362380
20
173.553100
11
117.135050
21
173.827590
0
LINE
8
Calque 1
10
117.135050
20
173.827590
11
117.026250
21
173.992520
0
LINE
8
Calque 1
10
117.026250
20
173.992520
11
116.664510
21
174.471730
0
LINE
8
Calque 1
10
116.664510
20
174.471730
11
115.942730
21
175.286560
0
LINE
8
Calque 1
10
115.942730
20
175.286560
11
115.503310
21
175.812000
0
LINE
8
Calque 1
10
115.503310
20
175.812000
11
120.684690
21
178.162680
0
LINE
8
Calque 1
10
120.684690
20
178.162680
11
120.778766
21
177.520954
0
LINE
8
Calque 1
10
120.778766
20
177.520954
11
121.003885
21
177.099840
0
LINE
8
Calque 1
10
121.003885
20
177.099840
11
121.443300
21
176.664090
0
LINE
8
Calque 1
10
121.443300
20
176.664090
11
121.972793
21
176.350817
0
LINE
8
Calque 1
10
121.972793
20
176.350817
11
122.417258
21
176.221426
0
LINE
8
Calque 1
10
122.417258
20
176.221426
11
123.024030
21
176.219590
0
LINE
8
Calque 1
10
123.024030
20
176.219590
11
123.312423
21
176.234790
0
LINE
8
Calque 1
10
123.312423
20
176.234790
11
123.213470
21
176.242790
0
LINE
8
Calque 1
10
123.213470
20
176.242790
11
123.552350
21
176.225890
0
LINE
8
Calque 1
10
123.552350
20
176.225890
11
124.218040
21
176.071630
0
LINE
8
Calque 1
10
124.218040
20
176.071630
11
124.724980
21
175.927360
0
LINE
8
Calque 1
10
124.724980
20
175.927360
11
124.954430
21
175.832660
0
LINE
8
Calque 1
10
124.954430
20
175.832660
11
125.148950
21
175.713620
0
LINE
8
Calque 1
10
125.148950
20
175.713620
11
125.962170
21
175.264210
0
LINE
8
Calque 1
10
125.962170
20
175.264210
11
126.008070
21
175.198810
0
LINE
8
Calque 1
10
126.008070
20
175.198810
11
126.468660
21
174.417500
0
LINE
8
Calque 1
10
126.468660
20
174.417500
11
126.416560
21
174.237670
0
LINE
8
Calque 1
10
126.416560
20
174.237670
11
126.318960
21
173.919320
0
LINE
8
Calque 1
10
126.318960
20
173.919320
11
126.272160
21
173.838720
0
LINE
8
Calque 1
10
126.272160
20
173.838720
11
126.085680
21
173.434020
0
LINE
8
Calque 1
10
126.085680
20
173.434020
11
125.773690
21
172.713000
0
LINE
8
Calque 1
10
125.773690
20
172.713000
11
125.693890
21
172.246310
0
LINE
8
Calque 1
10
125.693890
20
172.246310
11
125.734298
21
171.701356
0
LINE
8
Calque 1
10
125.734298
20
171.701356
11
126.137750
21
170.922980
0
LINE
8
Calque 1
10
126.137750
20
170.922980
11
126.546421
21
170.572567
0
LINE
8
Calque 1
10
126.546421
20
170.572567
11
127.014605
21
170.355775
0
LINE
8
Calque 1
10
127.014605
20
170.355775
11
127.824950
21
170.244120
0
LINE
8
Calque 1
10
127.824950
20
170.244120
11
128.357080
21
170.382630
0
LINE
8
Calque 1
10
128.357080
20
170.382630
11
128.445180
21
170.382630
0
LINE
8
Calque 1
10
128.445180
20
170.382630
11
128.726690
21
170.396130
0
LINE
8
Calque 1
10
128.726690
20
170.396130
11
130.133430
21
170.148060
0
LINE
8
Calque 1
10
130.133430
20
170.148060
11
130.581950
21
170.012080
0
LINE
8
Calque 1
10
130.581950
20
170.012080
11
130.633850
21
170.004080
0
LINE
8
Calque 1
10
130.633850
20
170.004080
11
130.685450
21
169.341470
0
LINE
8
Calque 1
10
130.685450
20
169.341470
11
130.681450
21
168.866830
0
LINE
8
Calque 1
10
130.681450
20
168.866830
11
130.461530
21
168.289750
0
LINE
8
Calque 1
10
130.461530
20
168.289750
11
129.904210
21
167.238870
0
LINE
8
Calque 1
10
129.904210
20
167.238870
11
129.879910
21
167.196670
0
LINE
8
Calque 1
10
129.879910
20
167.196670
11
129.871910
21
167.183170
0
LINE
8
Calque 1
10
129.871910
20
167.183170
11
129.539600
21
166.598970
0
LINE
8
Calque 1
10
129.539600
20
166.598970
11
129.436007
21
166.025371
0
LINE
8
Calque 1
10
129.436007
20
166.025371
11
129.558600
21
165.269530
0
LINE
8
Calque 1
10
129.558600
20
165.269530
11
129.986033
21
164.614931
0
LINE
8
Calque 1
10
129.986033
20
164.614931
11
130.476810
21
164.245070
0
LINE
8
Calque 1
10
130.476810
20
164.245070
11
131.292171
21
163.965815
0
LINE
8
Calque 1
10
131.292171
20
163.965815
11
131.809880
21
163.935860
0
LINE
8
Calque 1
10
131.809880
20
163.935860
11
132.133730
21
163.920660
0
LINE
8
Calque 1
10
132.133730
20
163.920660
11
133.227620
21
163.487850
0
LINE
8
Calque 1
10
133.227620
20
163.487850
11
133.265520
21
163.460550
0
LINE
8
Calque 1
10
133.265520
20
163.460550
11
133.729547
21
162.825866
0
LINE
8
Calque 1
10
133.729547
20
162.825866
11
133.866230
21
162.019350
0
LINE
8
Calque 1
10
133.866230
20
162.019350
11
133.819630
21
161.348120
0
LINE
8
Calque 1
10
133.819630
20
161.348120
11
133.596330
21
160.953570
0
LINE
8
Calque 1
10
133.596330
20
160.953570
11
133.321370
21
160.556310
0
LINE
8
Calque 1
10
133.321370
20
160.556310
11
132.761510
21
159.653940
0
LINE
8
Calque 1
10
132.761510
20
159.653940
11
132.423772
21
159.120729
0
LINE
8
Calque 1
10
132.423772
20
159.120729
11
132.336491
21
158.617071
0
LINE
8
Calque 1
10
132.336491
20
158.617071
11
132.454810
21
157.905910
0
LINE
8
Calque 1
10
132.454810
20
157.905910
11
132.885075
21
157.186011
0
LINE
8
Calque 1
10
132.885075
20
157.186011
11
133.435040
21
156.755800
0
LINE
8
Calque 1
10
133.435040
20
156.755800
11
134.137350
21
156.559040
0
LINE
8
Calque 1
10
134.137350
20
156.559040
11
134.681091
21
156.561802
0
LINE
8
Calque 1
10
134.681091
20
156.561802
11
134.830340
21
156.619840
0
LINE
8
Calque 1
10
134.830340
20
156.619840
11
134.926240
21
156.640140
0
LINE
8
Calque 1
10
134.926240
20
156.640140
11
135.230190
21
156.663340
0
LINE
8
Calque 1
10
135.230190
20
156.663340
11
135.443760
21
156.495370
0
LINE
8
Calque 1
10
135.443760
20
156.495370
11
136.267360
21
155.874420
0
LINE
8
Calque 1
10
136.267360
20
155.874420
11
136.353260
21
155.665630
0
LINE
8
Calque 1
10
136.353260
20
155.665630
11
136.478990
21
155.154250
0
LINE
8
Calque 1
10
136.478990
20
155.154250
11
136.523190
21
154.818290
0
LINE
8
Calque 1
10
136.523190
20
154.818290
11
136.085040
21
153.036060
0
LINE
8
Calque 1
10
136.085040
20
153.036060
11
135.989340
21
152.749890
0
LINE
8
Calque 1
10
135.989340
20
152.749890
11
135.803490
21
152.232410
0
LINE
8
Calque 1
10
135.803490
20
152.232410
11
135.735198
21
151.683988
0
LINE
8
Calque 1
10
135.735198
20
151.683988
11
135.827044
21
151.121136
0
LINE
8
Calque 1
10
135.827044
20
151.121136
11
136.275090
21
150.265260
0
LINE
8
Calque 1
10
136.275090
20
150.265260
11
136.728187
21
149.915294
0
LINE
8
Calque 1
10
136.728187
20
149.915294
11
137.075400
21
149.775890
0
LINE
8
Calque 1
10
137.075400
20
149.775890
11
137.623378
21
149.630670
0
LINE
8
Calque 1
10
137.623378
20
149.630670
11
138.452500
21
149.819590
0
LINE
8
Calque 1
10
138.452500
20
149.819590
11
139.263051
21
150.270755
0
LINE
8
Calque 1
10
139.263051
20
150.270755
11
139.668310
21
150.667950
0
LINE
8
Calque 1
10
139.668310
20
150.667950
11
140.265000
21
151.248760
0
LINE
8
Calque 1
10
140.265000
20
151.248760
11
140.944896
21
151.918260
0
LINE
8
Calque 1
10
140.944896
20
151.918260
11
141.682100
21
152.849630
0
LINE
8
Calque 1
10
141.682100
20
152.849630
11
143.618850
21
155.731010
0
LINE
8
Calque 1
10
143.618850
20
155.731010
11
144.324468
21
157.178615
0
LINE
8
Calque 1
10
144.324468
20
157.178615
11
144.809900
21
158.426960
0
LINE
8
Calque 1
10
144.809900
20
158.426960
11
145.342450
21
159.723710
0
LINE
8
Calque 1
10
145.342450
20
159.723710
11
145.601320
21
160.326880
0
LINE
8
Calque 1
10
145.601320
20
160.326880
11
145.988670
21
161.457680
0
LINE
8
Calque 1
10
145.988670
20
161.457680
11
146.474870
21
162.727680
0
LINE
8
Calque 1
10
146.474870
20
162.727680
11
146.646740
21
163.451410
0
LINE
8
Calque 1
10
146.646740
20
163.451410
11
146.877460
21
164.444040
0
LINE
8
Calque 1
10
146.877460
20
164.444040
11
147.062660
21
164.928670
0
LINE
8
Calque 1
10
147.062660
20
164.928670
11
147.754810
21
166.941030
0
LINE
8
Calque 1
10
147.754810
20
166.941030
11
148.272760
21
168.925440
0
LINE
8
Calque 1
10
148.272760
20
168.925440
11
148.680721
21
171.882424
0
LINE
8
Calque 1
10
148.680721
20
171.882424
11
148.731595
21
173.438860
0
LINE
8
Calque 1
10
148.731595
20
173.438860
11
148.622430
21
175.038540
0
LINE
8
Calque 1
10
148.622430
20
175.038540
11
148.418839
21
176.468875
0
LINE
8
Calque 1
10
148.418839
20
176.468875
11
148.050300
21
177.927020
0
LINE
8
Calque 1
10
148.050300
20
177.927020
11
147.720310
21
178.768780
0
LINE
8
Calque 1
10
147.720310
20
178.768780
11
146.719130
21
181.092540
0
LINE
8
Calque 1
10
146.719130
20
181.092540
11
146.367760
21
181.700780
0
LINE
8
Calque 1
10
146.367760
20
181.700780
11
145.385420
21
183.328240
0
LINE
8
Calque 1
10
145.385420
20
183.328240
11
143.947570
21
185.690610
0
LINE
8
Calque 1
10
143.947570
20
185.690610
11
142.805840
21
187.991170
0
LINE
8
Calque 1
10
142.805840
20
187.991170
11
141.316350
21
190.327460
0
LINE
8
Calque 1
10
141.316350
20
190.327460
11
140.760300
21
191.183100
0
LINE
8
Calque 1
10
140.760300
20
191.183100
11
140.128470
21
192.143050
0
LINE
8
Calque 1
10
140.128470
20
192.143050
11
137.987470
21
194.870330
0
LINE
8
Calque 1
10
137.987470
20
194.870330
11
137.151808
21
195.918329
0
LINE
8
Calque 1
10
137.151808
20
195.918329
11
136.751760
21
196.374000
0
LINE
8
Calque 1
10
136.751760
20
196.374000
11
135.360260
21
197.994020
0
LINE
8
Calque 1
10
135.360260
20
197.994020
11
133.822300
21
199.487710
0
LINE
8
Calque 1
10
133.822300
20
199.487710
11
132.198390
21
200.941270
0
LINE
8
Calque 1
10
132.198390
20
200.941270
11
131.145990
21
201.816044
0
LINE
8
Calque 1
10
131.145990
20
201.816044
11
129.773701
21
202.678479
0
LINE
8
Calque 1
10
129.773701
20
202.678479
11
128.507140
21
203.357654
0
LINE
8
Calque 1
10
128.507140
20
203.357654
11
126.161955
21
204.598060
0
LINE
8
Calque 1
10
126.161955
20
204.598060
11
123.528320
21
205.698514
0
LINE
8
Calque 1
10
123.528320
20
205.698514
11
121.220310
21
206.377201
0
LINE
8
Calque 1
10
121.220310
20
206.377201
11
119.349180
21
206.855906
0
LINE
8
Calque 1
10
119.349180
20
206.855906
11
116.731500
21
207.693936
0
LINE
8
Calque 1
10
116.731500
20
207.693936
11
115.674440
21
208.022273
0
LINE
8
Calque 1
10
115.674440
20
208.022273
11
114.309830
21
208.262895
0
LINE
8
Calque 1
10
114.309830
20
208.262895
11
112.050080
21
208.429349
0
LINE
8
Calque 1
10
112.050080
20
208.429349
11
112.049000
21
208.435000
0
LINE
8
Calque 1
10
94.109900
20
166.958000
11
94.109900
21
166.958000
0
LINE
8
Calque 1
10
94.109900
20
166.958000
11
93.689954
21
166.177040
0
LINE
8
Calque 1
10
93.689954
20
166.177040
11
93.107871
21
164.849130
0
LINE
8
Calque 1
10
93.107871
20
164.849130
11
92.594368
21
163.699020
0
LINE
8
Calque 1
10
92.594368
20
163.699020
11
92.080866
21
162.685390
0
LINE
8
Calque 1
10
92.080866
20
162.685390
11
91.520373
21
161.386440
0
LINE
8
Calque 1
10
91.520373
20
161.386440
11
90.641746
21
158.872010
0
LINE
8
Calque 1
10
90.641746
20
158.872010
11
90.071305
21
157.681430
0
LINE
8
Calque 1
10
90.071305
20
157.681430
11
89.546584
21
156.289850
0
LINE
8
Calque 1
10
89.546584
20
156.289850
11
89.417679
21
155.983520
0
LINE
8
Calque 1
10
89.417679
20
155.983520
11
88.635995
21
157.135330
0
LINE
8
Calque 1
10
88.635995
20
157.135330
11
87.900454
21
158.280020
0
LINE
8
Calque 1
10
87.900454
20
158.280020
11
87.218254
21
159.503790
0
LINE
8
Calque 1
10
87.218254
20
159.503790
11
86.714064
21
160.204490
0
LINE
8
Calque 1
10
86.714064
20
160.204490
11
86.550234
21
160.481860
0
LINE
8
Calque 1
10
86.550234
20
160.481860
11
86.485674
21
160.571560
0
LINE
8
Calque 1
10
86.485674
20
160.571560
11
86.273796
21
160.844360
0
LINE
8
Calque 1
10
86.273796
20
160.844360
11
86.106897
21
161.046631
0
LINE
8
Calque 1
10
86.106897
20
161.046631
11
86.107003
21
161.032490
0
LINE
8
Calque 1
10
86.107003
20
161.032490
11
86.029323
21
161.111890
0
LINE
8
Calque 1
10
86.029323
20
161.111890
11
85.985083
21
161.156090
0
LINE
8
Calque 1
10
85.985083
20
161.156090
11
85.659329
21
161.549280
0
LINE
8
Calque 1
10
85.659329
20
161.549280
11
85.453377
21
161.836130
0
LINE
8
Calque 1
10
85.453377
20
161.836130
11
85.438557
21
161.863930
0
LINE
8
Calque 1
10
85.438557
20
161.863930
11
84.999561
21
162.630340
0
LINE
8
Calque 1
10
84.999561
20
162.630340
11
85.104705
21
162.474086
0
LINE
8
Calque 1
10
85.104705
20
162.474086
11
84.984741
21
162.660140
0
LINE
8
Calque 1
10
84.984741
20
162.660140
11
84.752119
21
162.964430
0
LINE
8
Calque 1
10
84.752119
20
162.964430
11
84.444780
21
163.292600
0
LINE
8
Calque 1
10
84.444780
20
163.292600
11
84.665971
21
163.349700
0
LINE
8
Calque 1
10
84.665971
20
163.349700
11
85.090574
21
163.537830
0
LINE
8
Calque 1
10
85.090574
20
163.537830
11
85.474826
21
163.563560
0
LINE
8
Calque 1
10
85.474826
20
163.563560
11
86.497094
21
163.804870
0
LINE
8
Calque 1
10
86.497094
20
163.804870
11
87.977064
21
164.374170
0
LINE
8
Calque 1
10
87.977064
20
164.374170
11
88.855902
21
164.639170
0
LINE
8
Calque 1
10
88.855902
20
164.639170
11
89.468333
21
164.912711
0
LINE
8
Calque 1
10
89.468333
20
164.912711
11
89.544665
21
164.983940
0
LINE
8
Calque 1
10
89.544665
20
164.983940
11
90.692745
21
165.337840
0
LINE
8
Calque 1
10
90.692745
20
165.337840
11
92.273255
21
166.048870
0
LINE
8
Calque 1
10
92.273255
20
166.048870
11
93.920655
21
166.886900
0
LINE
8
Calque 1
10
93.920655
20
166.886900
11
94.110520
21
166.958000
0
LINE
8
Calque 1
10
94.110520
20
166.958000
11
94.109900
21
166.958000
 0 
ENDSEC
 0 
EOF