999
"DXF R12 Output" (www.mydxf.blogspot.com)
 0 
SECTION
 2 
HEADER
 9 
$ACADVER
 1 
AC1009
 9 
$EXTMIN
 10 
 0 
 20 
 0 
 9 
$EXTMAX
 10 
 8.5 
 20 
 11 
 0 
ENDSEC
 0 
SECTION
 2 
ENTITIES
0
LINE
8
Calque 1
10
136.438000
20
210.598000
11
137.060601
21
210.472273
0
LINE
8
Calque 1
10
137.060601
20
210.472273
11
137.569141
21
210.129396
0
LINE
8
Calque 1
10
137.569141
20
210.129396
11
137.912106
21
209.620824
0
LINE
8
Calque 1
10
137.912106
20
209.620824
11
138.037980
21
208.998010
0
LINE
8
Calque 1
10
138.037980
20
208.998010
11
137.912253
21
208.375014
0
LINE
8
Calque 1
10
137.912253
20
208.375014
11
137.569377
21
207.866234
0
LINE
8
Calque 1
10
137.569377
20
207.866234
11
137.060808
21
207.523187
0
LINE
8
Calque 1
10
137.060808
20
207.523187
11
136.438000
21
207.397390
0
LINE
8
Calque 1
10
136.438000
20
207.397390
11
135.815003
21
207.523156
0
LINE
8
Calque 1
10
135.815003
20
207.523156
11
135.306246
21
207.866151
0
LINE
8
Calque 1
10
135.306246
20
207.866151
11
134.963264
21
208.374921
0
LINE
8
Calque 1
10
134.963264
20
208.374921
11
134.837590
21
208.998010
0
LINE
8
Calque 1
10
134.837590
20
208.998010
11
134.963353
21
209.620735
0
LINE
8
Calque 1
10
134.963353
20
209.620735
11
135.306325
21
210.129318
0
LINE
8
Calque 1
10
135.306325
20
210.129318
11
135.815032
21
210.472244
0
LINE
8
Calque 1
10
135.815032
20
210.472244
11
136.438000
21
210.598000
0
LINE
8
Calque 1
10
136.438000
20
210.598000
11
136.438000
21
210.598000
0
LINE
8
Calque 1
10
136.438000
20
199.397700
11
137.060601
21
199.271941
0
LINE
8
Calque 1
10
137.060601
20
199.271941
11
137.569141
21
198.928993
0
LINE
8
Calque 1
10
137.569141
20
198.928993
11
137.912106
21
198.420351
0
LINE
8
Calque 1
10
137.912106
20
198.420351
11
138.037980
21
197.797510
0
LINE
8
Calque 1
10
138.037980
20
197.797510
11
137.912253
21
197.174808
0
LINE
8
Calque 1
10
137.912253
20
197.174808
11
137.569377
21
196.666071
0
LINE
8
Calque 1
10
137.569377
20
196.666071
11
137.060808
21
196.322951
0
LINE
8
Calque 1
10
137.060808
20
196.322951
11
136.438000
21
196.197100
0
LINE
8
Calque 1
10
136.438000
20
196.197100
11
135.815003
21
196.322863
0
LINE
8
Calque 1
10
135.815003
20
196.322863
11
135.306246
21
196.665835
0
LINE
8
Calque 1
10
135.306246
20
196.665835
11
134.963264
21
197.174542
0
LINE
8
Calque 1
10
134.963264
20
197.174542
11
134.837590
21
197.797510
0
LINE
8
Calque 1
10
134.837590
20
197.797510
11
134.963353
21
198.420351
0
LINE
8
Calque 1
10
134.963353
20
198.420351
11
135.306325
21
198.928993
0
LINE
8
Calque 1
10
135.306325
20
198.928993
11
135.815032
21
199.271941
0
LINE
8
Calque 1
10
135.815032
20
199.271941
11
136.438000
21
199.397700
0
LINE
8
Calque 1
10
136.438000
20
199.397700
11
136.438000
21
199.397700
0
LINE
8
Calque 1
10
138.289000
20
230.606000
11
138.136759
21
229.840633
0
LINE
8
Calque 1
10
138.136759
20
229.840633
11
137.703214
21
229.191786
0
LINE
8
Calque 1
10
137.703214
20
229.191786
11
137.054367
21
228.758241
0
LINE
8
Calque 1
10
137.054367
20
228.758241
11
136.289000
21
228.606000
0
LINE
8
Calque 1
10
136.289000
20
228.606000
11
135.523633
21
228.758241
0
LINE
8
Calque 1
10
135.523633
20
228.758241
11
134.874786
21
229.191786
0
LINE
8
Calque 1
10
134.874786
20
229.191786
11
134.441241
21
229.840633
0
LINE
8
Calque 1
10
134.441241
20
229.840633
11
134.289000
21
230.606000
0
LINE
8
Calque 1
10
134.289000
20
230.606000
11
134.441241
21
231.371367
0
LINE
8
Calque 1
10
134.441241
20
231.371367
11
134.874786
21
232.020214
0
LINE
8
Calque 1
10
134.874786
20
232.020214
11
135.523633
21
232.453759
0
LINE
8
Calque 1
10
135.523633
20
232.453759
11
136.289000
21
232.606000
0
LINE
8
Calque 1
10
136.289000
20
232.606000
11
137.054367
21
232.453759
0
LINE
8
Calque 1
10
137.054367
20
232.453759
11
137.703214
21
232.020214
0
LINE
8
Calque 1
10
137.703214
20
232.020214
11
138.136759
21
231.371367
0
LINE
8
Calque 1
10
138.136759
20
231.371367
11
138.289000
21
230.606000
0
LINE
8
Calque 1
10
138.289000
20
230.606000
11
138.289000
21
230.606000
0
LINE
8
Calque 1
10
138.428000
20
230.772000
11
138.275759
21
230.006633
0
LINE
8
Calque 1
10
138.275759
20
230.006633
11
137.842214
21
229.357786
0
LINE
8
Calque 1
10
137.842214
20
229.357786
11
137.193367
21
228.924241
0
LINE
8
Calque 1
10
137.193367
20
228.924241
11
136.428000
21
228.772000
0
LINE
8
Calque 1
10
136.428000
20
228.772000
11
135.662633
21
228.924241
0
LINE
8
Calque 1
10
135.662633
20
228.924241
11
135.013786
21
229.357786
0
LINE
8
Calque 1
10
135.013786
20
229.357786
11
134.580241
21
230.006633
0
LINE
8
Calque 1
10
134.580241
20
230.006633
11
134.428000
21
230.772000
0
LINE
8
Calque 1
10
134.428000
20
230.772000
11
134.580241
21
231.537367
0
LINE
8
Calque 1
10
134.580241
20
231.537367
11
135.013786
21
232.186214
0
LINE
8
Calque 1
10
135.013786
20
232.186214
11
135.662633
21
232.619759
0
LINE
8
Calque 1
10
135.662633
20
232.619759
11
136.428000
21
232.772000
0
LINE
8
Calque 1
10
136.428000
20
232.772000
11
137.193367
21
232.619759
0
LINE
8
Calque 1
10
137.193367
20
232.619759
11
137.842214
21
232.186214
0
LINE
8
Calque 1
10
137.842214
20
232.186214
11
138.275759
21
231.537367
0
LINE
8
Calque 1
10
138.275759
20
231.537367
11
138.428000
21
230.772000
0
LINE
8
Calque 1
10
138.428000
20
230.772000
11
138.428000
21
230.772000
0
LINE
8
Calque 1
10
136.289000
20
244.606000
11
133.467596
21
244.321521
0
LINE
8
Calque 1
10
133.467596
20
244.321521
11
130.839727
21
243.505740
0
LINE
8
Calque 1
10
130.839727
20
243.505740
11
128.461687
21
242.214951
0
LINE
8
Calque 1
10
128.461687
20
242.214951
11
126.389769
21
240.505450
0
LINE
8
Calque 1
10
126.389769
20
240.505450
11
124.680267
21
238.433530
0
LINE
8
Calque 1
10
124.680267
20
238.433530
11
123.389476
21
236.055485
0
LINE
8
Calque 1
10
123.389476
20
236.055485
11
122.573689
21
233.427611
0
LINE
8
Calque 1
10
122.573689
20
233.427611
11
122.289200
21
230.606200
0
LINE
8
Calque 1
10
122.289200
20
230.606200
11
122.401376
21
229.018636
0
LINE
8
Calque 1
10
122.401376
20
229.018636
11
122.692630
21
227.454060
0
LINE
8
Calque 1
10
122.692630
20
227.454060
11
122.433550
21
224.181870
0
LINE
8
Calque 1
10
122.433550
20
224.181870
11
122.411150
21
222.691400
0
LINE
8
Calque 1
10
122.411150
20
222.691400
11
122.466550
21
221.973430
0
LINE
8
Calque 1
10
122.466550
20
221.973430
11
122.614090
21
220.132100
0
LINE
8
Calque 1
10
122.614090
20
220.132100
11
122.359872
21
217.204404
0
LINE
8
Calque 1
10
122.359872
20
217.204404
11
122.014809
21
214.639197
0
LINE
8
Calque 1
10
122.014809
20
214.639197
11
121.710941
21
211.883218
0
LINE
8
Calque 1
10
121.710941
20
211.883218
11
121.580310
21
208.383200
0
LINE
8
Calque 1
10
121.580310
20
208.383200
11
121.580000
21
208.372000
0
LINE
8
Calque 1
10
121.580000
20
208.372000
11
121.381450
21
206.955720
0
LINE
8
Calque 1
10
121.381450
20
206.955720
11
121.400550
21
207.157900
0
LINE
8
Calque 1
10
121.400550
20
207.157900
11
121.291760
21
206.511040
0
LINE
8
Calque 1
10
121.291760
20
206.511040
11
121.096600
21
205.525800
0
LINE
8
Calque 1
10
121.096600
20
205.525800
11
120.949920
21
204.537370
0
LINE
8
Calque 1
10
120.949920
20
204.537370
11
120.689360
21
202.982190
0
LINE
8
Calque 1
10
120.689360
20
202.982190
11
120.431970
21
200.848810
0
LINE
8
Calque 1
10
120.431970
20
200.848810
11
120.377770
21
200.169900
0
LINE
8
Calque 1
10
120.377770
20
200.169900
11
120.235110
21
198.768840
0
LINE
8
Calque 1
10
120.235110
20
198.768840
11
120.180910
21
195.888180
0
LINE
8
Calque 1
10
120.180910
20
195.888180
11
120.181000
21
195.862000
0
LINE
8
Calque 1
10
120.181000
20
195.862000
11
120.097400
21
195.720480
0
LINE
8
Calque 1
10
120.097400
20
195.720480
11
119.909911
21
195.128774
0
LINE
8
Calque 1
10
119.909911
20
195.128774
11
120.000000
21
194.541867
0
LINE
8
Calque 1
10
120.000000
20
194.541867
11
120.343049
21
194.022630
0
LINE
8
Calque 1
10
120.343049
20
194.022630
11
120.914440
21
193.633930
0
LINE
8
Calque 1
10
120.914440
20
193.633930
11
121.931920
21
193.167760
0
LINE
8
Calque 1
10
121.931920
20
193.167760
11
122.660765
21
192.996571
0
LINE
8
Calque 1
10
122.660765
20
192.996571
11
123.375480
21
192.940140
0
LINE
8
Calque 1
10
123.375480
20
192.940140
11
125.496590
21
192.897440
0
LINE
8
Calque 1
10
125.496590
20
192.897440
11
127.205800
21
193.035480
0
LINE
8
Calque 1
10
127.205800
20
193.035480
11
128.339270
21
193.191700
0
LINE
8
Calque 1
10
128.339270
20
193.191700
11
130.715650
21
193.301740
0
LINE
8
Calque 1
10
130.715650
20
193.301740
11
132.640330
21
193.316440
0
LINE
8
Calque 1
10
132.640330
20
193.316440
11
134.605870
21
193.348240
0
LINE
8
Calque 1
10
134.605870
20
193.348240
11
136.436780
21
193.225180
0
LINE
8
Calque 1
10
136.436780
20
193.225180
11
138.782470
21
193.195780
0
LINE
8
Calque 1
10
138.782470
20
193.195780
11
141.796170
21
193.406330
0
LINE
8
Calque 1
10
141.796170
20
193.406330
11
142.310950
21
193.420230
0
LINE
8
Calque 1
10
142.310950
20
193.420230
11
143.152740
21
193.490630
0
LINE
8
Calque 1
10
143.152740
20
193.490630
11
143.259640
21
193.483630
0
LINE
8
Calque 1
10
143.259640
20
193.483630
11
143.765730
21
193.511130
0
LINE
8
Calque 1
10
143.765730
20
193.511130
11
144.633560
21
193.619060
0
LINE
8
Calque 1
10
144.633560
20
193.619060
11
144.877400
21
193.678260
0
LINE
8
Calque 1
10
144.877400
20
193.678260
11
144.957200
21
193.684260
0
LINE
8
Calque 1
10
144.957200
20
193.684260
11
146.491360
21
193.748460
0
LINE
8
Calque 1
10
146.491360
20
193.748460
11
146.824520
21
193.759660
0
LINE
8
Calque 1
10
146.824520
20
193.759660
11
147.011420
21
193.766660
0
LINE
8
Calque 1
10
147.011420
20
193.766660
11
147.730660
21
193.659710
0
LINE
8
Calque 1
10
147.730660
20
193.659710
11
148.174320
21
193.615610
0
LINE
8
Calque 1
10
148.174320
20
193.615610
11
148.448430
21
193.535210
0
LINE
8
Calque 1
10
148.448430
20
193.535210
11
148.471930
21
193.529210
0
LINE
8
Calque 1
10
148.471930
20
193.529210
11
149.250020
21
193.359680
0
LINE
8
Calque 1
10
149.250020
20
193.359680
11
150.370896
21
193.411935
0
LINE
8
Calque 1
10
150.370896
20
193.411935
11
150.661830
21
193.519690
0
LINE
8
Calque 1
10
150.661830
20
193.519690
11
151.215100
21
193.656667
0
LINE
8
Calque 1
10
151.215100
20
193.656667
11
151.956170
21
194.004620
0
LINE
8
Calque 1
10
151.956170
20
194.004620
11
151.862590
21
193.920310
0
LINE
8
Calque 1
10
151.862590
20
193.920310
11
152.049859
21
194.032564
0
LINE
8
Calque 1
10
152.049859
20
194.032564
11
152.678380
21
194.763640
0
LINE
8
Calque 1
10
152.678380
20
194.763640
11
152.848770
21
195.226170
0
LINE
8
Calque 1
10
152.848770
20
195.226170
11
152.923356
21
197.091660
0
LINE
8
Calque 1
10
152.923356
20
197.091660
11
152.844770
21
198.393300
0
LINE
8
Calque 1
10
152.844770
20
198.393300
11
152.836770
21
199.093560
0
LINE
8
Calque 1
10
152.836770
20
199.093560
11
152.802470
21
200.134080
0
LINE
8
Calque 1
10
152.802470
20
200.134080
11
152.766870
21
201.597910
0
LINE
8
Calque 1
10
152.766870
20
201.597910
11
152.691770
21
203.230530
0
LINE
8
Calque 1
10
152.691770
20
203.230530
11
152.664595
21
203.831654
0
LINE
8
Calque 1
10
152.664595
20
203.831654
11
152.661870
21
203.795390
0
LINE
8
Calque 1
10
152.661870
20
203.795390
11
152.633770
21
204.928580
0
LINE
8
Calque 1
10
152.633770
20
204.928580
11
152.549570
21
207.145570
0
LINE
8
Calque 1
10
152.549570
20
207.145570
11
152.532670
21
207.865870
0
LINE
8
Calque 1
10
152.532670
20
207.865870
11
152.532670
21
209.254910
0
LINE
8
Calque 1
10
152.532670
20
209.254910
11
152.453270
21
210.956700
0
LINE
8
Calque 1
10
152.453270
20
210.956700
11
152.341930
21
213.404970
0
LINE
8
Calque 1
10
152.341930
20
213.404970
11
152.284530
21
215.247780
0
LINE
8
Calque 1
10
152.284530
20
215.247780
11
152.241530
21
215.958460
0
LINE
8
Calque 1
10
152.241530
20
215.958460
11
152.198130
21
216.823510
0
LINE
8
Calque 1
10
152.198130
20
216.823510
11
152.082350
21
218.587270
0
LINE
8
Calque 1
10
152.082350
20
218.587270
11
152.041450
21
219.380210
0
LINE
8
Calque 1
10
152.041450
20
219.380210
11
152.004650
21
219.738350
0
LINE
8
Calque 1
10
152.004650
20
219.738350
11
151.980950
21
219.875170
0
LINE
8
Calque 1
10
151.980950
20
219.875170
11
151.958350
21
220.093440
0
LINE
8
Calque 1
10
151.958350
20
220.093440
11
151.833470
21
221.450640
0
LINE
8
Calque 1
10
151.833470
20
221.450640
11
151.700330
21
222.654090
0
LINE
8
Calque 1
10
151.700330
20
222.654090
11
151.248420
21
226.257840
0
LINE
8
Calque 1
10
151.248420
20
226.257840
11
150.601150
21
230.006200
0
LINE
8
Calque 1
10
150.601150
20
230.006200
11
150.291060
21
234.611550
0
LINE
8
Calque 1
10
150.291060
20
234.611550
11
149.941347
21
236.172637
0
LINE
8
Calque 1
10
149.941347
20
236.172637
11
149.083357
21
237.835757
0
LINE
8
Calque 1
10
149.083357
20
237.835757
11
147.771165
21
239.505351
0
LINE
8
Calque 1
10
147.771165
20
239.505351
11
146.058844
21
241.085855
0
LINE
8
Calque 1
10
146.058844
20
241.085855
11
144.000469
21
242.481709
0
LINE
8
Calque 1
10
144.000469
20
242.481709
11
141.650114
21
243.597352
0
LINE
8
Calque 1
10
141.650114
20
243.597352
11
139.061853
21
244.337223
0
LINE
8
Calque 1
10
139.061853
20
244.337223
11
136.289760
21
244.605760
0
LINE
8
Calque 1
10
136.289760
20
244.605760
11
136.289000
21
244.606000
0
LINE
8
Calque 1
10
93.468400
20
247.263000
11
93.468400
21
247.261000
0
LINE
8
Calque 1
10
93.468400
20
247.261000
11
93.466400
21
247.261000
0
LINE
8
Calque 1
10
93.466400
20
247.261000
11
91.062130
21
247.017162
0
LINE
8
Calque 1
10
91.062130
20
247.017162
11
88.820057
21
246.318198
0
LINE
8
Calque 1
10
88.820057
20
246.318198
11
86.788998
21
245.212934
0
LINE
8
Calque 1
10
86.788998
20
245.212934
11
85.017765
21
243.750195
0
LINE
8
Calque 1
10
85.017765
20
243.750195
11
83.555174
21
241.978807
0
LINE
8
Calque 1
10
83.555174
20
241.978807
11
82.450040
21
239.947594
0
LINE
8
Calque 1
10
82.450040
20
239.947594
11
81.751177
21
237.705384
0
LINE
8
Calque 1
10
81.751177
20
237.705384
11
81.507400
21
235.301000
0
LINE
8
Calque 1
10
81.507400
20
235.301000
11
81.507500
21
235.299000
0
LINE
8
Calque 1
10
81.507500
20
235.299000
11
81.609310
21
233.936710
0
LINE
8
Calque 1
10
81.609310
20
233.936710
11
81.502330
21
233.208790
0
LINE
8
Calque 1
10
81.502330
20
233.208790
11
81.413930
21
232.711590
0
LINE
8
Calque 1
10
81.413930
20
232.711590
11
81.373130
21
231.506990
0
LINE
8
Calque 1
10
81.373130
20
231.506990
11
81.333830
21
230.865640
0
LINE
8
Calque 1
10
81.333830
20
230.865640
11
81.375730
21
228.767180
0
LINE
8
Calque 1
10
81.375730
20
228.767180
11
81.243940
21
226.755300
0
LINE
8
Calque 1
10
81.243940
20
226.755300
11
81.216540
21
224.924380
0
LINE
8
Calque 1
10
81.216540
20
224.924380
11
81.089950
21
223.789000
0
LINE
8
Calque 1
10
81.089950
20
223.789000
11
80.950420
21
222.703370
0
LINE
8
Calque 1
10
80.950420
20
222.703370
11
80.973720
21
221.073530
0
LINE
8
Calque 1
10
80.973720
20
221.073530
11
80.980720
21
218.995180
0
LINE
8
Calque 1
10
80.980720
20
218.995180
11
80.998320
21
218.138360
0
LINE
8
Calque 1
10
80.998320
20
218.138360
11
81.055720
21
217.618930
0
LINE
8
Calque 1
10
81.055720
20
217.618930
11
81.120820
21
216.199920
0
LINE
8
Calque 1
10
81.120820
20
216.199920
11
81.175620
21
215.782930
0
LINE
8
Calque 1
10
81.175620
20
215.782930
11
81.308420
21
213.224310
0
LINE
8
Calque 1
10
81.308420
20
213.224310
11
81.214420
21
211.608870
0
LINE
8
Calque 1
10
81.214420
20
211.608870
11
81.180820
21
210.259710
0
LINE
8
Calque 1
10
81.180820
20
210.259710
11
81.205733
21
209.882440
0
LINE
8
Calque 1
10
81.205733
20
209.882440
11
81.219020
21
209.896490
0
LINE
8
Calque 1
10
81.219020
20
209.896490
11
81.229420
21
209.349760
0
LINE
8
Calque 1
10
81.229420
20
209.349760
11
81.288320
21
209.674240
0
LINE
8
Calque 1
10
81.288320
20
209.674240
11
81.261395
21
209.532765
0
LINE
8
Calque 1
10
81.261395
20
209.532765
11
81.201020
21
209.180630
0
LINE
8
Calque 1
10
81.201020
20
209.180630
11
81.186620
21
208.535260
0
LINE
8
Calque 1
10
81.186620
20
208.535260
11
81.196445
21
208.141486
0
LINE
8
Calque 1
10
81.196445
20
208.141486
11
81.214520
21
208.210140
0
LINE
8
Calque 1
10
81.214520
20
208.210140
11
81.117420
21
207.308020
0
LINE
8
Calque 1
10
81.117420
20
207.308020
11
81.062120
21
205.726030
0
LINE
8
Calque 1
10
81.062120
20
205.726030
11
80.970120
21
204.771200
0
LINE
8
Calque 1
10
80.970120
20
204.771200
11
80.993920
21
204.229550
0
LINE
8
Calque 1
10
80.993920
20
204.229550
11
80.999920
21
203.142850
0
LINE
8
Calque 1
10
80.999920
20
203.142850
11
80.975620
21
202.759950
0
LINE
8
Calque 1
10
80.975620
20
202.759950
11
80.970620
21
202.344440
0
LINE
8
Calque 1
10
80.970620
20
202.344440
11
80.923620
21
201.856550
0
LINE
8
Calque 1
10
80.923620
20
201.856550
11
80.936520
21
201.356810
0
LINE
8
Calque 1
10
80.936520
20
201.356810
11
80.934520
21
201.390010
0
LINE
8
Calque 1
10
80.934520
20
201.390010
11
80.942520
21
201.089230
0
LINE
8
Calque 1
10
80.942520
20
201.089230
11
80.889820
21
200.427770
0
LINE
8
Calque 1
10
80.889820
20
200.427770
11
80.934820
21
199.546180
0
LINE
8
Calque 1
10
80.934820
20
199.546180
11
80.896020
21
198.988020
0
LINE
8
Calque 1
10
80.896020
20
198.988020
11
80.918720
21
198.367410
0
LINE
8
Calque 1
10
80.918720
20
198.367410
11
80.946620
21
198.243800
0
LINE
8
Calque 1
10
80.946620
20
198.243800
11
80.936620
21
197.987470
0
LINE
8
Calque 1
10
80.936620
20
197.987470
11
80.872020
21
197.443490
0
LINE
8
Calque 1
10
80.872020
20
197.443490
11
80.871708
21
196.968194
0
LINE
8
Calque 1
10
80.871708
20
196.968194
11
80.891720
21
196.938030
0
LINE
8
Calque 1
10
80.891720
20
196.938030
11
80.872720
21
196.667730
0
LINE
8
Calque 1
10
80.872720
20
196.667730
11
80.831920
21
196.568030
0
LINE
8
Calque 1
10
80.831920
20
196.568030
11
80.736820
21
195.926260
0
LINE
8
Calque 1
10
80.736820
20
195.926260
11
80.736820
21
195.403230
0
LINE
8
Calque 1
10
80.736820
20
195.403230
11
80.763220
21
194.822420
0
LINE
8
Calque 1
10
80.763220
20
194.822420
11
80.898090
21
193.750120
0
LINE
8
Calque 1
10
80.898090
20
193.750120
11
80.768380
21
192.557800
0
LINE
8
Calque 1
10
80.768380
20
192.557800
11
80.734780
21
192.215750
0
LINE
8
Calque 1
10
80.734780
20
192.215750
11
80.662380
21
191.813160
0
LINE
8
Calque 1
10
80.662380
20
191.813160
11
80.590080
21
191.113600
0
LINE
8
Calque 1
10
80.590080
20
191.113600
11
80.597080
21
190.639680
0
LINE
8
Calque 1
10
80.597080
20
190.639680
11
80.607880
21
190.357110
0
LINE
8
Calque 1
10
80.607880
20
190.357110
11
80.609880
21
189.285650
0
LINE
8
Calque 1
10
80.609880
20
189.285650
11
80.548880
21
188.430940
0
LINE
8
Calque 1
10
80.548880
20
188.430940
11
80.487380
21
187.999990
0
LINE
8
Calque 1
10
80.487380
20
187.999990
11
80.421780
21
186.648710
0
LINE
8
Calque 1
10
80.421780
20
186.648710
11
80.398480
21
186.141770
0
LINE
8
Calque 1
10
80.398480
20
186.141770
11
78.806860
21
186.566580
0
LINE
8
Calque 1
10
78.806860
20
186.566580
11
78.806800
21
186.567000
0
LINE
8
Calque 1
10
78.806800
20
186.567000
11
77.498870
21
186.701410
0
LINE
8
Calque 1
10
77.498870
20
186.701410
11
75.370330
21
187.110140
0
LINE
8
Calque 1
10
75.370330
20
187.110140
11
73.518927
21
187.310270
0
LINE
8
Calque 1
10
73.518927
20
187.310270
11
71.763300
21
187.392290
0
LINE
8
Calque 1
10
71.763300
20
187.392290
11
69.929320
21
187.458990
0
LINE
8
Calque 1
10
69.929320
20
187.458990
11
68.511675
21
187.331513
0
LINE
8
Calque 1
10
68.511675
20
187.331513
11
67.068500
21
186.925590
0
LINE
8
Calque 1
10
67.068500
20
186.925590
11
66.111980
21
186.487440
0
LINE
8
Calque 1
10
66.111980
20
186.487440
11
65.787961
21
186.422840
0
LINE
8
Calque 1
10
65.787961
20
186.422840
11
63.103881
21
186.341540
0
LINE
8
Calque 1
10
63.103881
20
186.341540
11
60.767591
21
186.010920
0
LINE
8
Calque 1
10
60.767591
20
186.010920
11
59.460171
21
186.100920
0
LINE
8
Calque 1
10
59.460171
20
186.100920
11
59.460200
21
186.101000
0
LINE
8
Calque 1
10
59.460200
20
186.101000
11
56.277970
21
185.953040
0
LINE
8
Calque 1
10
56.277970
20
185.953040
11
54.640330
21
185.997040
0
LINE
8
Calque 1
10
54.640330
20
185.997040
11
54.640300
21
185.997000
0
LINE
8
Calque 1
10
54.640300
20
185.997000
11
52.890010
21
186.223910
0
LINE
8
Calque 1
10
52.890010
20
186.223910
11
52.886400
21
186.224000
0
LINE
8
Calque 1
10
52.886400
20
186.224000
11
51.462200
21
186.260200
0
LINE
8
Calque 1
10
51.462200
20
186.260200
11
49.519170
21
186.728410
0
LINE
8
Calque 1
10
49.519170
20
186.728410
11
47.694480
21
186.964410
0
LINE
8
Calque 1
10
47.694480
20
186.964410
11
46.131148
21
187.270324
0
LINE
8
Calque 1
10
46.131148
20
187.270324
11
44.278670
21
187.375260
0
LINE
8
Calque 1
10
44.278670
20
187.375260
11
43.022964
21
187.186549
0
LINE
8
Calque 1
10
43.022964
20
187.186549
11
42.140290
21
186.963990
0
LINE
8
Calque 1
10
42.140290
20
186.963990
11
38.673320
21
186.164530
0
LINE
8
Calque 1
10
38.673320
20
186.164530
11
37.740908
21
185.865337
0
LINE
8
Calque 1
10
37.740908
20
185.865337
11
37.584792
21
185.783768
0
LINE
8
Calque 1
10
37.584792
20
185.783768
11
37.661490
21
185.757920
0
LINE
8
Calque 1
10
37.661490
20
185.757920
11
36.618140
21
185.837520
0
LINE
8
Calque 1
10
36.618140
20
185.837520
11
35.957720
21
185.737190
0
LINE
8
Calque 1
10
35.957720
20
185.737190
11
35.946407
21
185.729252
0
LINE
8
Calque 1
10
35.946407
20
185.729252
11
35.978910
21
185.741190
0
LINE
8
Calque 1
10
35.978910
20
185.741190
11
34.939424
21
185.711901
0
LINE
8
Calque 1
10
34.939424
20
185.711901
11
33.825040
21
185.991380
0
LINE
8
Calque 1
10
33.825040
20
185.991380
11
33.141028
21
186.079605
0
LINE
8
Calque 1
10
33.141028
20
186.079605
11
32.497748
21
185.906630
0
LINE
8
Calque 1
10
32.497748
20
185.906630
11
31.965170
21
185.506525
0
LINE
8
Calque 1
10
31.965170
20
185.506525
11
31.613270
21
184.913360
0
LINE
8
Calque 1
10
31.613270
20
184.913360
11
30.484660
21
181.683540
0
LINE
8
Calque 1
10
30.484660
20
181.683540
11
30.330559
21
180.645659
0
LINE
8
Calque 1
10
30.330559
20
180.645659
11
30.341510
21
180.150860
0
LINE
8
Calque 1
10
30.341510
20
180.150860
11
29.994250
21
176.358230
0
LINE
8
Calque 1
10
29.994250
20
176.358230
11
29.596846
21
174.240080
0
LINE
8
Calque 1
10
29.596846
20
174.240080
11
29.536906
21
172.607070
0
LINE
8
Calque 1
10
29.536906
20
172.607070
11
29.368073
21
169.176887
0
LINE
8
Calque 1
10
29.368073
20
169.176887
11
29.351402
21
165.726860
0
LINE
8
Calque 1
10
29.351402
20
165.726860
11
29.699170
21
160.537010
0
LINE
8
Calque 1
10
29.699170
20
160.537010
11
29.706370
21
160.411490
0
LINE
8
Calque 1
10
29.706370
20
160.411490
11
29.675890
21
160.183100
0
LINE
8
Calque 1
10
29.675890
20
160.183100
11
29.669790
21
159.981600
0
LINE
8
Calque 1
10
29.669790
20
159.981600
11
29.737990
21
159.011530
0
LINE
8
Calque 1
10
29.737990
20
159.011530
11
29.826890
21
158.195130
0
LINE
8
Calque 1
10
29.826890
20
158.195130
11
29.823690
21
157.645650
0
LINE
8
Calque 1
10
29.823690
20
157.645650
11
29.823690
21
157.603950
0
LINE
8
Calque 1
10
29.823690
20
157.603950
11
29.844880
21
156.782680
0
LINE
8
Calque 1
10
29.844880
20
156.782680
11
30.116172
21
153.407240
0
LINE
8
Calque 1
10
30.116172
20
153.407240
11
30.078962
21
150.528360
0
LINE
8
Calque 1
10
30.078962
20
150.528360
11
30.277400
21
144.948200
0
LINE
8
Calque 1
10
30.277400
20
144.948200
11
30.239595
21
142.908451
0
LINE
8
Calque 1
10
30.239595
20
142.908451
11
30.281600
21
140.687570
0
LINE
8
Calque 1
10
30.281600
20
140.687570
11
30.345140
21
139.928530
0
LINE
8
Calque 1
10
30.345140
20
139.928530
11
30.387520
21
139.639610
0
LINE
8
Calque 1
10
30.387520
20
139.639610
11
30.436100
21
139.466460
0
LINE
8
Calque 1
10
30.436100
20
139.466460
11
30.459870
21
138.524340
0
LINE
8
Calque 1
10
30.459870
20
138.524340
11
30.424164
21
136.747214
0
LINE
8
Calque 1
10
30.424164
20
136.747214
11
30.445480
21
134.697200
0
LINE
8
Calque 1
10
30.445480
20
134.697200
11
30.641843
21
132.815270
0
LINE
8
Calque 1
10
30.641843
20
132.815270
11
30.568453
21
130.321210
0
LINE
8
Calque 1
10
30.568453
20
130.321210
11
30.696109
21
127.119330
0
LINE
8
Calque 1
10
30.696109
20
127.119330
11
30.550885
21
124.837360
0
LINE
8
Calque 1
10
30.550885
20
124.837360
11
30.605155
21
121.414290
0
LINE
8
Calque 1
10
30.605155
20
121.414290
11
30.442363
21
117.625460
0
LINE
8
Calque 1
10
30.442363
20
117.625460
11
30.442363
21
111.534330
0
LINE
8
Calque 1
10
30.442363
20
111.534330
11
30.247062
21
109.192375
0
LINE
8
Calque 1
10
30.247062
20
109.192375
11
30.150898
21
106.566740
0
LINE
8
Calque 1
10
30.150898
20
106.566740
11
30.295085
21
104.122410
0
LINE
8
Calque 1
10
30.295085
20
104.122410
11
30.265859
21
102.382728
0
LINE
8
Calque 1
10
30.265859
20
102.382728
11
30.362775
21
100.409990
0
LINE
8
Calque 1
10
30.362775
20
100.409990
11
30.663024
21
98.633270
0
LINE
8
Calque 1
10
30.663024
20
98.633270
11
30.645874
21
97.523710
0
LINE
8
Calque 1
10
30.645874
20
97.523710
11
30.588004
21
96.030830
0
LINE
8
Calque 1
10
30.588004
20
96.030830
11
31.025688
21
90.312450
0
LINE
8
Calque 1
10
31.025688
20
90.312450
11
31.096488
21
86.913090
0
LINE
8
Calque 1
10
31.096488
20
86.913090
11
31.256170
21
85.389090
0
LINE
8
Calque 1
10
31.256170
20
85.389090
11
31.277360
21
84.009450
0
LINE
8
Calque 1
10
31.277360
20
84.009450
11
31.101148
21
82.627050
0
LINE
8
Calque 1
10
31.101148
20
82.627050
11
31.093893
21
79.772888
0
LINE
8
Calque 1
10
31.093893
20
79.772888
11
31.168838
21
77.276550
0
LINE
8
Calque 1
10
31.168838
20
77.276550
11
31.002745
21
75.636986
0
LINE
8
Calque 1
10
31.002745
20
75.636986
11
30.877373
21
73.610070
0
LINE
8
Calque 1
10
30.877373
20
73.610070
11
31.039461
21
71.983940
0
LINE
8
Calque 1
10
31.039461
20
71.983940
11
31.280450
21
70.650550
0
LINE
8
Calque 1
10
31.280450
20
70.650550
11
31.555891
21
67.242500
0
LINE
8
Calque 1
10
31.555891
20
67.242500
11
31.956385
21
63.640580
0
LINE
8
Calque 1
10
31.956385
20
63.640580
11
32.024075
21
62.556420
0
LINE
8
Calque 1
10
32.024075
20
62.556420
11
32.007337
21
62.438553
0
LINE
8
Calque 1
10
32.007337
20
62.438553
11
31.969825
21
62.067470
0
LINE
8
Calque 1
10
31.969825
20
62.067470
11
31.956915
21
61.954870
0
LINE
8
Calque 1
10
31.956915
20
61.954870
11
31.953315
21
61.918270
0
LINE
8
Calque 1
10
31.953315
20
61.918270
11
31.949715
21
61.871270
0
LINE
8
Calque 1
10
31.949715
20
61.871270
11
31.946515
21
61.808670
0
LINE
8
Calque 1
10
31.946515
20
61.808670
11
31.956885
21
61.555090
0
LINE
8
Calque 1
10
31.956885
20
61.555090
11
32.402867
21
60.573590
0
LINE
8
Calque 1
10
32.402867
20
60.573590
11
34.131437
21
60.764300
0
LINE
8
Calque 1
10
34.131437
20
60.764300
11
33.754713
21
60.434100
0
LINE
8
Calque 1
10
33.754713
20
60.434100
11
172.897000
21
60.433800
0
LINE
8
Calque 1
10
172.897000
20
60.433800
11
173.578199
21
60.571304
0
LINE
8
Calque 1
10
173.578199
20
60.571304
11
174.134505
21
60.946299
0
LINE
8
Calque 1
10
174.134505
20
60.946299
11
174.509626
21
61.502506
0
LINE
8
Calque 1
10
174.509626
20
61.502506
11
174.647270
21
62.183650
0
LINE
8
Calque 1
10
174.647270
20
62.183650
11
174.647000
21
145.971000
0
LINE
8
Calque 1
10
174.647000
20
145.971000
11
174.647000
21
182.141000
0
LINE
8
Calque 1
10
174.647000
20
182.141000
11
174.388620
21
183.055610
0
LINE
8
Calque 1
10
174.388620
20
183.055610
11
173.524600
21
184.465310
0
LINE
8
Calque 1
10
173.524600
20
184.465310
11
173.530600
21
184.480110
0
LINE
8
Calque 1
10
173.530600
20
184.480110
11
173.601900
21
184.814550
0
LINE
8
Calque 1
10
173.601900
20
184.814550
11
173.597900
21
185.226870
0
LINE
8
Calque 1
10
173.597900
20
185.226870
11
173.273370
21
186.042850
0
LINE
8
Calque 1
10
173.273370
20
186.042850
11
173.022740
21
186.318440
0
LINE
8
Calque 1
10
173.022740
20
186.318440
11
172.784500
21
186.496020
0
LINE
8
Calque 1
10
172.784500
20
186.496020
11
172.177830
21
186.730760
0
LINE
8
Calque 1
10
172.177830
20
186.730760
11
171.930810
21
186.756960
0
LINE
8
Calque 1
10
171.930810
20
186.756960
11
171.445060
21
186.896450
0
LINE
8
Calque 1
10
171.445060
20
186.896450
11
170.581040
21
186.979850
0
LINE
8
Calque 1
10
170.581040
20
186.979850
11
170.579000
21
186.980000
0
LINE
8
Calque 1
10
170.579000
20
186.980000
11
168.101110
21
187.028900
0
LINE
8
Calque 1
10
168.101110
20
187.028900
11
164.323050
21
186.618690
0
LINE
8
Calque 1
10
164.323050
20
186.618690
11
162.237900
21
186.730870
0
LINE
8
Calque 1
10
162.237900
20
186.730870
11
160.876740
21
186.792870
0
LINE
8
Calque 1
10
160.876740
20
186.792870
11
160.553250
21
186.838370
0
LINE
8
Calque 1
10
160.553250
20
186.838370
11
160.205460
21
186.968550
0
LINE
8
Calque 1
10
160.205460
20
186.968550
11
159.460820
21
187.112690
0
LINE
8
Calque 1
10
159.460820
20
187.112690
11
157.857834
21
187.213188
0
LINE
8
Calque 1
10
157.857834
20
187.213188
11
156.466160
21
187.162890
0
LINE
8
Calque 1
10
156.466160
20
187.162890
11
155.724080
21
187.148090
0
LINE
8
Calque 1
10
155.724080
20
187.148090
11
154.532950
21
187.212190
0
LINE
8
Calque 1
10
154.532950
20
187.212190
11
153.648760
21
187.210190
0
LINE
8
Calque 1
10
153.648760
20
187.210190
11
151.533858
21
187.541679
0
LINE
8
Calque 1
10
151.533858
20
187.541679
11
150.264465
21
187.715440
0
LINE
8
Calque 1
10
150.264465
20
187.715440
11
148.818040
21
187.750580
0
LINE
8
Calque 1
10
148.818040
20
187.750580
11
147.068204
21
187.535837
0
LINE
8
Calque 1
10
147.068204
20
187.535837
11
145.727290
21
187.321740
0
LINE
8
Calque 1
10
145.727290
20
187.321740
11
143.736861
21
187.412300
0
LINE
8
Calque 1
10
143.736861
20
187.412300
11
141.190090
21
187.451920
0
LINE
8
Calque 1
10
141.190090
20
187.451920
11
136.578500
21
186.979050
0
LINE
8
Calque 1
10
136.578500
20
186.979050
11
134.254277
21
186.899539
0
LINE
8
Calque 1
10
134.254277
20
186.899539
11
131.692470
21
186.723360
0
LINE
8
Calque 1
10
131.692470
20
186.723360
11
130.714770
21
186.522700
0
LINE
8
Calque 1
10
130.714770
20
186.522700
11
129.878414
21
186.445127
0
LINE
8
Calque 1
10
129.878414
20
186.445127
11
128.800160
21
186.343420
0
LINE
8
Calque 1
10
128.800160
20
186.343420
11
127.036389
21
186.520517
0
LINE
8
Calque 1
10
127.036389
20
186.520517
11
124.638650
21
186.670660
0
LINE
8
Calque 1
10
124.638650
20
186.670660
11
122.536440
21
186.458780
0
LINE
8
Calque 1
10
122.536440
20
186.458780
11
118.960440
21
186.377080
0
LINE
8
Calque 1
10
118.960440
20
186.377080
11
117.276830
21
186.324380
0
LINE
8
Calque 1
10
117.276830
20
186.324380
11
117.075810
21
186.348080
0
LINE
8
Calque 1
10
117.075810
20
186.348080
11
116.754370
21
187.192630
0
LINE
8
Calque 1
10
116.754370
20
187.192630
11
116.191110
21
188.114430
0
LINE
8
Calque 1
10
116.191110
20
188.114430
11
115.749270
21
188.974220
0
LINE
8
Calque 1
10
115.749270
20
188.974220
11
115.507420
21
189.379990
0
LINE
8
Calque 1
10
115.507420
20
189.379990
11
115.421120
21
189.502540
0
LINE
8
Calque 1
10
115.421120
20
189.502540
11
115.406120
21
189.530240
0
LINE
8
Calque 1
10
115.406120
20
189.530240
11
115.170802
21
190.021124
0
LINE
8
Calque 1
10
115.170802
20
190.021124
11
114.672820
21
190.803630
0
LINE
8
Calque 1
10
114.672820
20
190.803630
11
113.811380
21
191.772000
0
LINE
8
Calque 1
10
113.811380
20
191.772000
11
113.450015
21
192.225761
0
LINE
8
Calque 1
10
113.450015
20
192.225761
11
112.756670
21
192.880500
0
LINE
8
Calque 1
10
112.756670
20
192.880500
11
112.120020
21
193.264460
0
LINE
8
Calque 1
10
112.120020
20
193.264460
11
112.123777
21
193.274799
0
LINE
8
Calque 1
10
112.123777
20
193.274799
11
111.838380
21
193.458770
0
LINE
8
Calque 1
10
111.838380
20
193.458770
11
111.278710
21
193.776690
0
LINE
8
Calque 1
10
111.278710
20
193.776690
11
111.222910
21
193.801890
0
LINE
8
Calque 1
10
111.222910
20
193.801890
11
110.164050
21
194.487060
0
LINE
8
Calque 1
10
110.164050
20
194.487060
11
108.561570
21
195.382190
0
LINE
8
Calque 1
10
108.561570
20
195.382190
11
107.479970
21
195.877280
0
LINE
8
Calque 1
10
107.479970
20
195.877280
11
107.563186
21
195.837542
0
LINE
8
Calque 1
10
107.563186
20
195.837542
11
107.349230
21
195.968280
0
LINE
8
Calque 1
10
107.349230
20
195.968280
11
106.396840
21
196.491100
0
LINE
8
Calque 1
10
106.396840
20
196.491100
11
105.301290
21
196.933480
0
LINE
8
Calque 1
10
105.301290
20
196.933480
11
104.833620
21
197.121020
0
LINE
8
Calque 1
10
104.833620
20
197.121020
11
104.506594
21
197.218087
0
LINE
8
Calque 1
10
104.506594
20
197.218087
11
104.613480
21
197.174320
0
LINE
8
Calque 1
10
104.613480
20
197.174320
11
104.614000
21
197.174000
0
LINE
8
Calque 1
10
104.614000
20
197.174000
11
104.587909
21
197.210700
0
LINE
8
Calque 1
10
104.587909
20
197.210700
11
104.084840
21
197.389900
0
LINE
8
Calque 1
10
104.084840
20
197.389900
11
103.848150
21
197.443200
0
LINE
8
Calque 1
10
103.848150
20
197.443200
11
103.952066
21
197.420725
0
LINE
8
Calque 1
10
103.952066
20
197.420725
11
103.653330
21
197.521700
0
LINE
8
Calque 1
10
103.653330
20
197.521700
11
103.323640
21
197.580100
0
LINE
8
Calque 1
10
103.323640
20
197.580100
11
103.423890
21
197.956230
0
LINE
8
Calque 1
10
103.423890
20
197.956230
11
103.472490
21
198.190330
0
LINE
8
Calque 1
10
103.472490
20
198.190330
11
103.539690
21
198.408980
0
LINE
8
Calque 1
10
103.539690
20
198.408980
11
103.560390
21
198.494280
0
LINE
8
Calque 1
10
103.560390
20
198.494280
11
103.624990
21
198.801620
0
LINE
8
Calque 1
10
103.624990
20
198.801620
11
103.731970
21
199.368470
0
LINE
8
Calque 1
10
103.731970
20
199.368470
11
103.750445
21
199.358585
0
LINE
8
Calque 1
10
103.750445
20
199.358585
11
103.889070
21
199.806830
0
LINE
8
Calque 1
10
103.889070
20
199.806830
11
104.020180
21
200.565941
0
LINE
8
Calque 1
10
104.020180
20
200.565941
11
103.986170
21
200.823250
0
LINE
8
Calque 1
10
103.986170
20
200.823250
11
104.032670
21
201.079580
0
LINE
8
Calque 1
10
104.032670
20
201.079580
11
104.045170
21
201.750350
0
LINE
8
Calque 1
10
104.045170
20
201.750350
11
104.103570
21
202.359100
0
LINE
8
Calque 1
10
104.103570
20
202.359100
11
104.086770
21
202.755496
0
LINE
8
Calque 1
10
104.086770
20
202.755496
11
104.076767
21
202.859099
0
LINE
8
Calque 1
10
104.076767
20
202.859099
11
104.083470
21
202.788990
0
LINE
8
Calque 1
10
104.083470
20
202.788990
11
104.096020
21
202.606877
0
LINE
8
Calque 1
10
104.096020
20
202.606877
11
104.111870
21
202.796990
0
LINE
8
Calque 1
10
104.111870
20
202.796990
11
104.208970
21
203.250810
0
LINE
8
Calque 1
10
104.208970
20
203.250810
11
104.328860
21
204.086890
0
LINE
8
Calque 1
10
104.328860
20
204.086890
11
104.506640
21
205.245980
0
LINE
8
Calque 1
10
104.506640
20
205.245980
11
104.578440
21
206.325050
0
LINE
8
Calque 1
10
104.578440
20
206.325050
11
104.627540
21
206.743090
0
LINE
8
Calque 1
10
104.627540
20
206.743090
11
104.745860
21
207.502760
0
LINE
8
Calque 1
10
104.745860
20
207.502760
11
104.892630
21
209.035860
0
LINE
8
Calque 1
10
104.892630
20
209.035860
11
105.031630
21
210.331470
0
LINE
8
Calque 1
10
105.031630
20
210.331470
11
105.189760
21
211.585170
0
LINE
8
Calque 1
10
105.189760
20
211.585170
11
105.298790
21
214.285820
0
LINE
8
Calque 1
10
105.298790
20
214.285820
11
105.370590
21
216.358880
0
LINE
8
Calque 1
10
105.370590
20
216.358880
11
105.377590
21
218.997090
0
LINE
8
Calque 1
10
105.377590
20
218.997090
11
105.435490
21
222.719250
0
LINE
8
Calque 1
10
105.435490
20
222.719250
11
105.385890
21
224.322410
0
LINE
8
Calque 1
10
105.385890
20
224.322410
11
105.537830
21
225.919220
0
LINE
8
Calque 1
10
105.537830
20
225.919220
11
105.312000
21
228.202250
0
LINE
8
Calque 1
10
105.312000
20
228.202250
11
105.370900
21
229.411500
0
LINE
8
Calque 1
10
105.370900
20
229.411500
11
105.338300
21
230.129270
0
LINE
8
Calque 1
10
105.338300
20
230.129270
11
105.387900
21
231.015510
0
LINE
8
Calque 1
10
105.387900
20
231.015510
11
105.371800
21
231.815820
0
LINE
8
Calque 1
10
105.371800
20
231.815820
11
105.404900
21
231.987910
0
LINE
8
Calque 1
10
105.404900
20
231.987910
11
105.499500
21
233.491800
0
LINE
8
Calque 1
10
105.499500
20
233.491800
11
105.312950
21
234.031760
0
LINE
8
Calque 1
10
105.312950
20
234.031760
11
105.433350
21
235.285040
0
LINE
8
Calque 1
10
105.433350
20
235.285040
11
105.433350
21
235.301940
0
LINE
8
Calque 1
10
105.433350
20
235.301940
11
105.158440
21
237.852941
0
LINE
8
Calque 1
10
105.158440
20
237.852941
11
104.372750
21
240.217260
0
LINE
8
Calque 1
10
104.372750
20
240.217260
11
103.559296
21
241.735545
0
LINE
8
Calque 1
10
103.559296
20
241.735545
11
102.544889
21
243.153053
0
LINE
8
Calque 1
10
102.544889
20
243.153053
11
101.351580
21
244.429091
0
LINE
8
Calque 1
10
101.351580
20
244.429091
11
100.001423
21
245.522966
0
LINE
8
Calque 1
10
100.001423
20
245.522966
11
98.516468
21
246.393987
0
LINE
8
Calque 1
10
98.516468
20
246.393987
11
96.918770
21
247.001461
0
LINE
8
Calque 1
10
96.918770
20
247.001461
11
95.230380
21
247.304696
0
LINE
8
Calque 1
10
95.230380
20
247.304696
11
93.473350
21
247.263000
0
LINE
8
Calque 1
10
93.473350
20
247.263000
11
93.468400
21
247.263000
0
LINE
8
Calque 1
10
103.582000
20
199.028200
11
103.585000
21
199.006400
0
LINE
8
Calque 1
10
103.585000
20
199.006400
11
103.585000
21
198.998400
0
LINE
8
Calque 1
10
103.585000
20
198.998400
11
103.582000
21
199.028500
0
LINE
8
Calque 1
10
103.582000
20
199.028500
11
103.582000
21
199.028200
0
LINE
8
Calque 1
10
80.935800
20
196.812270
11
80.913600
21
196.759170
0
LINE
8
Calque 1
10
80.913600
20
196.759170
11
80.919600
21
196.785470
0
LINE
8
Calque 1
10
80.919600
20
196.785470
11
80.935700
21
196.812370
0
LINE
8
Calque 1
10
80.935700
20
196.812370
11
80.935800
21
196.812270
0
LINE
8
Calque 1
10
115.153900
20
189.756370
11
115.187500
21
189.729070
0
LINE
8
Calque 1
10
115.187500
20
189.729070
11
115.299640
21
189.614350
0
LINE
8
Calque 1
10
115.299640
20
189.614350
11
115.153910
21
189.756370
0
LINE
8
Calque 1
10
115.153910
20
189.756370
11
115.153900
21
189.756370
0
LINE
8
Calque 1
10
171.610400
20
186.779920
11
171.710100
21
186.765120
0
LINE
8
Calque 1
10
171.710100
20
186.765120
11
171.652200
21
186.748220
0
LINE
8
Calque 1
10
171.652200
20
186.748220
11
171.478570
21
186.744220
0
LINE
8
Calque 1
10
171.478570
20
186.744220
11
171.610360
21
186.781920
0
LINE
8
Calque 1
10
171.610360
20
186.781920
11
171.610400
21
186.779920
0
LINE
8
Calque 1
10
173.028900
20
183.699960
11
173.021900
21
183.693960
0
LINE
8
Calque 1
10
173.021900
20
183.693960
11
173.024900
21
183.697960
0
LINE
8
Calque 1
10
173.024900
20
183.697960
11
173.028900
21
183.699960
0
LINE
8
Calque 1
10
173.028900
20
183.699960
11
173.028900
21
183.699960
0
LINE
8
Calque 1
10
95.968200
20
235.299000
11
95.777899
21
234.342291
0
LINE
8
Calque 1
10
95.777899
20
234.342291
11
95.235967
21
233.531233
0
LINE
8
Calque 1
10
95.235967
20
233.531233
11
94.424909
21
232.989301
0
LINE
8
Calque 1
10
94.424909
20
232.989301
11
93.468200
21
232.799000
0
LINE
8
Calque 1
10
93.468200
20
232.799000
11
92.511491
21
232.989301
0
LINE
8
Calque 1
10
92.511491
20
232.989301
11
91.700433
21
233.531233
0
LINE
8
Calque 1
10
91.700433
20
233.531233
11
91.158501
21
234.342291
0
LINE
8
Calque 1
10
91.158501
20
234.342291
11
90.968200
21
235.299000
0
LINE
8
Calque 1
10
90.968200
20
235.299000
11
91.158501
21
236.255709
0
LINE
8
Calque 1
10
91.158501
20
236.255709
11
91.700433
21
237.066767
0
LINE
8
Calque 1
10
91.700433
20
237.066767
11
92.511491
21
237.608699
0
LINE
8
Calque 1
10
92.511491
20
237.608699
11
93.468200
21
237.799000
0
LINE
8
Calque 1
10
93.468200
20
237.799000
11
94.424909
21
237.608699
0
LINE
8
Calque 1
10
94.424909
20
237.608699
11
95.235967
21
237.066767
0
LINE
8
Calque 1
10
95.235967
20
237.066767
11
95.777899
21
236.255709
0
LINE
8
Calque 1
10
95.777899
20
236.255709
11
95.968200
21
235.299000
0
LINE
8
Calque 1
10
95.968200
20
235.299000
11
95.968200
21
235.299000
0
LINE
8
Calque 1
10
160.021000
20
171.026000
11
159.830699
21
170.069291
0
LINE
8
Calque 1
10
159.830699
20
170.069291
11
159.288767
21
169.258233
0
LINE
8
Calque 1
10
159.288767
20
169.258233
11
158.477709
21
168.716301
0
LINE
8
Calque 1
10
158.477709
20
168.716301
11
157.521000
21
168.526000
0
LINE
8
Calque 1
10
157.521000
20
168.526000
11
156.564291
21
168.716301
0
LINE
8
Calque 1
10
156.564291
20
168.716301
11
155.753233
21
169.258233
0
LINE
8
Calque 1
10
155.753233
20
169.258233
11
155.211301
21
170.069291
0
LINE
8
Calque 1
10
155.211301
20
170.069291
11
155.021000
21
171.026000
0
LINE
8
Calque 1
10
155.021000
20
171.026000
11
155.211301
21
171.982709
0
LINE
8
Calque 1
10
155.211301
20
171.982709
11
155.753233
21
172.793767
0
LINE
8
Calque 1
10
155.753233
20
172.793767
11
156.564291
21
173.335699
0
LINE
8
Calque 1
10
156.564291
20
173.335699
11
157.521000
21
173.526000
0
LINE
8
Calque 1
10
157.521000
20
173.526000
11
158.477709
21
173.335699
0
LINE
8
Calque 1
10
158.477709
20
173.335699
11
159.288767
21
172.793767
0
LINE
8
Calque 1
10
159.288767
20
172.793767
11
159.830699
21
171.982709
0
LINE
8
Calque 1
10
159.830699
20
171.982709
11
160.021000
21
171.026000
0
LINE
8
Calque 1
10
160.021000
20
171.026000
11
160.021000
21
171.026000
0
LINE
8
Calque 1
10
65.896700
20
408.333000
11
65.896700
21
408.333000
0
LINE
8
Calque 1
10
65.896700
20
408.333000
11
65.739093
21
408.322400
0
LINE
8
Calque 1
10
65.739093
20
408.322400
11
63.331897
21
407.978095
0
LINE
8
Calque 1
10
63.331897
20
407.978095
11
60.921943
21
407.455335
0
LINE
8
Calque 1
10
60.921943
20
407.455335
11
58.542544
21
406.707350
0
LINE
8
Calque 1
10
58.542544
20
406.707350
11
56.227013
21
405.687370
0
LINE
8
Calque 1
10
56.227013
20
405.687370
11
56.004806
21
405.551050
0
LINE
8
Calque 1
10
56.004806
20
405.551050
11
54.186686
21
404.033488
0
LINE
8
Calque 1
10
54.186686
20
404.033488
11
52.605406
21
402.290101
0
LINE
8
Calque 1
10
52.605406
20
402.290101
11
51.275422
21
400.355996
0
LINE
8
Calque 1
10
51.275422
20
400.355996
11
50.211187
21
398.266276
0
LINE
8
Calque 1
10
50.211187
20
398.266276
11
49.427157
21
396.056047
0
LINE
8
Calque 1
10
49.427157
20
396.056047
11
48.937785
21
393.760413
0
LINE
8
Calque 1
10
48.937785
20
393.760413
11
48.757527
21
391.414479
0
LINE
8
Calque 1
10
48.757527
20
391.414479
11
48.900836
21
389.053350
0
LINE
8
Calque 1
10
48.900836
20
389.053350
11
49.269549
21
386.433778
0
LINE
8
Calque 1
10
49.269549
20
386.433778
11
49.856655
21
383.810774
0
LINE
8
Calque 1
10
49.856655
20
383.810774
11
50.724332
21
381.232183
0
LINE
8
Calque 1
10
50.724332
20
381.232183
11
51.934756
21
378.745850
0
LINE
8
Calque 1
10
51.934756
20
378.745850
11
51.939456
21
378.737850
0
LINE
8
Calque 1
10
51.939456
20
378.737850
11
53.702856
21
376.135587
0
LINE
8
Calque 1
10
53.702856
20
376.135587
11
55.735866
21
373.791075
0
LINE
8
Calque 1
10
55.735866
20
373.791075
11
57.965766
21
371.675283
0
LINE
8
Calque 1
10
57.965766
20
371.675283
11
60.319836
21
369.759180
0
LINE
8
Calque 1
10
60.319836
20
369.759180
11
61.745066
21
368.653220
0
LINE
8
Calque 1
10
61.745066
20
368.653220
11
53.422046
21
368.068390
0
LINE
8
Calque 1
10
53.422046
20
368.068390
11
52.709429
21
367.859470
0
LINE
8
Calque 1
10
52.709429
20
367.859470
11
49.829282
21
366.311529
0
LINE
8
Calque 1
10
49.829282
20
366.311529
11
46.378039
21
364.325280
0
LINE
8
Calque 1
10
46.378039
20
364.325280
11
43.059088
21
362.047246
0
LINE
8
Calque 1
10
43.059088
20
362.047246
11
41.645776
21
360.766119
0
LINE
8
Calque 1
10
41.645776
20
360.766119
11
40.500869
21
359.345830
0
LINE
8
Calque 1
10
40.500869
20
359.345830
11
40.491169
21
359.331030
0
LINE
8
Calque 1
10
40.491169
20
359.331030
11
38.757672
21
356.293675
0
LINE
8
Calque 1
10
38.757672
20
356.293675
11
37.312482
21
353.160478
0
LINE
8
Calque 1
10
37.312482
20
353.160478
11
34.964389
21
346.806730
0
LINE
8
Calque 1
10
34.964389
20
346.806730
11
34.964389
21
346.802730
0
LINE
8
Calque 1
10
34.964389
20
346.802730
11
31.779928
21
337.086365
0
LINE
8
Calque 1
10
31.779928
20
337.086365
11
28.847969
21
327.267430
0
LINE
8
Calque 1
10
28.847969
20
327.267430
11
28.847969
21
327.263430
0
LINE
8
Calque 1
10
28.847969
20
327.263430
11
26.444656
21
317.758547
0
LINE
8
Calque 1
10
26.444656
20
317.758547
11
24.396559
21
308.188730
0
LINE
8
Calque 1
10
24.396559
20
308.188730
11
23.544868
21
303.353480
0
LINE
8
Calque 1
10
23.544868
20
303.353480
11
22.966698
21
298.577047
0
LINE
8
Calque 1
10
22.966698
20
298.577047
11
22.285010
21
289.158893
0
LINE
8
Calque 1
10
22.285010
20
289.158893
11
21.659672
21
279.850782
0
LINE
8
Calque 1
10
21.659672
20
279.850782
11
21.151939
21
275.211904
0
LINE
8
Calque 1
10
21.151939
20
275.211904
11
20.398859
21
270.569230
0
LINE
8
Calque 1
10
20.398859
20
270.569230
11
20.384889
21
270.489230
0
LINE
8
Calque 1
10
20.384889
20
270.489230
11
20.196754
21
268.741845
0
LINE
8
Calque 1
10
20.196754
20
268.741845
11
20.167905
21
266.945724
0
LINE
8
Calque 1
10
20.167905
20
266.945724
11
20.347153
21
265.125473
0
LINE
8
Calque 1
10
20.347153
20
265.125473
11
20.783309
21
263.305700
0
LINE
8
Calque 1
10
20.783309
20
263.305700
11
20.904234
21
263.019950
0
LINE
8
Calque 1
10
20.904234
20
263.019950
11
21.410755
21
262.342296
0
LINE
8
Calque 1
10
21.410755
20
262.342296
11
22.055281
21
261.870046
0
LINE
8
Calque 1
10
22.055281
20
261.870046
11
22.772696
21
261.592543
0
LINE
8
Calque 1
10
22.772696
20
261.592543
11
23.497884
21
261.499130
0
LINE
8
Calque 1
10
23.497884
20
261.499130
11
24.202780
21
261.569838
0
LINE
8
Calque 1
10
24.202780
20
261.569838
11
24.889590
21
261.800700
0
LINE
8
Calque 1
10
24.889590
20
261.800700
11
25.519139
21
262.206319
0
LINE
8
Calque 1
10
25.519139
20
262.206319
11
26.052254
21
262.801300
0
LINE
8
Calque 1
10
26.052254
20
262.801300
11
26.874104
21
264.128289
0
LINE
8
Calque 1
10
26.874104
20
264.128289
11
27.337954
21
265.071420
0
LINE
8
Calque 1
10
27.337954
20
265.071420
11
27.403574
21
265.187630
0
LINE
8
Calque 1
10
27.403574
20
265.187630
11
28.453124
21
267.412450
0
LINE
8
Calque 1
10
28.453124
20
267.412450
11
28.911508
21
261.905310
0
LINE
8
Calque 1
10
28.911508
20
261.905310
11
29.103744
21
261.241110
0
LINE
8
Calque 1
10
29.103744
20
261.241110
11
29.704220
21
260.089850
0
LINE
8
Calque 1
10
29.704220
20
260.089850
11
30.092827
21
259.591312
0
LINE
8
Calque 1
10
30.092827
20
259.591312
11
30.615928
21
259.270515
0
LINE
8
Calque 1
10
30.615928
20
259.270515
11
31.217510
21
259.149465
0
LINE
8
Calque 1
10
31.217510
20
259.149465
11
31.841560
21
259.250170
0
LINE
8
Calque 1
10
31.841560
20
259.250170
11
32.664011
21
259.628563
0
LINE
8
Calque 1
10
32.664011
20
259.628563
11
33.378520
21
260.125599
0
LINE
8
Calque 1
10
33.378520
20
260.125599
11
34.507540
21
261.390120
0
LINE
8
Calque 1
10
34.507540
20
261.390120
11
34.658945
21
260.607160
0
LINE
8
Calque 1
10
34.658945
20
260.607160
11
34.623805
21
260.816930
0
LINE
8
Calque 1
10
34.623805
20
260.816930
11
34.724378
21
260.225136
0
LINE
8
Calque 1
10
34.724378
20
260.225136
11
34.992782
21
259.523010
0
LINE
8
Calque 1
10
34.992782
20
259.523010
11
35.584832
21
258.775590
0
LINE
8
Calque 1
10
35.584832
20
258.775590
11
36.550312
21
258.227400
0
LINE
8
Calque 1
10
36.550312
20
258.227400
11
37.733265
21
258.041378
0
LINE
8
Calque 1
10
37.733265
20
258.041378
11
38.832466
21
258.287673
0
LINE
8
Calque 1
10
38.832466
20
258.287673
11
39.767917
21
258.904568
0
LINE
8
Calque 1
10
39.767917
20
258.904568
11
40.459622
21
259.830350
0
LINE
8
Calque 1
10
40.459622
20
259.830350
11
41.536687
21
261.637499
0
LINE
8
Calque 1
10
41.536687
20
261.637499
11
42.323801
21
263.530991
0
LINE
8
Calque 1
10
42.323801
20
263.530991
11
42.877108
21
265.461910
0
LINE
8
Calque 1
10
42.877108
20
265.461910
11
43.252752
21
267.381340
0
LINE
8
Calque 1
10
43.252752
20
267.381340
11
45.330630
21
280.018493
0
LINE
8
Calque 1
10
45.330630
20
280.018493
11
47.067726
21
292.626865
0
LINE
8
Calque 1
10
47.067726
20
292.626865
11
48.713627
21
305.217424
0
LINE
8
Calque 1
10
48.713627
20
305.217424
11
50.517922
21
317.801140
0
LINE
8
Calque 1
10
50.517922
20
317.801140
11
50.526622
21
317.870740
0
LINE
8
Calque 1
10
50.526622
20
317.870740
11
51.218049
21
324.813761
0
LINE
8
Calque 1
10
51.218049
20
324.813761
11
51.750332
21
331.749440
0
LINE
8
Calque 1
10
51.750332
20
331.749440
11
52.322917
21
324.857137
0
LINE
8
Calque 1
10
52.322917
20
324.857137
11
52.600944
21
317.920101
0
LINE
8
Calque 1
10
52.600944
20
317.920101
11
52.648983
21
303.959940
0
LINE
8
Calque 1
10
52.648983
20
303.959940
11
52.471638
21
285.706590
0
LINE
8
Calque 1
10
52.471638
20
285.706590
11
52.528486
21
276.555249
0
LINE
8
Calque 1
10
52.528486
20
276.555249
11
52.799880
21
267.390540
0
LINE
8
Calque 1
10
52.799880
20
267.390540
11
52.799880
21
267.386540
0
LINE
8
Calque 1
10
52.799880
20
267.386540
11
52.799880
21
267.380540
0
LINE
8
Calque 1
10
52.799880
20
267.380540
11
53.709475
21
245.444515
0
LINE
8
Calque 1
10
53.709475
20
245.444515
11
54.006505
21
234.222515
0
LINE
8
Calque 1
10
54.006505
20
234.222515
11
53.963130
21
223.623540
0
LINE
8
Calque 1
10
53.963130
20
223.623540
11
53.963130
21
223.615540
0
LINE
8
Calque 1
10
53.963130
20
223.615540
11
53.733683
21
213.347440
0
LINE
8
Calque 1
10
53.733683
20
213.347440
11
53.041662
21
212.869340
0
LINE
8
Calque 1
10
53.041662
20
212.869340
11
52.120853
21
212.587770
0
LINE
8
Calque 1
10
52.120853
20
212.587770
11
51.836119
21
212.519170
0
LINE
8
Calque 1
10
51.836119
20
212.519170
11
50.305474
21
211.932621
0
LINE
8
Calque 1
10
50.305474
20
211.932621
11
48.950475
21
211.268507
0
LINE
8
Calque 1
10
48.950475
20
211.268507
11
46.602410
21
209.768566
0
LINE
8
Calque 1
10
46.602410
20
209.768566
11
44.461917
21
208.141307
0
LINE
8
Calque 1
10
44.461917
20
208.141307
11
42.198989
21
206.508690
0
LINE
8
Calque 1
10
42.198989
20
206.508690
11
42.196900
21
206.509000
0
LINE
8
Calque 1
10
42.196900
20
206.509000
11
40.852800
21
205.626780
0
LINE
8
Calque 1
10
40.852800
20
205.626780
11
40.308140
21
205.057390
0
LINE
8
Calque 1
10
40.308140
20
205.057390
11
39.370604
21
203.085818
0
LINE
8
Calque 1
10
39.370604
20
203.085818
11
38.790199
21
201.038165
0
LINE
8
Calque 1
10
38.790199
20
201.038165
11
38.502516
21
198.967653
0
LINE
8
Calque 1
10
38.502516
20
198.967653
11
38.443150
21
196.927500
0
LINE
8
Calque 1
10
38.443150
20
196.927500
11
38.443150
21
196.925500
0
LINE
8
Calque 1
10
38.443150
20
196.925500
11
38.443150
21
196.923500
0
LINE
8
Calque 1
10
38.443150
20
196.923500
11
38.472090
21
194.974900
0
LINE
8
Calque 1
10
38.472090
20
194.974900
11
38.767567
21
194.027849
0
LINE
8
Calque 1
10
38.767567
20
194.027849
11
39.530420
21
193.393540
0
LINE
8
Calque 1
10
39.530420
20
193.393540
11
41.101234
21
192.908811
0
LINE
8
Calque 1
10
41.101234
20
192.908811
11
42.658799
21
192.744359
0
LINE
8
Calque 1
10
42.658799
20
192.744359
11
44.165129
21
192.814062
0
LINE
8
Calque 1
10
44.165129
20
192.814062
11
45.582240
21
193.031800
0
LINE
8
Calque 1
10
45.582240
20
193.031800
11
45.486120
21
193.017000
0
LINE
8
Calque 1
10
45.486120
20
193.017000
11
52.891330
21
194.110284
0
LINE
8
Calque 1
10
52.891330
20
194.110284
11
56.519079
21
194.526147
0
LINE
8
Calque 1
10
56.519079
20
194.526147
11
60.109520
21
194.694460
0
LINE
8
Calque 1
10
60.109520
20
194.694460
11
65.361015
21
194.268798
0
LINE
8
Calque 1
10
65.361015
20
194.268798
11
70.661320
21
193.680580
0
LINE
8
Calque 1
10
70.661320
20
193.680580
11
71.462816
21
193.776680
0
LINE
8
Calque 1
10
71.462816
20
193.776680
11
72.679055
21
194.487095
0
LINE
8
Calque 1
10
72.679055
20
194.487095
11
73.523467
21
195.514254
0
LINE
8
Calque 1
10
73.523467
20
195.514254
11
73.989064
21
196.744136
0
LINE
8
Calque 1
10
73.989064
20
196.744136
11
74.068856
21
198.062720
0
LINE
8
Calque 1
10
74.068856
20
198.062720
11
74.064156
21
197.711770
0
LINE
8
Calque 1
10
74.064156
20
197.711770
11
75.742922
21
213.928215
0
LINE
8
Calque 1
10
75.742922
20
213.928215
11
77.287520
21
230.708221
0
LINE
8
Calque 1
10
77.287520
20
230.708221
11
78.855996
21
247.460059
0
LINE
8
Calque 1
10
78.855996
20
247.460059
11
80.606400
21
263.592000
0
LINE
8
Calque 1
10
80.606400
20
263.592000
11
80.596700
21
263.525300
0
LINE
8
Calque 1
10
80.596700
20
263.525300
11
81.207598
21
268.863211
0
LINE
8
Calque 1
10
81.207598
20
268.863211
11
81.748060
21
275.572100
0
LINE
8
Calque 1
10
81.748060
20
275.572100
11
82.668915
21
285.590300
0
LINE
8
Calque 1
10
82.668915
20
285.590300
11
83.304549
21
285.263070
0
LINE
8
Calque 1
10
83.304549
20
285.263070
11
85.259459
21
284.140180
0
LINE
8
Calque 1
10
85.259459
20
284.140180
11
86.332566
21
283.647787
0
LINE
8
Calque 1
10
86.332566
20
283.647787
11
86.974725
21
283.511229
0
LINE
8
Calque 1
10
86.974725
20
283.511229
11
87.751299
21
283.524650
0
LINE
8
Calque 1
10
87.751299
20
283.524650
11
87.889792
21
283.547550
0
LINE
8
Calque 1
10
87.889792
20
283.547550
11
88.066534
21
283.590350
0
LINE
8
Calque 1
10
88.066534
20
283.590350
11
89.710850
21
283.206621
0
LINE
8
Calque 1
10
89.710850
20
283.206621
11
91.391894
21
283.058640
0
LINE
8
Calque 1
10
91.391894
20
283.058640
11
91.405864
21
283.058640
0
LINE
8
Calque 1
10
91.405864
20
283.058640
11
92.871293
21
283.150615
0
LINE
8
Calque 1
10
92.871293
20
283.150615
11
94.298018
21
283.418325
0
LINE
8
Calque 1
10
94.298018
20
283.418325
11
95.672001
21
283.853945
0
LINE
8
Calque 1
10
95.672001
20
283.853945
11
96.979207
21
284.449651
0
LINE
8
Calque 1
10
96.979207
20
284.449651
11
98.205596
21
285.197619
0
LINE
8
Calque 1
10
98.205596
20
285.197619
11
99.337134
21
286.090024
0
LINE
8
Calque 1
10
99.337134
20
286.090024
11
100.359782
21
287.119043
0
LINE
8
Calque 1
10
100.359782
20
287.119043
11
101.259504
21
288.276850
0
LINE
8
Calque 1
10
101.259504
20
288.276850
11
101.942825
21
289.197151
0
LINE
8
Calque 1
10
101.942825
20
289.197151
11
102.376764
21
290.294460
0
LINE
8
Calque 1
10
102.376764
20
290.294460
11
103.110893
21
292.604876
0
LINE
8
Calque 1
10
103.110893
20
292.604876
11
103.363784
21
295.016100
0
LINE
8
Calque 1
10
103.363784
20
295.016100
11
103.257709
21
296.514461
0
LINE
8
Calque 1
10
103.257709
20
296.514461
11
102.963804
21
297.988530
0
LINE
8
Calque 1
10
102.963804
20
297.988530
11
103.707726
21
306.680191
0
LINE
8
Calque 1
10
103.707726
20
306.680191
11
103.897184
21
311.087930
0
LINE
8
Calque 1
10
103.897184
20
311.087930
11
103.811000
21
315.535000
0
LINE
8
Calque 1
10
103.811000
20
315.535000
11
103.471144
21
324.556152
0
LINE
8
Calque 1
10
103.471144
20
324.556152
11
103.406238
21
333.588638
0
LINE
8
Calque 1
10
103.406238
20
333.588638
11
103.412070
21
351.762800
0
LINE
8
Calque 1
10
103.412070
20
351.762800
11
112.171366
21
335.953562
0
LINE
8
Calque 1
10
112.171366
20
335.953562
11
116.398872
21
327.991705
0
LINE
8
Calque 1
10
116.398872
20
327.991705
11
120.435370
21
319.947600
0
LINE
8
Calque 1
10
120.435370
20
319.947600
11
120.437370
21
319.943600
0
LINE
8
Calque 1
10
120.437370
20
319.943600
11
122.962724
21
314.252254
0
LINE
8
Calque 1
10
122.962724
20
314.252254
11
125.319771
21
308.468954
0
LINE
8
Calque 1
10
125.319771
20
308.468954
11
129.778400
21
296.737800
0
LINE
8
Calque 1
10
129.778400
20
296.737800
11
129.909660
21
296.462840
0
LINE
8
Calque 1
10
129.909660
20
296.462840
11
130.435746
21
295.843645
0
LINE
8
Calque 1
10
130.435746
20
295.843645
11
131.083381
21
295.484212
0
LINE
8
Calque 1
10
131.083381
20
295.484212
11
131.792692
21
295.365062
0
LINE
8
Calque 1
10
131.792692
20
295.365062
11
132.503806
21
295.466715
0
LINE
8
Calque 1
10
132.503806
20
295.466715
11
133.156850
21
295.769693
0
LINE
8
Calque 1
10
133.156850
20
295.769693
11
133.691951
21
296.254515
0
LINE
8
Calque 1
10
133.691951
20
296.254515
11
134.049235
21
296.901704
0
LINE
8
Calque 1
10
134.049235
20
296.901704
11
134.168830
21
297.691780
0
LINE
8
Calque 1
10
134.168830
20
297.691780
11
134.176830
21
297.676980
0
LINE
8
Calque 1
10
134.176830
20
297.676980
11
134.167830
21
297.424880
0
LINE
8
Calque 1
10
134.167830
20
297.424880
11
134.193130
21
297.647980
0
LINE
8
Calque 1
10
134.193130
20
297.647980
11
134.489230
21
297.133840
0
LINE
8
Calque 1
10
134.489230
20
297.133840
11
134.867295
21
296.666566
0
LINE
8
Calque 1
10
134.867295
20
296.666566
11
135.381170
21
296.354700
0
LINE
8
Calque 1
10
135.381170
20
296.354700
11
135.958572
21
296.227886
0
LINE
8
Calque 1
10
135.958572
20
296.227886
11
136.513775
21
296.255699
0
LINE
8
Calque 1
10
136.513775
20
296.255699
11
137.351060
21
296.544350
0
LINE
8
Calque 1
10
137.351060
20
296.544350
11
137.856460
21
296.910110
0
LINE
8
Calque 1
10
137.856460
20
296.910110
11
138.039400
21
297.062090
0
LINE
8
Calque 1
10
138.039400
20
297.062090
11
138.558395
21
297.839963
0
LINE
8
Calque 1
10
138.558395
20
297.839963
11
138.676050
21
298.474960
0
LINE
8
Calque 1
10
138.676050
20
298.474960
11
138.667050
21
298.655720
0
LINE
8
Calque 1
10
138.667050
20
298.655720
11
138.887710
21
298.381410
0
LINE
8
Calque 1
10
138.887710
20
298.381410
11
139.521270
21
297.887380
0
LINE
8
Calque 1
10
139.521270
20
297.887380
11
140.171360
21
297.589140
0
LINE
8
Calque 1
10
140.171360
20
297.589140
11
140.908715
21
297.428877
0
LINE
8
Calque 1
10
140.908715
20
297.428877
11
141.616730
21
297.582429
0
LINE
8
Calque 1
10
141.616730
20
297.582429
11
142.202795
21
298.008311
0
LINE
8
Calque 1
10
142.202795
20
298.008311
11
142.574300
21
298.665040
0
LINE
8
Calque 1
10
142.574300
20
298.665040
11
143.003175
21
300.641039
0
LINE
8
Calque 1
10
143.003175
20
300.641039
11
143.133699
21
302.578721
0
LINE
8
Calque 1
10
143.133699
20
302.578721
11
142.903490
21
306.238250
0
LINE
8
Calque 1
10
142.903490
20
306.238250
11
142.900490
21
306.253050
0
LINE
8
Calque 1
10
142.900490
20
306.253050
11
141.976624
21
314.697810
0
LINE
8
Calque 1
10
141.976624
20
314.697810
11
141.410679
21
318.951904
0
LINE
8
Calque 1
10
141.410679
20
318.951904
11
140.676850
21
323.211150
0
LINE
8
Calque 1
10
140.676850
20
323.211150
11
140.671850
21
323.237650
0
LINE
8
Calque 1
10
140.671850
20
323.237650
11
139.678873
21
327.333345
0
LINE
8
Calque 1
10
139.678873
20
327.333345
11
138.539398
21
331.345224
0
LINE
8
Calque 1
10
138.539398
20
331.345224
11
136.225100
21
339.224850
0
LINE
8
Calque 1
10
136.225100
20
339.224850
11
136.219100
21
339.248550
0
LINE
8
Calque 1
10
136.219100
20
339.248550
11
135.071190
21
342.520621
0
LINE
8
Calque 1
10
135.071190
20
342.520621
11
133.488520
21
345.651250
0
LINE
8
Calque 1
10
133.488520
20
345.651250
11
133.517420
21
345.601050
0
LINE
8
Calque 1
10
133.517420
20
345.601050
11
129.860800
21
352.297330
0
LINE
8
Calque 1
10
129.860800
20
352.297330
11
129.842200
21
352.331030
0
LINE
8
Calque 1
10
129.842200
20
352.331030
11
127.231070
21
357.040870
0
LINE
8
Calque 1
10
127.231070
20
357.040870
11
125.753756
21
359.376601
0
LINE
8
Calque 1
10
125.753756
20
359.376601
11
124.073550
21
361.634190
0
LINE
8
Calque 1
10
124.073550
20
361.634190
11
124.091750
21
361.611990
0
LINE
8
Calque 1
10
124.091750
20
361.611990
11
122.587266
21
363.580731
0
LINE
8
Calque 1
10
122.587266
20
363.580731
11
121.339980
21
365.550260
0
LINE
8
Calque 1
10
121.339980
20
365.550260
11
121.288780
21
365.639160
0
LINE
8
Calque 1
10
121.288780
20
365.639160
11
119.936208
21
367.582144
0
LINE
8
Calque 1
10
119.936208
20
367.582144
11
118.448840
21
369.332661
0
LINE
8
Calque 1
10
118.448840
20
369.332661
11
115.385760
21
372.485930
0
LINE
8
Calque 1
10
115.385760
20
372.485930
11
113.030986
21
375.008281
0
LINE
8
Calque 1
10
113.030986
20
375.008281
11
110.442400
21
377.512370
0
LINE
8
Calque 1
10
110.442400
20
377.512370
11
108.520064
21
379.101725
0
LINE
8
Calque 1
10
108.520064
20
379.101725
11
106.480870
21
380.575820
0
LINE
8
Calque 1
10
106.480870
20
380.575820
11
106.457070
21
380.592720
0
LINE
8
Calque 1
10
106.457070
20
380.592720
11
104.743161
21
381.430360
0
LINE
8
Calque 1
10
104.743161
20
381.430360
11
102.866600
21
381.838580
0
LINE
8
Calque 1
10
102.866600
20
381.838580
11
100.688044
21
381.962675
0
LINE
8
Calque 1
10
100.688044
20
381.962675
11
98.625520
21
381.932180
0
LINE
8
Calque 1
10
98.625520
20
381.932180
11
98.560410
21
381.930180
0
LINE
8
Calque 1
10
98.560410
20
381.930180
11
97.355917
21
381.773072
0
LINE
8
Calque 1
10
97.355917
20
381.773072
11
96.183043
21
381.460071
0
LINE
8
Calque 1
10
96.183043
20
381.460071
11
95.058997
21
380.993878
0
LINE
8
Calque 1
10
95.058997
20
380.993878
11
94.000990
21
380.377190
0
LINE
8
Calque 1
10
94.000990
20
380.377190
11
91.852739
21
378.786437
0
LINE
8
Calque 1
10
91.852739
20
378.786437
11
89.946460
21
377.177430
0
LINE
8
Calque 1
10
89.946460
20
377.177430
11
89.921140
21
377.155830
0
LINE
8
Calque 1
10
89.921140
20
377.155830
11
86.723390
21
374.258750
0
LINE
8
Calque 1
10
86.723390
20
374.258750
11
87.010087
21
379.893227
0
LINE
8
Calque 1
10
87.010087
20
379.893227
11
87.004954
21
382.763640
0
LINE
8
Calque 1
10
87.004954
20
382.763640
11
86.814340
21
385.672650
0
LINE
8
Calque 1
10
86.814340
20
385.672650
11
86.806040
21
385.734650
0
LINE
8
Calque 1
10
86.806040
20
385.734650
11
86.282870
21
388.216719
0
LINE
8
Calque 1
10
86.282870
20
388.216719
11
85.476460
21
390.573950
0
LINE
8
Calque 1
10
85.476460
20
390.573950
11
84.459567
21
392.809539
0
LINE
8
Calque 1
10
84.459567
20
392.809539
11
83.304950
21
394.926680
0
LINE
8
Calque 1
10
83.304950
20
394.926680
11
83.296650
21
394.941480
0
LINE
8
Calque 1
10
83.296650
20
394.941480
11
81.913393
21
397.120211
0
LINE
8
Calque 1
10
81.913393
20
397.120211
11
80.400546
21
399.216215
0
LINE
8
Calque 1
10
80.400546
20
399.216215
11
78.758716
21
401.217644
0
LINE
8
Calque 1
10
78.758716
20
401.217644
11
76.988510
21
403.112650
0
LINE
8
Calque 1
10
76.988510
20
403.112650
11
76.976020
21
403.125350
0
LINE
8
Calque 1
10
76.976020
20
403.125350
11
75.278163
21
404.649010
0
LINE
8
Calque 1
10
75.278163
20
404.649010
11
73.396523
21
406.011736
0
LINE
8
Calque 1
10
73.396523
20
406.011736
11
71.326973
21
407.136497
0
LINE
8
Calque 1
10
71.326973
20
407.136497
11
69.065390
21
407.946260
0
LINE
8
Calque 1
10
69.065390
20
407.946260
11
69.062400
21
407.946000
0
LINE
8
Calque 1
10
69.062400
20
407.946000
11
67.507054
21
408.249744
0
LINE
8
Calque 1
10
67.507054
20
408.249744
11
65.897730
21
408.335050
0
LINE
8
Calque 1
10
65.897730
20
408.335050
11
65.896700
21
408.333000
0
LINE
8
Calque 1
10
93.902900
20
295.013000
11
93.712599
21
294.056291
0
LINE
8
Calque 1
10
93.712599
20
294.056291
11
93.170667
21
293.245233
0
LINE
8
Calque 1
10
93.170667
20
293.245233
11
92.359609
21
292.703301
0
LINE
8
Calque 1
10
92.359609
20
292.703301
11
91.402900
21
292.513000
0
LINE
8
Calque 1
10
91.402900
20
292.513000
11
90.446191
21
292.703301
0
LINE
8
Calque 1
10
90.446191
20
292.703301
11
89.635133
21
293.245233
0
LINE
8
Calque 1
10
89.635133
20
293.245233
11
89.093201
21
294.056291
0
LINE
8
Calque 1
10
89.093201
20
294.056291
11
88.902900
21
295.013000
0
LINE
8
Calque 1
10
88.902900
20
295.013000
11
89.093201
21
295.969709
0
LINE
8
Calque 1
10
89.093201
20
295.969709
11
89.635133
21
296.780767
0
LINE
8
Calque 1
10
89.635133
20
296.780767
11
90.446191
21
297.322699
0
LINE
8
Calque 1
10
90.446191
20
297.322699
11
91.402900
21
297.513000
0
LINE
8
Calque 1
10
91.402900
20
297.513000
11
92.359609
21
297.322699
0
LINE
8
Calque 1
10
92.359609
20
297.322699
11
93.170667
21
296.780767
0
LINE
8
Calque 1
10
93.170667
20
296.780767
11
93.712599
21
295.969709
0
LINE
8
Calque 1
10
93.712599
20
295.969709
11
93.902900
21
295.013000
0
LINE
8
Calque 1
10
93.902900
20
295.013000
11
93.902900
21
295.013000
 0 
ENDSEC
 0 
EOF