  0
SECTION
  2
HEADER
  9
$ACADVER
  1
AC1006
  9
$EXTMIN
 10
0.000000
 20
0.000000
 30
0.000000
  9
$EXTMAX
 10
4854.000000
 20
3744.000000
 30
0.000000
  0
ENDSEC
  0
SECTION
  2
ENTITIES
  0
POLYLINE
  8
0
 66
1
 70
1
  0
VERTEX
  8
0
 10
3244.500000
 20
3743.304675
 42
0.028675
  0
VERTEX
  8
0
 10
3239.984116
 20
3742.436519
 42
0.017153
  0
VERTEX
  8
0
 10
3234.731239
 20
3740.917126
 42
0.016765
  0
VERTEX
  8
0
 10
3229.382275
 20
3738.968263
 42
0.020761
  0
VERTEX
  8
0
 10
3224.552280
 20
3736.785550
 42
0.052983
  0
VERTEX
  8
0
 10
3212.853875
 20
3729.257135
 42
0.055395
  0
VERTEX
  8
0
 10
3203.192111
 20
3719.537872
 42
0.055026
  0
VERTEX
  8
0
 10
3195.848558
 20
3707.871806
 42
0.051038
  0
VERTEX
  8
0
 10
3191.002046
 20
3694.590037
 42
0.061691
  0
VERTEX
  8
0
 10
3189.535100
 20
3682.884612
 42
0.000087
  0
VERTEX
  8
0
 10
3189.251366
 20
3459.832327
 42
0.000261
  0
VERTEX
  8
0
 10
3189.033231
 20
3081.588699
 42
0.000014
  0
VERTEX
  8
0
 10
3189.000000
 20
1872.000000
 42
0.000014
  0
VERTEX
  8
0
 10
3189.033231
 20
662.411301
 42
0.000261
  0
VERTEX
  8
0
 10
3189.251366
 20
284.167673
 42
0.000087
  0
VERTEX
  8
0
 10
3189.535100
 20
61.115388
 42
0.061691
  0
VERTEX
  8
0
 10
3191.002046
 20
49.409963
 42
0.062400
  0
VERTEX
  8
0
 10
3197.144385
 20
33.692008
 42
0.066545
  0
VERTEX
  8
0
 10
3206.873618
 20
20.350072
 42
0.065142
  0
VERTEX
  8
0
 10
3219.965671
 20
9.812036
 42
0.055997
  0
VERTEX
  8
0
 10
3236.000000
 20
2.346349
 42
0.080220
  0
VERTEX
  8
0
 10
3243.874285
 20
1.045036
 42
0.000243
  0
VERTEX
  8
0
 10
3346.961749
 20
0.715511
 42
0.000554
  0
VERTEX
  8
0
 10
3519.517744
 20
0.438874
 42
0.000036
  0
VERTEX
  8
0
 10
4017.500000
 20
0.228167
 42
0.000047
  0
VERTEX
  8
0
 10
4473.824947
 20
0.110910
 42
0.000448
  0
VERTEX
  8
0
 10
4668.211342
 20
0.253212
 42
0.000172
  0
VERTEX
  8
0
 10
4791.103035
 20
0.495514
 42
0.047240
  0
VERTEX
  8
0
 10
4801.500000
 20
1.504312
 42
0.059615
  0
VERTEX
  8
0
 10
4815.428953
 20
5.969573
 42
0.055446
  0
VERTEX
  8
0
 10
4828.284471
 20
13.677138
 42
0.055864
  0
VERTEX
  8
0
 10
4839.044608
 20
23.955061
 42
0.062551
  0
VERTEX
  8
0
 10
4846.795048
 20
36.000000
 42
0.016706
  0
VERTEX
  8
0
 10
4848.469220
 20
39.816233
 42
0.011300
  0
VERTEX
  8
0
 10
4850.131457
 20
44.267303
 42
0.011393
  0
VERTEX
  8
0
 10
4851.544129
 20
48.646832
 42
0.022200
  0
VERTEX
  8
0
 10
4852.433888
 20
52.207842
 42
0.049907
  0
VERTEX
  8
0
 10
4853.482868
 20
62.586967
 42
0.000033
  0
VERTEX
  8
0
 10
4853.748721
 20
349.424198
 42
0.000196
  0
VERTEX
  8
0
 10
4853.958441
 20
796.641564
 42
0.000019
  0
VERTEX
  8
0
 10
4854.000000
 20
1872.000000
 42
0.000019
  0
VERTEX
  8
0
 10
4853.958441
 20
2947.358436
 42
0.000196
  0
VERTEX
  8
0
 10
4853.748721
 20
3394.575802
 42
0.000033
  0
VERTEX
  8
0
 10
4853.482868
 20
3681.413033
 42
0.049907
  0
VERTEX
  8
0
 10
4852.433888
 20
3691.792158
 42
0.067176
  0
VERTEX
  8
0
 10
4846.801079
 20
3707.993333
 42
0.066655
  0
VERTEX
  8
0
 10
4837.064023
 20
3722.169019
 42
0.065354
  0
VERTEX
  8
0
 10
4823.745175
 20
3733.508364
 42
0.060464
  0
VERTEX
  8
0
 10
4807.606520
 20
3741.383769
 42
0.000000
  0
VERTEX
  8
0
 10
4801.500000
 20
3743.497308
 42
0.000000
  0
VERTEX
  8
0
 10
4024.500000
 20
3743.601056
 42
0.000048
  0
VERTEX
  8
0
 10
3726.354101
 20
3743.612070
 42
0.000080
  0
VERTEX
  8
0
 10
3474.862500
 20
3743.556791
 42
0.000002
  0
VERTEX
  8
0
 10
3246.972341
 20
3743.469306
 42
0.033064
  0
SEQEND
  0
POLYLINE
  8
0
 66
1
 70
1
  0
VERTEX
  8
0
 10
4802.458446
 20
3730.468808
 42
-0.069036
  0
VERTEX
  8
0
 10
4815.241670
 20
3725.174436
 42
-0.063808
  0
VERTEX
  8
0
 10
4826.485127
 20
3716.485127
 42
-0.063808
  0
VERTEX
  8
0
 10
4835.174436
 20
3705.241670
 42
-0.069036
  0
VERTEX
  8
0
 10
4840.468808
 20
3692.458446
 42
-0.063553
  0
VERTEX
  8
0
 10
4841.487464
 20
3684.535584
 42
-0.000023
  0
VERTEX
  8
0
 10
4841.748979
 20
3390.064613
 42
-0.000190
  0
VERTEX
  8
0
 10
4841.957732
 20
2936.508887
 42
-0.000020
  0
VERTEX
  8
0
 10
4842.000000
 20
1872.000000
 42
-0.000020
  0
VERTEX
  8
0
 10
4841.957732
 20
807.491113
 42
-0.000190
  0
VERTEX
  8
0
 10
4841.748979
 20
353.935387
 42
-0.000023
  0
VERTEX
  8
0
 10
4841.487464
 20
59.464416
 42
-0.063553
  0
VERTEX
  8
0
 10
4840.468808
 20
51.541554
 42
-0.069036
  0
VERTEX
  8
0
 10
4835.174436
 20
38.758330
 42
-0.063808
  0
VERTEX
  8
0
 10
4826.485127
 20
27.514873
 42
-0.063808
  0
VERTEX
  8
0
 10
4815.241670
 20
18.825564
 42
-0.069036
  0
VERTEX
  8
0
 10
4802.458446
 20
13.531192
 42
-0.063170
  0
VERTEX
  8
0
 10
4794.705865
 20
12.528424
 42
-0.000125
  0
VERTEX
  8
0
 10
4669.790561
 20
12.252390
 42
-0.000443
  0
VERTEX
  8
0
 10
4474.781530
 20
12.042803
 42
-0.000047
  0
VERTEX
  8
0
 10
4021.500000
 20
12.000000
 42
-0.000049
  0
VERTEX
  8
0
 10
3575.068742
 20
12.043797
 42
-0.000428
  0
VERTEX
  8
0
 10
3376.787679
 20
12.252324
 42
-0.000109
  0
VERTEX
  8
0
 10
3248.155777
 20
12.525571
 42
-0.063200
  0
VERTEX
  8
0
 10
3240.703194
 20
13.489090
 42
-0.060856
  0
VERTEX
  8
0
 10
3228.395139
 20
18.353309
 42
-0.062659
  0
VERTEX
  8
0
 10
3217.753141
 20
26.000358
 42
-0.061763
  0
VERTEX
  8
0
 10
3209.214272
 20
36.154727
 42
-0.056332
  0
VERTEX
  8
0
 10
3203.098337
 20
48.397958
 42
0.000000
  0
VERTEX
  8
0
 10
3200.500000
 20
55.500000
 42
0.000000
  0
VERTEX
  8
0
 10
3200.500000
 20
1872.000000
 42
0.000000
  0
VERTEX
  8
0
 10
3200.500000
 20
3688.500000
 42
0.000000
  0
VERTEX
  8
0
 10
3203.098337
 20
3695.602042
 42
-0.056194
  0
VERTEX
  8
0
 10
3209.153015
 20
3707.730998
 42
-0.060645
  0
VERTEX
  8
0
 10
3217.628192
 20
3717.866647
 42
-0.061581
  0
VERTEX
  8
0
 10
3228.160916
 20
3725.549991
 42
-0.061109
  0
VERTEX
  8
0
 10
3240.274510
 20
3730.460957
 42
-0.065315
  0
VERTEX
  8
0
 10
3246.925887
 20
3731.348468
 42
-0.000079
  0
VERTEX
  8
0
 10
3383.556197
 20
3731.627934
 42
-0.000398
  0
VERTEX
  8
0
 10
3588.470609
 20
3731.851661
 42
-0.000053
  0
VERTEX
  8
0
 10
4021.039901
 20
3731.934189
 42
-0.000047
  0
VERTEX
  8
0
 10
4474.693168
 20
3731.929902
 42
-0.000443
  0
VERTEX
  8
0
 10
4669.767413
 20
3731.736872
 42
-0.000125
  0
VERTEX
  8
0
 10
4794.704289
 20
3731.471444
 42
-0.063192
  0
SEQEND
  0
POLYLINE
  8
0
 66
1
 70
1
  0
VERTEX
  8
0
 10
646.500000
 20
3199.983690
 42
0.072770
  0
VERTEX
  8
0
 10
629.542723
 20
3195.085028
 42
0.067167
  0
VERTEX
  8
0
 10
614.182613
 20
3185.441251
 42
0.066728
  0
VERTEX
  8
0
 10
601.842937
 20
3172.001830
 42
0.070090
  0
VERTEX
  8
0
 10
593.723525
 20
3156.000000
 42
0.000000
  0
VERTEX
  8
0
 10
591.500000
 20
3149.500000
 42
0.000000
  0
VERTEX
  8
0
 10
591.248258
 20
1720.535255
 42
0.000000
  0
VERTEX
  8
0
 10
590.996517
 20
291.570509
 42
0.000000
  0
VERTEX
  8
0
 10
593.054151
 20
284.070367
 42
0.053748
  0
VERTEX
  8
0
 10
598.235442
 20
270.913200
 42
0.055857
  0
VERTEX
  8
0
 10
606.049370
 20
259.346734
 42
0.055678
  0
VERTEX
  8
0
 10
616.255049
 20
249.766105
 42
0.052786
  0
VERTEX
  8
0
 10
628.500000
 20
242.474232
 42
0.043233
  0
VERTEX
  8
0
 10
638.484941
 20
238.883448
 42
0.047498
  0
VERTEX
  8
0
 10
648.628202
 20
237.206107
 42
0.016247
  0
VERTEX
  8
0
 10
665.276086
 20
236.598775
 42
0.000993
  0
VERTEX
  8
0
 10
715.000000
 20
236.500000
 42
0.000567
  0
VERTEX
  8
0
 10
756.411551
 20
236.546966
 42
0.005510
  0
VERTEX
  8
0
 10
773.954110
 20
236.780078
 42
0.012262
  0
VERTEX
  8
0
 10
783.966093
 20
237.269347
 42
0.050817
  0
VERTEX
  8
0
 10
789.920036
 20
238.321439
 42
0.061486
  0
VERTEX
  8
0
 10
805.814592
 20
245.027764
 42
0.065474
  0
VERTEX
  8
0
 10
819.230453
 20
255.286875
 42
0.065982
  0
VERTEX
  8
0
 10
829.456190
 20
268.587983
 42
0.064059
  0
VERTEX
  8
0
 10
835.988182
 20
284.224671
 42
0.000000
  0
VERTEX
  8
0
 10
838.002788
 20
291.567975
 42
0.000000
  0
VERTEX
  8
0
 10
837.751394
 20
1720.533988
 42
0.000000
  0
VERTEX
  8
0
 10
837.500000
 20
3149.500000
 42
0.000000
  0
VERTEX
  8
0
 10
835.276475
 20
3156.000000
 42
0.058458
  0
VERTEX
  8
0
 10
828.676476
 20
3169.790105
 42
0.058652
  0
VERTEX
  8
0
 10
819.070166
 20
3181.661184
 42
0.057859
  0
VERTEX
  8
0
 10
806.838764
 20
3191.109033
 42
0.054161
  0
VERTEX
  8
0
 10
792.500000
 20
3197.752811
 42
0.000000
  0
VERTEX
  8
0
 10
784.500000
 20
3200.454447
 42
0.000000
  0
VERTEX
  8
0
 10
718.500000
 20
3200.629425
 42
0.001180
  0
VERTEX
  8
0
 10
692.775662
 20
3200.636918
 42
0.001725
  0
VERTEX
  8
0
 10
670.125000
 20
3200.511920
 42
0.000828
  0
VERTEX
  8
0
 10
650.857637
 20
3200.307228
 42
0.030926
  0
SEQEND
  0
POLYLINE
  8
0
 66
1
 70
1
  0
VERTEX
  8
0
 10
784.200779
 20
3187.903025
 42
-0.040736
  0
VERTEX
  8
0
 10
791.352183
 20
3185.803554
 42
-0.034406
  0
VERTEX
  8
0
 10
798.502495
 20
3182.474254
 42
-0.034072
  0
VERTEX
  8
0
 10
805.203177
 20
3178.154084
 42
-0.037756
  0
VERTEX
  8
0
 10
811.013379
 20
3173.096471
 42
-0.026267
  0
VERTEX
  8
0
 10
816.133289
 20
3167.335360
 42
-0.039468
  0
VERTEX
  8
0
 10
819.900820
 20
3161.770296
 42
-0.039650
  0
VERTEX
  8
0
 10
822.735255
 20
3155.701876
 42
-0.026836
  0
VERTEX
  8
0
 10
825.021852
 20
3148.414560
 42
-0.062200
  0
VERTEX
  8
0
 10
826.458003
 20
3137.090436
 42
-0.000131
  0
VERTEX
  8
0
 10
826.748293
 20
2960.700456
 42
-0.000328
  0
VERTEX
  8
0
 10
826.966273
 20
2661.064826
 42
-0.000018
  0
VERTEX
  8
0
 10
827.000000
 20
1718.500000
 42
-0.000018
  0
VERTEX
  8
0
 10
826.966273
 20
775.935174
 42
-0.000328
  0
VERTEX
  8
0
 10
826.748293
 20
476.299544
 42
-0.000131
  0
VERTEX
  8
0
 10
826.458003
 20
299.909564
 42
-0.062200
  0
VERTEX
  8
0
 10
825.021852
 20
288.585440
 42
-0.026843
  0
VERTEX
  8
0
 10
822.734927
 20
281.297460
 42
-0.039652
  0
VERTEX
  8
0
 10
819.899791
 20
275.228080
 42
-0.039434
  0
VERTEX
  8
0
 10
816.129238
 20
269.658186
 42
-0.026163
  0
VERTEX
  8
0
 10
811.001350
 20
263.884522
 42
-0.032151
  0
VERTEX
  8
0
 10
805.331641
 20
258.831261
 42
-0.036486
  0
VERTEX
  8
0
 10
799.285568
 20
254.776468
 42
-0.036953
  0
VERTEX
  8
0
 10
792.785213
 20
251.684858
 42
-0.034645
  0
VERTEX
  8
0
 10
785.760268
 20
249.505569
 42
-0.056637
  0
VERTEX
  8
0
 10
773.175539
 20
248.008632
 42
-0.001370
  0
VERTEX
  8
0
 10
714.434687
 20
247.861784
 42
-0.001373
  0
VERTEX
  8
0
 10
655.702602
 20
248.037104
 42
-0.056500
  0
VERTEX
  8
0
 10
643.093068
 20
249.539783
 42
-0.073491
  0
VERTEX
  8
0
 10
629.384896
 20
254.986564
 42
-0.069506
  0
VERTEX
  8
0
 10
617.543936
 20
264.247125
 42
-0.069113
  0
VERTEX
  8
0
 10
608.639610
 20
276.452397
 42
-0.071229
  0
VERTEX
  8
0
 10
603.510922
 20
290.500000
 42
-0.051709
  0
VERTEX
  8
0
 10
602.551415
 20
299.647223
 42
-0.000039
  0
VERTEX
  8
0
 10
602.286218
 20
538.395517
 42
-0.000232
  0
VERTEX
  8
0
 10
602.078518
 20
902.439540
 42
-0.000027
  0
VERTEX
  8
0
 10
602.034727
 20
1718.500000
 42
-0.000027
  0
VERTEX
  8
0
 10
602.078518
 20
2534.560460
 42
-0.000232
  0
VERTEX
  8
0
 10
602.286218
 20
2898.604483
 42
-0.000039
  0
VERTEX
  8
0
 10
602.551415
 20
3137.352777
 42
-0.051709
  0
VERTEX
  8
0
 10
603.510922
 20
3146.500000
 42
-0.071201
  0
VERTEX
  8
0
 10
608.641114
 20
3160.554125
 42
-0.069393
  0
VERTEX
  8
0
 10
617.541497
 20
3172.742576
 42
-0.069481
  0
VERTEX
  8
0
 10
629.425271
 20
3182.018408
 42
-0.071697
  0
VERTEX
  8
0
 10
643.272152
 20
3187.563137
 42
-0.058121
  0
VERTEX
  8
0
 10
652.945251
 20
3188.745401
 42
-0.000774
  0
VERTEX
  8
0
 10
713.356520
 20
3188.984596
 42
-0.000872
  0
VERTEX
  8
0
 10
773.306821
 20
3189.024675
 42
-0.050806
  0
SEQEND
  0
POLYLINE
  8
0
 66
1
 70
1
  0
VERTEX
  8
0
 10
46.997358
 20
2961.670815
 42
0.058599
  0
VERTEX
  8
0
 10
32.447472
 20
2955.433287
 42
0.060776
  0
VERTEX
  8
0
 10
19.937623
 20
2946.051540
 42
0.060872
  0
VERTEX
  8
0
 10
10.066210
 20
2933.951994
 42
0.059109
  0
VERTEX
  8
0
 10
3.282294
 20
2919.714507
 42
0.000000
  0
VERTEX
  8
0
 10
0.500000
 20
2911.500000
 42
0.000000
  0
VERTEX
  8
0
 10
0.229377
 20
1486.000000
 42
0.000024
  0
VERTEX
  8
0
 10
0.109362
 20
636.116193
 42
0.000252
  0
VERTEX
  8
0
 10
0.253182
 20
285.923774
 42
0.000057
  0
VERTEX
  8
0
 10
0.482198
 20
63.242069
 42
0.048524
  0
VERTEX
  8
0
 10
1.539541
 20
52.500000
 42
0.058396
  0
VERTEX
  8
0
 10
6.058230
 20
38.477798
 42
0.055820
  0
VERTEX
  8
0
 10
13.747771
 20
25.647609
 42
0.056315
  0
VERTEX
  8
0
 10
24.008779
 20
14.937019
 42
0.061705
  0
VERTEX
  8
0
 10
36.108917
 20
7.162979
 42
0.043190
  0
VERTEX
  8
0
 10
47.242237
 20
2.953449
 42
0.048499
  0
VERTEX
  8
0
 10
58.508947
 20
0.923734
 42
0.018842
  0
VERTEX
  8
0
 10
76.416164
 20
0.141785
 42
0.001490
  0
VERTEX
  8
0
 10
124.000000
 20
-0.000000
 42
0.001496
  0
VERTEX
  8
0
 10
171.675875
 20
0.142641
 42
0.018873
  0
VERTEX
  8
0
 10
189.637574
 20
0.928512
 42
0.048659
  0
VERTEX
  8
0
 10
200.913624
 20
2.965344
 42
0.043892
  0
VERTEX
  8
0
 10
212.000000
 20
7.184876
 42
0.056551
  0
VERTEX
  8
0
 10
222.922153
 20
14.099423
 42
0.049563
  0
VERTEX
  8
0
 10
232.563386
 20
23.568909
 42
0.048650
  0
VERTEX
  8
0
 10
240.313896
 20
34.943690
 42
0.050002
  0
VERTEX
  8
0
 10
245.637050
 20
47.500000
 42
0.074996
  0
VERTEX
  8
0
 10
246.971644
 20
56.250997
 42
0.000083
  0
VERTEX
  8
0
 10
247.248624
 20
245.511281
 42
0.000305
  0
VERTEX
  8
0
 10
247.464436
 20
559.357690
 42
0.000019
  0
VERTEX
  8
0
 10
247.500000
 20
1482.500000
 42
0.000000
  0
VERTEX
  8
0
 10
247.500000
 20
2911.500000
 42
0.000000
  0
VERTEX
  8
0
 10
244.717706
 20
2919.714507
 42
0.048247
  0
VERTEX
  8
0
 10
239.479174
 20
2931.351245
 42
0.048161
  0
VERTEX
  8
0
 10
232.104955
 20
2941.775907
 42
0.048733
  0
VERTEX
  8
0
 10
222.966021
 20
2950.488100
 42
0.051990
  0
VERTEX
  8
0
 10
212.500000
 20
2957.052991
 42
0.041048
  0
VERTEX
  8
0
 10
201.765844
 20
2961.269380
 42
0.053777
  0
VERTEX
  8
0
 10
191.415191
 20
2963.204098
 42
0.018469
  0
VERTEX
  8
0
 10
174.756362
 20
2963.877497
 42
0.001061
  0
VERTEX
  8
0
 10
123.539901
 20
2963.946418
 42
0.000457
  0
VERTEX
  8
0
 10
78.283622
 20
2963.869923
 42
0.006779
  0
VERTEX
  8
0
 10
62.424930
 20
2963.613580
 42
0.019931
  0
VERTEX
  8
0
 10
53.587680
 20
2962.997714
 42
0.044655
  0
SEQEND
  0
POLYLINE
  8
0
 66
1
 70
1
  0
VERTEX
  8
0
 10
192.566341
 20
2951.931162
 42
-0.075445
  0
VERTEX
  8
0
 10
206.476077
 20
2947.184986
 42
-0.067595
  0
VERTEX
  8
0
 10
218.941375
 20
2938.390597
 42
-0.067261
  0
VERTEX
  8
0
 10
228.662092
 20
2926.542379
 42
-0.073289
  0
VERTEX
  8
0
 10
234.547242
 20
2912.869037
 42
-0.064845
  0
VERTEX
  8
0
 10
235.464354
 20
2905.887828
 42
-0.000026
  0
VERTEX
  8
0
 10
235.727146
 20
2657.940909
 42
-0.000222
  0
VERTEX
  8
0
 10
235.936573
 20
2286.373554
 42
-0.000028
  0
VERTEX
  8
0
 10
235.988131
 20
1482.460099
 42
-0.000025
  0
VERTEX
  8
0
 10
235.952714
 20
646.984362
 42
-0.000242
  0
VERTEX
  8
0
 10
235.746762
 20
290.324187
 42
-0.000038
  0
VERTEX
  8
0
 10
235.484125
 20
59.429777
 42
-0.063483
  0
VERTEX
  8
0
 10
234.468808
 20
51.541554
 42
-0.069036
  0
VERTEX
  8
0
 10
229.174436
 20
38.758330
 42
-0.063808
  0
VERTEX
  8
0
 10
220.485127
 20
27.514873
 42
-0.063808
  0
VERTEX
  8
0
 10
209.241670
 20
18.825564
 42
-0.069036
  0
VERTEX
  8
0
 10
196.458446
 20
13.531192
 42
-0.062540
  0
VERTEX
  8
0
 10
184.333897
 20
11.947434
 42
-0.001334
  0
VERTEX
  8
0
 10
124.095272
 20
11.808707
 42
-0.001349
  0
VERTEX
  8
0
 10
63.904638
 20
11.993176
 42
-0.061721
  0
VERTEX
  8
0
 10
51.644345
 20
13.584193
 42
-0.068424
  0
VERTEX
  8
0
 10
38.771351
 20
18.860196
 42
-0.064526
  0
VERTEX
  8
0
 10
27.512598
 20
27.498963
 42
-0.064583
  0
VERTEX
  8
0
 10
18.836067
 20
38.714163
 42
-0.068775
  0
VERTEX
  8
0
 10
13.531192
 20
51.541554
 42
-0.063483
  0
VERTEX
  8
0
 10
12.515875
 20
59.429777
 42
-0.000038
  0
VERTEX
  8
0
 10
12.253238
 20
290.324187
 42
-0.000242
  0
VERTEX
  8
0
 10
12.047286
 20
646.984362
 42
-0.000025
  0
VERTEX
  8
0
 10
12.011869
 20
1482.460099
 42
-0.000028
  0
VERTEX
  8
0
 10
12.063427
 20
2286.373554
 42
-0.000222
  0
VERTEX
  8
0
 10
12.272854
 20
2657.940909
 42
-0.000026
  0
VERTEX
  8
0
 10
12.535646
 20
2905.887828
 42
-0.064845
  0
VERTEX
  8
0
 10
13.452758
 20
2912.869037
 42
-0.030771
  0
VERTEX
  8
0
 10
15.690742
 20
2919.585192
 42
-0.037698
  0
VERTEX
  8
0
 10
18.618141
 20
2925.515587
 42
-0.036424
  0
VERTEX
  8
0
 10
22.492661
 20
2931.098174
 42
-0.025848
  0
VERTEX
  8
0
 10
27.584461
 20
2936.773986
 42
-0.033820
  0
VERTEX
  8
0
 10
33.734772
 20
2942.171317
 42
-0.035917
  0
VERTEX
  8
0
 10
40.439092
 20
2946.572084
 42
-0.037201
  0
VERTEX
  8
0
 10
47.463549
 20
2949.833658
 42
-0.042934
  0
VERTEX
  8
0
 10
54.568417
 20
2951.834543
 42
-0.046378
  0
VERTEX
  8
0
 10
64.335782
 20
2952.775165
 42
-0.000654
  0
VERTEX
  8
0
 10
123.428728
 20
2952.893862
 42
-0.000685
  0
VERTEX
  8
0
 10
182.350259
 20
2952.854432
 42
-0.044074
  0
SEQEND
  0
POLYLINE
  8
0
 66
1
 70
1
  0
VERTEX
  8
0
 10
401.000000
 20
2961.659432
 42
0.063549
  0
VERTEX
  8
0
 10
385.624808
 20
2954.860435
 42
0.065874
  0
VERTEX
  8
0
 10
372.656840
 20
2944.483967
 42
0.065157
  0
VERTEX
  8
0
 10
362.722862
 20
2930.980703
 42
0.059992
  0
VERTEX
  8
0
 10
356.260198
 20
2915.000000
 42
0.065830
  0
VERTEX
  8
0
 10
355.025948
 20
2905.773745
 42
0.000072
  0
VERTEX
  8
0
 10
354.751448
 20
2705.721258
 42
0.000286
  0
VERTEX
  8
0
 10
354.537505
 20
2379.679484
 42
0.000021
  0
VERTEX
  8
0
 10
354.500000
 20
1482.500000
 42
0.000029
  0
VERTEX
  8
0
 10
354.546210
 20
695.106488
 42
0.000211
  0
VERTEX
  8
0
 10
354.751206
 20
315.467445
 42
0.000023
  0
VERTEX
  8
0
 10
355.010906
 20
57.998008
 42
0.061182
  0
VERTEX
  8
0
 10
355.877926
 20
51.000000
 42
0.059768
  0
VERTEX
  8
0
 10
362.181065
 20
34.498665
 42
0.067223
  0
VERTEX
  8
0
 10
372.024237
 20
20.667474
 42
0.067647
  0
VERTEX
  8
0
 10
385.124698
 20
10.009486
 42
0.061694
  0
VERTEX
  8
0
 10
401.000000
 20
2.831567
 42
0.000000
  0
VERTEX
  8
0
 10
408.500000
 20
0.500000
 42
0.000000
  0
VERTEX
  8
0
 10
478.500000
 20
0.500000
 42
0.000536
  0
VERTEX
  8
0
 10
521.164909
 20
0.545751
 42
0.005504
  0
VERTEX
  8
0
 10
538.805442
 20
0.777797
 42
0.012324
  0
VERTEX
  8
0
 10
548.768688
 20
1.264480
 42
0.056526
  0
VERTEX
  8
0
 10
554.447720
 20
2.335414
 42
0.073758
  0
VERTEX
  8
0
 10
573.967018
 20
11.681835
 42
0.082221
  0
VERTEX
  8
0
 10
589.114579
 20
26.018136
 42
0.083474
  0
VERTEX
  8
0
 10
598.671188
 20
44.273308
 42
0.079092
  0
VERTEX
  8
0
 10
601.970438
 20
65.000000
 42
0.070176
  0
VERTEX
  8
0
 10
599.387853
 20
83.310037
 42
0.072556
  0
VERTEX
  8
0
 10
591.847500
 20
99.966128
 42
0.072512
  0
VERTEX
  8
0
 10
579.858192
 20
113.782027
 42
0.069961
  0
VERTEX
  8
0
 10
564.285383
 20
123.798890
 42
0.037868
  0
VERTEX
  8
0
 10
555.498006
 20
127.068479
 42
0.040117
  0
VERTEX
  8
0
 10
546.485469
 20
128.898378
 42
0.024660
  0
VERTEX
  8
0
 10
534.178845
 20
129.771329
 42
0.005376
  0
VERTEX
  8
0
 10
512.912032
 20
130.000000
 42
0.000000
  0
VERTEX
  8
0
 10
484.000000
 20
130.000000
 42
0.000000
  0
VERTEX
  8
0
 10
483.982636
 20
1518.250000
 42
0.000028
  0
VERTEX
  8
0
 10
483.928614
 20
2311.878375
 42
0.000235
  0
VERTEX
  8
0
 10
483.716712
 20
2669.276739
 42
0.000039
  0
VERTEX
  8
0
 10
483.448621
 20
2904.394606
 42
0.051305
  0
VERTEX
  8
0
 10
482.500648
 20
2913.500000
 42
0.059666
  0
VERTEX
  8
0
 10
477.959567
 20
2926.957219
 42
0.055966
  0
VERTEX
  8
0
 10
470.294331
 20
2939.280375
 42
0.055734
  0
VERTEX
  8
0
 10
460.051783
 20
2949.641970
 42
0.058160
  0
VERTEX
  8
0
 10
447.911437
 20
2957.314949
 42
0.011016
  0
VERTEX
  8
0
 10
443.919516
 20
2959.123614
 42
0.009899
  0
VERTEX
  8
0
 10
439.707963
 20
2960.823295
 42
0.009976
  0
VERTEX
  8
0
 10
435.869427
 20
2962.197714
 42
0.030527
  0
VERTEX
  8
0
 10
433.200779
 20
2962.915780
 42
0.037381
  0
VERTEX
  8
0
 10
425.759536
 20
2963.866598
 42
0.022843
  0
VERTEX
  8
0
 10
416.902548
 20
2963.925786
 42
0.022896
  0
VERTEX
  8
0
 10
408.139145
 20
2963.181043
 42
0.039737
  0
SEQEND
  0
POLYLINE
  8
0
 66
1
 70
1
  0
VERTEX
  8
0
 10
430.257270
 20
2951.533344
 42
-0.068739
  0
VERTEX
  8
0
 10
443.442356
 20
2946.778868
 42
-0.066427
  0
VERTEX
  8
0
 10
455.015449
 20
2938.586349
 42
-0.064775
  0
VERTEX
  8
0
 10
464.271567
 20
2927.434269
 42
-0.059990
  0
VERTEX
  8
0
 10
470.654621
 20
2914.000000
 42
-0.080653
  0
VERTEX
  8
0
 10
471.974201
 20
2905.964389
 42
-0.000077
  0
VERTEX
  8
0
 10
472.283058
 20
2719.097718
 42
-0.000309
  0
VERTEX
  8
0
 10
472.554605
 20
2410.548263
 42
-0.000020
  0
VERTEX
  8
0
 10
472.753555
 20
1513.250000
 42
0.000000
  0
VERTEX
  8
0
 10
473.007111
 20
118.000000
 42
0.000000
  0
VERTEX
  8
0
 10
508.793457
 20
118.000000
 42
-0.002954
  0
VERTEX
  8
0
 10
534.304616
 20
117.849265
 42
-0.024753
  0
VERTEX
  8
0
 10
545.807630
 20
117.143094
 42
-0.050688
  0
VERTEX
  8
0
 10
553.655916
 20
115.453058
 42
-0.038541
  0
VERTEX
  8
0
 10
561.796793
 20
112.102578
 42
-0.054279
  0
VERTEX
  8
0
 10
570.240852
 20
106.619278
 42
-0.045582
  0
VERTEX
  8
0
 10
577.865527
 20
99.144331
 42
-0.045527
  0
VERTEX
  8
0
 10
584.018498
 20
90.400904
 42
-0.053792
  0
VERTEX
  8
0
 10
588.091602
 20
81.149933
 42
-0.045669
  0
VERTEX
  8
0
 10
589.726805
 20
73.697461
 42
-0.031004
  0
VERTEX
  8
0
 10
590.271774
 20
65.021771
 42
-0.031023
  0
VERTEX
  8
0
 10
589.739972
 20
56.354327
 42
-0.046046
  0
VERTEX
  8
0
 10
588.115633
 20
48.927870
 42
-0.065611
  0
VERTEX
  8
0
 10
582.457973
 20
36.859986
 42
-0.062540
  0
VERTEX
  8
0
 10
573.790150
 20
26.450273
 42
-0.062137
  0
VERTEX
  8
0
 10
562.759608
 20
18.451266
 42
-0.063211
  0
VERTEX
  8
0
 10
550.164238
 20
13.463564
 42
-0.051223
  0
VERTEX
  8
0
 10
544.590740
 20
12.630113
 42
-0.007347
  0
VERTEX
  8
0
 10
533.051120
 20
12.267782
 42
-0.004502
  0
VERTEX
  8
0
 10
513.969016
 20
12.121010
 42
-0.000684
  0
VERTEX
  8
0
 10
475.870840
 20
12.223137
 42
-0.000437
  0
VERTEX
  8
0
 10
430.640473
 20
12.445809
 42
-0.007041
  0
VERTEX
  8
0
 10
415.385247
 20
12.749099
 42
-0.021245
  0
VERTEX
  8
0
 10
407.129835
 20
13.381405
 42
-0.060516
  0
VERTEX
  8
0
 10
401.539134
 20
14.748427
 42
-0.052953
  0
VERTEX
  8
0
 10
390.721053
 20
20.196138
 42
-0.055376
  0
VERTEX
  8
0
 10
381.465803
 20
27.725752
 42
-0.055393
  0
VERTEX
  8
0
 10
374.091051
 20
37.100851
 42
-0.053043
  0
VERTEX
  8
0
 10
368.827796
 20
48.000000
 42
0.000000
  0
VERTEX
  8
0
 10
366.500000
 20
54.500000
 42
0.000000
  0
VERTEX
  8
0
 10
366.209418
 20
1479.000000
 42
-0.000039
  0
VERTEX
  8
0
 10
366.123351
 20
2164.585195
 42
-0.000156
  0
VERTEX
  8
0
 10
366.234997
 20
2585.033353
 42
-0.000010
  0
VERTEX
  8
0
 10
366.425137
 20
2902.901879
 42
-0.045919
  0
VERTEX
  8
0
 10
367.036487
 20
2909.500000
 42
-0.076909
  0
VERTEX
  8
0
 10
372.067212
 20
2923.827243
 42
-0.070743
  0
VERTEX
  8
0
 10
381.301649
 20
2936.427599
 42
-0.070540
  0
VERTEX
  8
0
 10
393.710822
 20
2945.984106
 42
-0.075680
  0
VERTEX
  8
0
 10
408.000000
 20
2951.433401
 42
-0.020445
  0
VERTEX
  8
0
 10
413.974907
 20
2952.473662
 42
-0.031761
  0
VERTEX
  8
0
 10
419.192195
 20
2952.828942
 42
-0.032042
  0
VERTEX
  8
0
 10
424.378929
 20
2952.519589
 42
-0.021299
  0
SEQEND
  0
POLYLINE
  8
0
 66
1
 70
1
  0
VERTEX
  8
0
 10
994.174956
 20
2962.590355
 42
0.025092
  0
VERTEX
  8
0
 10
991.540592
 20
2961.786111
 42
0.009019
  0
VERTEX
  8
0
 10
987.875818
 20
2960.387764
 42
0.008920
  0
VERTEX
  8
0
 10
983.907554
 20
2958.708180
 42
0.010457
  0
VERTEX
  8
0
 10
980.208805
 20
2956.970747
 42
0.059545
  0
VERTEX
  8
0
 10
968.557787
 20
2949.353907
 42
0.053559
  0
VERTEX
  8
0
 10
958.558725
 20
2938.955553
 42
0.053502
  0
VERTEX
  8
0
 10
950.987119
 20
2926.658627
 42
0.059131
  0
VERTEX
  8
0
 10
946.503975
 20
2913.435637
 42
0.051930
  0
VERTEX
  8
0
 10
945.551396
 20
2904.395796
 42
0.000039
  0
VERTEX
  8
0
 10
945.283286
 20
2670.022483
 42
0.000236
  0
VERTEX
  8
0
 10
945.071284
 20
2313.314185
 42
0.000028
  0
VERTEX
  8
0
 10
945.017364
 20
1518.250000
 42
0.000000
  0
VERTEX
  8
0
 10
945.000000
 20
130.000000
 42
0.000000
  0
VERTEX
  8
0
 10
915.957842
 20
130.000000
 42
0.002494
  0
VERTEX
  8
0
 10
901.201131
 20
129.926407
 42
0.008113
  0
VERTEX
  8
0
 10
891.425361
 20
129.670220
 42
0.012040
  0
VERTEX
  8
0
 10
884.443496
 20
129.205200
 42
0.027288
  0
VERTEX
  8
0
 10
879.207842
 20
128.439881
 42
0.063581
  0
VERTEX
  8
0
 10
863.071370
 20
122.972166
 42
0.066129
  0
VERTEX
  8
0
 10
849.061340
 20
113.677515
 42
0.066134
  0
VERTEX
  8
0
 10
837.964643
 20
101.048345
 42
0.063608
  0
VERTEX
  8
0
 10
830.375123
 20
85.797992
 42
0.042072
  0
VERTEX
  8
0
 10
828.304559
 20
77.710431
 42
0.027916
  0
VERTEX
  8
0
 10
827.245447
 20
68.184153
 42
0.027976
  0
VERTEX
  8
0
 10
827.255285
 20
58.639068
 42
0.043520
  0
VERTEX
  8
0
 10
828.435083
 20
50.500000
 42
0.055647
  0
VERTEX
  8
0
 10
833.163774
 20
37.221598
 42
0.053491
  0
VERTEX
  8
0
 10
840.753367
 20
25.120720
 42
0.053550
  0
VERTEX
  8
0
 10
850.728035
 20
14.917145
 42
0.056030
  0
VERTEX
  8
0
 10
862.500000
 20
7.241472
 42
0.039011
  0
VERTEX
  8
0
 10
872.574961
 20
3.125096
 42
0.056840
  0
VERTEX
  8
0
 10
881.975572
 20
1.255317
 42
0.018575
  0
VERTEX
  8
0
 10
897.084071
 20
0.565355
 42
0.000916
  0
VERTEX
  8
0
 10
946.968447
 20
0.233147
 42
0.001410
  0
VERTEX
  8
0
 10
997.293447
 20
0.132056
 42
0.018490
  0
VERTEX
  8
0
 10
1015.928191
 20
0.836535
 42
0.049067
  0
VERTEX
  8
0
 10
1027.474029
 20
2.851971
 42
0.046457
  0
VERTEX
  8
0
 10
1038.630689
 20
7.098837
 42
0.062839
  0
VERTEX
  8
0
 10
1051.894087
 20
15.828121
 42
0.063192
  0
VERTEX
  8
0
 10
1062.545045
 20
27.563720
 42
0.062284
  0
VERTEX
  8
0
 10
1070.046356
 20
41.751266
 42
0.058082
  0
VERTEX
  8
0
 10
1074.046575
 20
57.688225
 42
0.032346
  0
VERTEX
  8
0
 10
1074.560958
 20
65.564110
 42
0.000008
  0
VERTEX
  8
0
 10
1074.746094
 20
413.651594
 42
0.000134
  0
VERTEX
  8
0
 10
1074.853803
 20
849.489613
 42
0.000045
  0
VERTEX
  8
0
 10
1074.783490
 20
1488.000000
 42
0.000000
  0
VERTEX
  8
0
 10
1074.500000
 20
2910.500000
 42
0.000000
  0
VERTEX
  8
0
 10
1071.775588
 20
2918.500000
 42
0.054022
  0
VERTEX
  8
0
 10
1065.059142
 20
2932.909487
 42
0.057689
  0
VERTEX
  8
0
 10
1055.532976
 20
2945.199993
 42
0.058928
  0
VERTEX
  8
0
 10
1043.653924
 20
2954.775976
 42
0.060968
  0
VERTEX
  8
0
 10
1030.000000
 20
2961.186600
 42
0.049838
  0
VERTEX
  8
0
 10
1022.547598
 20
2962.834156
 42
0.019707
  0
VERTEX
  8
0
 10
1012.073396
 20
2963.658846
 42
0.019650
  0
VERTEX
  8
0
 10
1001.597968
 20
2963.657461
 42
0.051721
  0
SEQEND
  0
POLYLINE
  8
0
 66
1
 70
1
  0
VERTEX
  8
0
 10
1020.500000
 20
2951.489078
 42
-0.074303
  0
VERTEX
  8
0
 10
1035.076014
 20
2946.066210
 42
-0.071921
  0
VERTEX
  8
0
 10
1047.612526
 20
2936.573396
 42
-0.072339
  0
VERTEX
  8
0
 10
1056.888601
 20
2923.975116
 42
-0.076670
  0
VERTEX
  8
0
 10
1061.963513
 20
2909.500000
 42
-0.045919
  0
VERTEX
  8
0
 10
1062.574863
 20
2902.901879
 42
-0.000010
  0
VERTEX
  8
0
 10
1062.765003
 20
2585.033353
 42
-0.000156
  0
VERTEX
  8
0
 10
1062.876649
 20
2164.585195
 42
-0.000039
  0
VERTEX
  8
0
 10
1062.790582
 20
1479.000000
 42
0.000000
  0
VERTEX
  8
0
 10
1062.500000
 20
54.500000
 42
0.000000
  0
VERTEX
  8
0
 10
1060.185858
 20
48.000000
 42
-0.060055
  0
VERTEX
  8
0
 10
1054.299233
 20
36.177981
 42
-0.059364
  0
VERTEX
  8
0
 10
1045.752448
 20
26.042220
 42
-0.060185
  0
VERTEX
  8
0
 10
1035.185632
 20
18.314584
 42
-0.065164
  0
VERTEX
  8
0
 10
1023.355655
 20
13.574933
 42
-0.061351
  0
VERTEX
  8
0
 10
1011.230503
 20
12.009807
 42
-0.001307
  0
VERTEX
  8
0
 10
950.960927
 20
11.816480
 42
-0.001284
  0
VERTEX
  8
0
 10
890.615435
 20
11.935661
 42
-0.062647
  0
VERTEX
  8
0
 10
878.703194
 20
13.489090
 42
-0.063238
  0
VERTEX
  8
0
 10
866.180270
 20
18.507076
 42
-0.061452
  0
VERTEX
  8
0
 10
855.174671
 20
26.534302
 42
-0.061888
  0
VERTEX
  8
0
 10
846.515479
 20
36.935508
 42
-0.065915
  0
VERTEX
  8
0
 10
840.884367
 20
48.927870
 42
-0.045037
  0
VERTEX
  8
0
 10
839.168264
 20
56.698848
 42
-0.034343
  0
VERTEX
  8
0
 10
838.657090
 20
65.400924
 42
-0.034503
  0
VERTEX
  8
0
 10
839.340363
 20
74.035906
 42
-0.047229
  0
VERTEX
  8
0
 10
841.210621
 20
81.602042
 42
-0.056125
  0
VERTEX
  8
0
 10
846.784701
 20
93.175257
 42
-0.059060
  0
VERTEX
  8
0
 10
854.714144
 20
103.001717
 42
-0.058908
  0
VERTEX
  8
0
 10
864.741088
 20
110.722323
 42
-0.055340
  0
VERTEX
  8
0
 10
876.500000
 20
116.085670
 42
-0.062324
  0
VERTEX
  8
0
 10
879.897705
 20
116.749229
 42
-0.006007
  0
VERTEX
  8
0
 10
888.312427
 20
117.224047
 42
-0.005683
  0
VERTEX
  8
0
 10
900.402503
 20
117.623028
 42
-0.001786
  0
VERTEX
  8
0
 10
918.500000
 20
117.949750
 42
0.000000
  0
VERTEX
  8
0
 10
956.500000
 20
118.500000
 42
0.000000
  0
VERTEX
  8
0
 10
957.000000
 20
1515.500000
 42
0.000000
  0
VERTEX
  8
0
 10
957.500000
 20
2912.500000
 42
0.000000
  0
VERTEX
  8
0
 10
959.651987
 20
2917.744895
 42
-0.039865
  0
VERTEX
  8
0
 10
964.240880
 20
2926.800205
 42
-0.044117
  0
VERTEX
  8
0
 10
970.076442
 20
2934.688789
 42
-0.045096
  0
VERTEX
  8
0
 10
977.078029
 20
2941.284822
 42
-0.045437
  0
VERTEX
  8
0
 10
985.131936
 20
2946.499990
 42
-0.038735
  0
VERTEX
  8
0
 10
993.813726
 20
2950.236228
 42
-0.047242
  0
VERTEX
  8
0
 10
1002.413499
 20
2952.291138
 42
-0.047444
  0
VERTEX
  8
0
 10
1011.215522
 20
2952.690326
 42
-0.039607
  0
SEQEND
  0
POLYLINE
  8
0
 66
1
 70
1
  0
VERTEX
  8
0
 10
1227.997358
 20
2961.670815
 42
0.057981
  0
VERTEX
  8
0
 10
1213.480978
 20
2955.468814
 42
0.062181
  0
VERTEX
  8
0
 10
1201.149712
 20
2946.214539
 42
0.061444
  0
VERTEX
  8
0
 10
1191.356700
 20
2934.105798
 42
0.054464
  0
VERTEX
  8
0
 10
1184.323633
 20
2919.490402
 42
0.000000
  0
VERTEX
  8
0
 10
1181.500000
 20
2911.500000
 42
0.000000
  0
VERTEX
  8
0
 10
1181.229377
 20
1486.000000
 42
0.000024
  0
VERTEX
  8
0
 10
1181.109362
 20
636.116193
 42
0.000252
  0
VERTEX
  8
0
 10
1181.253182
 20
285.923774
 42
0.000057
  0
VERTEX
  8
0
 10
1181.482198
 20
63.242069
 42
0.048524
  0
VERTEX
  8
0
 10
1182.539541
 20
52.500000
 42
0.074491
  0
VERTEX
  8
0
 10
1188.936807
 20
34.631031
 42
0.073354
  0
VERTEX
  8
0
 10
1200.314530
 20
19.315888
 42
0.073352
  0
VERTEX
  8
0
 10
1215.629930
 20
7.937561
 42
0.074478
  0
VERTEX
  8
0
 10
1233.500000
 20
1.538911
 42
0.048322
  0
VERTEX
  8
0
 10
1244.063922
 20
0.494009
 42
0.000142
  0
VERTEX
  8
0
 10
1382.805938
 20
0.252971
 42
0.000400
  0
VERTEX
  8
0
 10
1603.377234
 20
0.108968
 42
0.000039
  0
VERTEX
  8
0
 10
2135.500000
 20
0.228747
 42
0.000000
  0
VERTEX
  8
0
 10
3029.500000
 20
0.500000
 42
0.000000
  0
VERTEX
  8
0
 10
3037.975983
 20
3.457180
 42
0.056107
  0
VERTEX
  8
0
 10
3051.671189
 20
10.035274
 42
0.057110
  0
VERTEX
  8
0
 10
3063.471608
 20
19.460750
 42
0.057195
  0
VERTEX
  8
0
 10
3072.819412
 20
31.297105
 42
0.056589
  0
VERTEX
  8
0
 10
3079.282317
 20
44.984720
 42
0.000000
  0
VERTEX
  8
0
 10
3081.500000
 20
51.500000
 42
0.000000
  0
VERTEX
  8
0
 10
3081.751394
 20
1479.838168
 42
0.000026
  0
VERTEX
  8
0
 10
3081.854139
 20
2308.450994
 42
0.000236
  0
VERTEX
  8
0
 10
3081.709568
 20
2670.292251
 42
0.000038
  0
VERTEX
  8
0
 10
3081.486201
 20
2906.084278
 42
0.056777
  0
VERTEX
  8
0
 10
3080.501565
 20
2914.649486
 42
0.034502
  0
VERTEX
  8
0
 10
3077.927851
 20
2923.062975
 42
0.039005
  0
VERTEX
  8
0
 10
3074.302095
 20
2930.688991
 42
0.037579
  0
VERTEX
  8
0
 10
3069.408124
 20
2937.890204
 42
0.028292
  0
VERTEX
  8
0
 10
3063.031618
 20
2945.035609
 42
0.027591
  0
VERTEX
  8
0
 10
3055.914498
 20
2951.410801
 42
0.037514
  0
VERTEX
  8
0
 10
3048.802684
 20
2956.279433
 42
0.039142
  0
VERTEX
  8
0
 10
3041.295790
 20
2959.878559
 42
0.034520
  0
VERTEX
  8
0
 10
3033.000000
 20
2962.443027
 42
0.057248
  0
VERTEX
  8
0
 10
3024.445950
 20
2963.443487
 42
0.000102
  0
VERTEX
  8
0
 10
2879.721378
 20
2963.711848
 42
0.000382
  0
VERTEX
  8
0
 10
2654.239567
 20
2963.911480
 42
0.000041
  0
VERTEX
  8
0
 10
2131.000000
 20
2963.931637
 42
0.000000
  0
VERTEX
  8
0
 10
1235.500000
 20
2963.892837
 42
0.000000
  0
SEQEND
  0
POLYLINE
  8
0
 66
1
 70
1
  0
VERTEX
  8
0
 10
3028.286859
 20
2951.527153
 42
-0.071900
  0
VERTEX
  8
0
 10
3042.734020
 20
2946.214827
 42
-0.072498
  0
VERTEX
  8
0
 10
3055.039958
 20
2937.039958
 42
-0.072498
  0
VERTEX
  8
0
 10
3064.214827
 20
2924.734020
 42
-0.071900
  0
VERTEX
  8
0
 10
3069.527153
 20
2910.286859
 42
-0.052250
  0
VERTEX
  8
0
 10
3071.173750
 20
2894.572872
 42
-0.000003
  0
VERTEX
  8
0
 10
3071.164185
 20
1482.412690
 42
-0.000003
  0
VERTEX
  8
0
 10
3071.136051
 20
70.289382
 42
-0.052000
  0
VERTEX
  8
0
 10
3069.489078
 20
54.500000
 42
-0.033458
  0
VERTEX
  8
0
 10
3067.519549
 20
47.512345
 42
-0.033430
  0
VERTEX
  8
0
 10
3064.635133
 20
40.847774
 42
-0.033564
  0
VERTEX
  8
0
 10
3060.901219
 20
34.652369
 42
-0.034364
  0
VERTEX
  8
0
 10
3056.398512
 20
29.063724
 42
-0.027231
  0
VERTEX
  8
0
 10
3051.169420
 20
23.998841
 42
-0.036526
  0
VERTEX
  8
0
 10
3045.885996
 20
20.048822
 42
-0.036863
  0
VERTEX
  8
0
 10
3040.123780
 20
16.936239
 42
-0.028529
  0
VERTEX
  8
0
 10
3033.455847
 20
14.391868
 42
0.000000
  0
VERTEX
  8
0
 10
3025.923809
 20
12.000000
 42
0.000000
  0
VERTEX
  8
0
 10
2132.356249
 20
12.000000
 42
-0.000039
  0
VERTEX
  8
0
 10
1599.893898
 20
12.041481
 42
-0.000401
  0
VERTEX
  8
0
 10
1380.043342
 20
12.252162
 42
-0.000113
  0
VERTEX
  8
0
 10
1240.894207
 20
12.528506
 42
-0.062612
  0
VERTEX
  8
0
 10
1232.644345
 20
13.584193
 42
-0.068163
  0
VERTEX
  8
0
 10
1219.727186
 20
18.870463
 42
-0.065301
  0
VERTEX
  8
0
 10
1208.496614
 20
27.496614
 42
-0.065301
  0
VERTEX
  8
0
 10
1199.870463
 20
38.727186
 42
-0.068163
  0
VERTEX
  8
0
 10
1194.584193
 20
51.644345
 42
-0.062844
  0
VERTEX
  8
0
 10
1193.518229
 20
60.005181
 42
-0.000045
  0
VERTEX
  8
0
 10
1193.251356
 20
282.911363
 42
-0.000253
  0
VERTEX
  8
0
 10
1193.041171
 20
632.131473
 42
-0.000024
  0
VERTEX
  8
0
 10
1193.000000
 20
1482.789009
 42
0.000000
  0
VERTEX
  8
0
 10
1193.000000
 20
2907.789330
 42
0.000000
  0
VERTEX
  8
0
 10
1195.087794
 20
2914.644665
 42
-0.041987
  0
VERTEX
  8
0
 10
1198.616683
 20
2923.491396
 42
-0.045757
  0
VERTEX
  8
0
 10
1203.492255
 20
2931.356442
 42
-0.045630
  0
VERTEX
  8
0
 10
1209.730430
 20
2938.221749
 42
-0.041329
  0
VERTEX
  8
0
 10
1217.309557
 20
2944.096828
 42
-0.031133
  0
VERTEX
  8
0
 10
1222.074848
 20
2946.790915
 42
-0.020723
  0
VERTEX
  8
0
 10
1227.829107
 20
2949.297851
 42
-0.020895
  0
VERTEX
  8
0
 10
1233.627978
 20
2951.268873
 42
-0.038478
  0
VERTEX
  8
0
 10
1238.500000
 20
2952.301936
 42
-0.032869
  0
VERTEX
  8
0
 10
1240.973979
 20
2952.466236
 42
-0.000001
  0
VERTEX
  8
0
 10
1502.056250
 20
2952.622219
 42
-0.000070
  0
VERTEX
  8
0
 10
1790.024172
 20
2952.753370
 42
-0.000042
  0
VERTEX
  8
0
 10
2131.500000
 20
2952.832804
 42
-0.000045
  0
VERTEX
  8
0
 10
2634.345138
 20
2952.862605
 42
-0.000356
  0
VERTEX
  8
0
 10
2866.676578
 20
2952.689956
 42
-0.000084
  0
VERTEX
  8
0
 10
3019.635803
 20
2952.441499
 42
-0.051800
  0
SEQEND
  0
POLYLINE
  8
0
 66
1
 70
1
  0
VERTEX
  8
0
 10
763.324227
 20
3163.362462
 42
0.062744
  0
VERTEX
  8
0
 10
758.922765
 20
3161.149551
 42
0.037853
  0
VERTEX
  8
0
 10
754.327927
 20
3157.532762
 42
0.037245
  0
VERTEX
  8
0
 10
750.216984
 20
3153.153626
 42
0.050871
  0
VERTEX
  8
0
 10
747.263696
 20
3148.623349
 42
0.065111
  0
VERTEX
  8
0
 10
745.095487
 20
3142.609271
 42
0.054531
  0
VERTEX
  8
0
 10
744.370434
 20
3135.860598
 42
0.053868
  0
VERTEX
  8
0
 10
745.121897
 20
3129.029186
 42
0.059891
  0
VERTEX
  8
0
 10
747.313563
 20
3122.770410
 42
0.066852
  0
VERTEX
  8
0
 10
751.848961
 20
3115.996294
 42
0.073452
  0
VERTEX
  8
0
 10
757.884832
 20
3110.905375
 42
0.072743
  0
VERTEX
  8
0
 10
765.187420
 20
3107.741815
 42
0.063784
  0
VERTEX
  8
0
 10
773.431155
 20
3106.612204
 42
0.016359
  0
VERTEX
  8
0
 10
777.356661
 20
3106.706165
 42
0.037958
  0
VERTEX
  8
0
 10
780.274398
 20
3107.095122
 42
0.040510
  0
VERTEX
  8
0
 10
782.983598
 20
3107.901761
 42
0.021167
  0
VERTEX
  8
0
 10
786.211161
 20
3109.314883
 42
0.087335
  0
VERTEX
  8
0
 10
794.602283
 20
3115.423243
 42
0.089233
  0
VERTEX
  8
0
 10
800.328682
 20
3123.988172
 42
0.088754
  0
VERTEX
  8
0
 10
802.730868
 20
3134.052818
 42
0.085245
  0
VERTEX
  8
0
 10
801.549666
 20
3144.477150
 42
0.072413
  0
VERTEX
  8
0
 10
798.967815
 20
3150.144338
 42
0.047471
  0
VERTEX
  8
0
 10
794.521864
 20
3155.791660
 42
0.047503
  0
VERTEX
  8
0
 10
789.095685
 20
3160.494079
 42
0.072962
  0
VERTEX
  8
0
 10
783.571861
 20
3163.324104
 42
0.046847
  0
VERTEX
  8
0
 10
778.776049
 20
3164.468137
 42
0.034677
  0
VERTEX
  8
0
 10
773.334632
 20
3164.856332
 42
0.034924
  0
VERTEX
  8
0
 10
767.948603
 20
3164.489916
 42
0.050741
  0
SEQEND
  0
POLYLINE
  8
0
 66
1
 70
1
  0
VERTEX
  8
0
 10
782.198307
 20
3151.367403
 42
-0.106783
  0
VERTEX
  8
0
 10
786.397428
 20
3147.963509
 42
-0.073272
  0
VERTEX
  8
0
 10
789.511248
 20
3142.656005
 42
-0.070985
  0
VERTEX
  8
0
 10
791.037421
 20
3136.487811
 42
-0.086900
  0
VERTEX
  8
0
 10
790.607570
 20
3130.572568
 42
-0.089175
  0
VERTEX
  8
0
 10
789.297588
 20
3127.668725
 42
-0.035369
  0
VERTEX
  8
0
 10
786.562222
 20
3124.232869
 42
-0.035500
  0
VERTEX
  8
0
 10
783.304147
 20
3121.156349
 42
-0.072626
  0
VERTEX
  8
0
 10
780.297742
 20
3119.351044
 42
-0.156756
  0
VERTEX
  8
0
 10
769.837721
 20
3118.461916
 42
-0.153145
  0
VERTEX
  8
0
 10
760.704067
 20
3123.814823
 42
-0.151459
  0
VERTEX
  8
0
 10
756.199407
 20
3133.480311
 42
-0.152986
  0
VERTEX
  8
0
 10
757.977361
 20
3143.955623
 42
-0.102090
  0
VERTEX
  8
0
 10
762.268519
 20
3149.314321
 42
-0.099109
  0
VERTEX
  8
0
 10
768.373209
 20
3152.606105
 42
-0.097321
  0
VERTEX
  8
0
 10
775.370899
 20
3153.328910
 42
-0.094610
  0
SEQEND
  0
POLYLINE
  8
0
 66
1
 70
1
  0
VERTEX
  8
0
 10
764.993526
 20
2219.124390
 42
0.059669
  0
VERTEX
  8
0
 10
759.466476
 20
2216.550697
 42
0.044276
  0
VERTEX
  8
0
 10
754.072257
 20
2212.505156
 42
0.044727
  0
VERTEX
  8
0
 10
749.542403
 20
2207.637050
 42
0.066158
  0
VERTEX
  8
0
 10
746.608632
 20
2202.605749
 42
0.062826
  0
VERTEX
  8
0
 10
744.599524
 20
2195.354564
 42
0.064217
  0
VERTEX
  8
0
 10
744.475939
 20
2187.886695
 42
0.063823
  0
VERTEX
  8
0
 10
746.254854
 20
2180.591612
 42
0.060768
  0
VERTEX
  8
0
 10
749.834544
 20
2173.848617
 42
0.025428
  0
VERTEX
  8
0
 10
751.990404
 20
2171.072391
 42
0.039201
  0
VERTEX
  8
0
 10
754.147519
 20
2168.932822
 42
0.037337
  0
VERTEX
  8
0
 10
756.689902
 20
2167.085691
 42
0.020543
  0
VERTEX
  8
0
 10
760.042415
 20
2165.198997
 42
0.093352
  0
VERTEX
  8
0
 10
771.234667
 20
2161.915682
 42
0.100472
  0
VERTEX
  8
0
 10
782.549196
 20
2163.063324
 42
0.101725
  0
VERTEX
  8
0
 10
792.413492
 20
2168.504969
 42
0.098111
  0
VERTEX
  8
0
 10
799.482240
 20
2177.457830
 42
0.059508
  0
VERTEX
  8
0
 10
801.788794
 20
2183.701618
 42
0.052754
  0
VERTEX
  8
0
 10
802.684534
 20
2190.575506
 42
0.053631
  0
VERTEX
  8
0
 10
802.119766
 20
2197.365086
 42
0.066925
  0
VERTEX
  8
0
 10
800.108366
 20
2203.358300
 42
0.039466
  0
VERTEX
  8
0
 10
797.596696
 20
2207.583377
 42
0.038739
  0
VERTEX
  8
0
 10
794.438218
 20
2211.389523
 42
0.039139
  0
VERTEX
  8
0
 10
790.765454
 20
2214.626739
 42
0.042307
  0
VERTEX
  8
0
 10
786.723441
 20
2217.158895
 42
0.070686
  0
VERTEX
  8
0
 10
782.369763
 20
2218.669356
 42
0.025656
  0
VERTEX
  8
0
 10
775.882512
 20
2219.593520
 42
0.025462
  0
VERTEX
  8
0
 10
769.372061
 20
2219.849467
 42
0.076393
  0
SEQEND
  0
POLYLINE
  8
0
 66
1
 70
1
  0
VERTEX
  8
0
 10
778.218945
 20
2207.955994
 42
-0.079971
  0
VERTEX
  8
0
 10
783.554759
 20
2205.505630
 42
-0.089569
  0
VERTEX
  8
0
 10
787.614762
 20
2201.578477
 42
-0.086676
  0
VERTEX
  8
0
 10
790.136259
 20
2196.364545
 42
-0.069493
  0
VERTEX
  8
0
 10
791.000000
 20
2190.180002
 42
-0.124375
  0
VERTEX
  8
0
 10
789.130132
 20
2182.779238
 42
-0.110396
  0
VERTEX
  8
0
 10
783.913543
 20
2176.769442
 42
-0.110022
  0
VERTEX
  8
0
 10
776.618252
 20
2173.538880
 42
-0.122814
  0
VERTEX
  8
0
 10
768.948605
 20
2173.897252
 42
-0.154022
  0
VERTEX
  8
0
 10
759.774996
 20
2180.129426
 42
-0.158813
  0
VERTEX
  8
0
 10
755.978925
 20
2190.419392
 42
-0.161001
  0
VERTEX
  8
0
 10
758.992069
 20
2200.864977
 42
-0.158354
  0
VERTEX
  8
0
 10
767.655189
 20
2207.541351
 42
-0.017854
  0
VERTEX
  8
0
 10
770.786992
 20
2208.533489
 42
-0.058029
  0
VERTEX
  8
0
 10
772.935290
 20
2208.869519
 42
-0.058857
  0
VERTEX
  8
0
 10
775.087082
 20
2208.700585
 42
-0.018745
  0
SEQEND
  0
POLYLINE
  8
0
 66
1
 70
1
  0
VERTEX
  8
0
 10
761.397828
 20
1272.604725
 42
0.065074
  0
VERTEX
  8
0
 10
754.175039
 20
1268.018419
 42
0.077800
  0
VERTEX
  8
0
 10
748.866525
 20
1261.963449
 42
0.077484
  0
VERTEX
  8
0
 10
745.647653
 20
1254.554567
 42
0.063886
  0
VERTEX
  8
0
 10
744.550137
 20
1246.000000
 42
0.038343
  0
VERTEX
  8
0
 10
745.020220
 20
1239.879012
 42
0.057257
  0
VERTEX
  8
0
 10
746.438289
 20
1234.708645
 42
0.058428
  0
VERTEX
  8
0
 10
748.965114
 20
1230.070099
 42
0.042004
  0
VERTEX
  8
0
 10
752.766523
 20
1225.552159
 42
0.038348
  0
VERTEX
  8
0
 10
757.025057
 20
1221.886650
 42
0.056958
  0
VERTEX
  8
0
 10
761.290700
 20
1219.442897
 42
0.054658
  0
VERTEX
  8
0
 10
766.129257
 20
1217.960723
 42
0.032104
  0
VERTEX
  8
0
 10
772.143004
 20
1217.212039
 42
0.012687
  0
VERTEX
  8
0
 10
776.505312
 20
1217.062352
 42
0.040831
  0
VERTEX
  8
0
 10
779.399839
 20
1217.273122
 42
0.047207
  0
VERTEX
  8
0
 10
781.992259
 20
1217.931344
 42
0.021589
  0
VERTEX
  8
0
 10
785.229486
 20
1219.247524
 42
0.109077
  0
VERTEX
  8
0
 10
795.926786
 20
1227.322887
 42
0.115631
  0
VERTEX
  8
0
 10
801.952432
 20
1238.992806
 42
0.115834
  0
VERTEX
  8
0
 10
802.159056
 20
1252.108198
 42
0.109746
  0
VERTEX
  8
0
 10
796.544692
 20
1264.237675
 42
0.093083
  0
VERTEX
  8
0
 10
789.614850
 20
1270.477410
 42
0.078587
  0
VERTEX
  8
0
 10
780.478030
 20
1274.239144
 42
0.078059
  0
VERTEX
  8
0
 10
770.566885
 20
1275.012859
 42
0.089710
  0
SEQEND
  0
POLYLINE
  8
0
 66
1
 70
1
  0
VERTEX
  8
0
 10
779.768471
 20
1262.452272
 42
-0.060036
  0
VERTEX
  8
0
 10
784.618189
 20
1259.703079
 42
-0.080470
  0
VERTEX
  8
0
 10
788.147689
 20
1256.096267
 42
-0.083471
  0
VERTEX
  8
0
 10
790.271608
 20
1251.670253
 42
-0.070331
  0
VERTEX
  8
0
 10
791.000000
 20
1246.517541
 42
-0.120530
  0
VERTEX
  8
0
 10
788.765793
 20
1237.383911
 42
-0.136846
  0
VERTEX
  8
0
 10
782.625250
 20
1230.816327
 42
-0.136877
  0
VERTEX
  8
0
 10
773.973165
 20
1228.375870
 42
-0.120607
  0
VERTEX
  8
0
 10
764.836248
 20
1230.584679
 42
-0.073975
  0
VERTEX
  8
0
 10
761.956324
 20
1232.662200
 42
-0.047866
  0
VERTEX
  8
0
 10
759.296098
 20
1235.804395
 42
-0.047682
  0
VERTEX
  8
0
 10
757.269064
 20
1239.414896
 42
-0.070856
  0
VERTEX
  8
0
 10
756.286691
 20
1242.899225
 42
-0.067557
  0
VERTEX
  8
0
 10
756.296479
 20
1249.105278
 42
-0.087788
  0
VERTEX
  8
0
 10
758.036658
 20
1254.507770
 42
-0.089970
  0
VERTEX
  8
0
 10
761.480716
 20
1258.889068
 42
-0.074832
  0
VERTEX
  8
0
 10
766.458630
 20
1262.120336
 42
-0.038354
  0
VERTEX
  8
0
 10
770.002230
 20
1263.412651
 42
-0.062104
  0
VERTEX
  8
0
 10
773.170250
 20
1263.888153
 42
-0.063403
  0
VERTEX
  8
0
 10
776.311113
 20
1263.567613
 42
-0.041885
  0
SEQEND
  0
POLYLINE
  8
0
 66
1
 70
1
  0
VERTEX
  8
0
 10
649.326400
 20
329.966317
 42
0.057624
  0
VERTEX
  8
0
 10
643.206348
 20
327.986998
 42
0.056176
  0
VERTEX
  8
0
 10
637.642418
 20
324.650652
 42
0.055450
  0
VERTEX
  8
0
 10
632.898728
 20
320.113252
 42
0.053417
  0
VERTEX
  8
0
 10
629.199807
 20
314.590020
 42
0.025645
  0
VERTEX
  8
0
 10
627.788351
 20
311.529298
 42
0.046457
  0
VERTEX
  8
0
 10
627.005747
 20
308.887103
 42
0.037230
  0
VERTEX
  8
0
 10
626.628472
 20
305.776264
 42
0.011153
  0
VERTEX
  8
0
 10
626.514029
 20
301.000000
 42
0.010762
  0
VERTEX
  8
0
 10
626.612280
 20
296.056691
 42
0.042030
  0
VERTEX
  8
0
 10
626.994183
 20
293.027368
 42
0.051714
  0
VERTEX
  8
0
 10
627.835199
 20
290.426555
 42
0.022445
  0
VERTEX
  8
0
 10
629.453950
 20
287.167281
 42
0.056878
  0
VERTEX
  8
0
 10
633.807384
 20
281.062672
 42
0.068717
  0
VERTEX
  8
0
 10
639.184819
 20
276.529149
 42
0.068193
  0
VERTEX
  8
0
 10
645.625093
 20
273.598392
 42
0.054860
  0
VERTEX
  8
0
 10
653.116234
 20
272.225368
 42
0.042147
  0
VERTEX
  8
0
 10
659.193788
 20
272.301827
 42
0.053963
  0
VERTEX
  8
0
 10
664.669917
 20
273.438397
 42
0.055196
  0
VERTEX
  8
0
 10
669.678586
 20
275.691639
 42
0.047226
  0
VERTEX
  8
0
 10
674.364370
 20
279.089529
 42
0.124216
  0
VERTEX
  8
0
 10
682.555959
 20
291.015894
 42
0.124442
  0
VERTEX
  8
0
 10
684.101134
 20
305.392444
 42
0.125737
  0
VERTEX
  8
0
 10
678.634788
 20
318.664199
 42
0.128316
  0
VERTEX
  8
0
 10
667.506085
 20
327.566296
 42
0.035043
  0
VERTEX
  8
0
 10
662.950786
 20
329.226006
 42
0.037038
  0
VERTEX
  8
0
 10
658.291542
 20
330.196215
 42
0.038304
  0
VERTEX
  8
0
 10
653.694987
 20
330.447837
 42
0.043977
  0
SEQEND
  0
POLYLINE
  8
0
 66
1
 70
1
  0
VERTEX
  8
0
 10
661.745520
 20
317.461862
 42
-0.032936
  0
VERTEX
  8
0
 10
664.928404
 20
315.878449
 42
-0.054990
  0
VERTEX
  8
0
 10
667.330227
 20
314.100076
 42
-0.055006
  0
VERTEX
  8
0
 10
669.286187
 20
311.841315
 42
-0.032977
  0
VERTEX
  8
0
 10
671.106410
 20
308.789838
 42
-0.058855
  0
VERTEX
  8
0
 10
672.473992
 20
305.093238
 42
-0.062380
  0
VERTEX
  8
0
 10
672.906603
 20
301.252676
 42
-0.060293
  0
VERTEX
  8
0
 10
672.379994
 20
297.312628
 42
-0.049423
  0
VERTEX
  8
0
 10
670.914172
 20
293.322704
 42
-0.171137
  0
VERTEX
  8
0
 10
662.762376
 20
285.242842
 42
-0.170000
  0
VERTEX
  8
0
 10
651.320124
 20
284.034690
 42
-0.168836
  0
VERTEX
  8
0
 10
641.566986
 20
290.232602
 42
-0.169131
  0
VERTEX
  8
0
 10
637.769231
 20
301.138723
 42
-0.120098
  0
VERTEX
  8
0
 10
639.805078
 20
309.492272
 42
-0.124378
  0
VERTEX
  8
0
 10
645.440885
 20
315.846063
 42
-0.125649
  0
VERTEX
  8
0
 10
653.368326
 20
318.719504
 42
-0.124012
  0
SEQEND
  0
POLYLINE
  8
0
 66
1
 70
1
  0
VERTEX
  8
0
 10
766.186252
 20
329.468125
 42
0.131703
  0
VERTEX
  8
0
 10
752.537195
 20
321.470911
 42
0.138532
  0
VERTEX
  8
0
 10
745.038908
 20
307.861613
 42
0.138735
  0
VERTEX
  8
0
 10
745.774957
 20
292.356326
 42
0.132228
  0
VERTEX
  8
0
 10
754.508137
 20
279.201752
 42
0.117124
  0
VERTEX
  8
0
 10
766.232890
 20
272.968944
 42
0.116532
  0
VERTEX
  8
0
 10
779.531225
 20
272.657710
 42
0.115052
  0
VERTEX
  8
0
 10
791.692357
 20
278.348999
 42
0.112014
  0
VERTEX
  8
0
 10
800.223528
 20
288.879591
 42
0.069274
  0
VERTEX
  8
0
 10
802.121052
 20
294.615853
 42
0.050666
  0
VERTEX
  8
0
 10
802.657102
 20
301.311280
 42
0.049688
  0
VERTEX
  8
0
 10
801.830369
 20
308.130377
 42
0.059200
  0
VERTEX
  8
0
 10
799.681908
 20
314.238847
 42
0.086404
  0
VERTEX
  8
0
 10
793.837122
 20
322.274591
 42
0.085922
  0
VERTEX
  8
0
 10
785.610060
 20
327.880694
 42
0.086238
  0
VERTEX
  8
0
 10
776.004614
 20
330.381270
 42
0.087907
  0
SEQEND
  0
POLYLINE
  8
0
 66
1
 70
1
  0
VERTEX
  8
0
 10
780.297742
 20
317.648956
 42
-0.072626
  0
VERTEX
  8
0
 10
783.304147
 20
315.843651
 42
-0.035500
  0
VERTEX
  8
0
 10
786.562222
 20
312.767131
 42
-0.035369
  0
VERTEX
  8
0
 10
789.297588
 20
309.331275
 42
-0.089175
  0
VERTEX
  8
0
 10
790.607570
 20
306.427432
 42
-0.086568
  0
VERTEX
  8
0
 10
791.049698
 20
300.398074
 42
-0.075076
  0
VERTEX
  8
0
 10
789.483396
 20
294.248004
 42
-0.076384
  0
VERTEX
  8
0
 10
786.209968
 20
288.929480
 42
-0.095595
  0
VERTEX
  8
0
 10
781.698307
 20
285.310883
 42
-0.108732
  0
VERTEX
  8
0
 10
775.345404
 20
283.561084
 42
-0.091419
  0
VERTEX
  8
0
 10
768.408670
 20
284.469216
 42
-0.090984
  0
VERTEX
  8
0
 10
762.224207
 20
287.799577
 42
-0.106300
  0
VERTEX
  8
0
 10
758.019755
 20
292.961277
 42
-0.152661
  0
VERTEX
  8
0
 10
756.231774
 20
303.455205
 42
-0.151114
  0
VERTEX
  8
0
 10
760.726302
 20
313.148215
 42
-0.153210
  0
VERTEX
  8
0
 10
769.848029
 20
318.524754
 42
-0.157362
  0
SEQEND
  0
POLYLINE
  8
0
 66
1
 70
1
  0
VERTEX
  8
0
 10
55.403561
 20
2927.234296
 42
0.126868
  0
VERTEX
  8
0
 10
43.310066
 20
2919.033201
 42
0.124830
  0
VERTEX
  8
0
 10
36.600632
 20
2905.958784
 42
0.125413
  0
VERTEX
  8
0
 10
36.948713
 20
2891.316029
 42
0.128731
  0
VERTEX
  8
0
 10
44.277205
 20
2878.789461
 42
0.044877
  0
VERTEX
  8
0
 10
48.782559
 20
2875.027612
 42
0.056762
  0
VERTEX
  8
0
 10
53.560536
 20
2872.463055
 42
0.055526
  0
VERTEX
  8
0
 10
58.878678
 20
2871.001121
 42
0.040406
  0
VERTEX
  8
0
 10
65.000000
 20
2870.531539
 42
0.038081
  0
VERTEX
  8
0
 10
71.126566
 20
2871.024751
 42
0.056661
  0
VERTEX
  8
0
 10
76.306823
 20
2872.456518
 42
0.057977
  0
VERTEX
  8
0
 10
80.947421
 20
2874.983760
 42
0.042258
  0
VERTEX
  8
0
 10
85.447841
 20
2878.766523
 42
0.038348
  0
VERTEX
  8
0
 10
89.113350
 20
2883.025057
 42
0.056958
  0
VERTEX
  8
0
 10
91.557103
 20
2887.290700
 42
0.054658
  0
VERTEX
  8
0
 10
93.039277
 20
2892.129257
 42
0.032104
  0
VERTEX
  8
0
 10
93.787961
 20
2898.143004
 42
0.012687
  0
VERTEX
  8
0
 10
93.937648
 20
2902.505312
 42
0.040831
  0
VERTEX
  8
0
 10
93.726878
 20
2905.399839
 42
0.047207
  0
VERTEX
  8
0
 10
93.068656
 20
2907.992259
 42
0.021589
  0
VERTEX
  8
0
 10
91.752476
 20
2911.229486
 42
0.089892
  0
VERTEX
  8
0
 10
85.458484
 20
2920.261013
 42
0.092283
  0
VERTEX
  8
0
 10
76.447013
 20
2926.410391
 42
0.093760
  0
VERTEX
  8
0
 10
65.952632
 20
2928.843178
 42
0.096382
  0
SEQEND
  0
POLYLINE
  8
0
 66
1
 70
1
  0
VERTEX
  8
0
 10
72.328810
 20
2915.635974
 42
-0.094901
  0
VERTEX
  8
0
 10
76.821046
 20
2912.660503
 42
-0.072979
  0
VERTEX
  8
0
 10
80.392536
 20
2907.970701
 42
-0.073531
  0
VERTEX
  8
0
 10
82.444506
 20
2902.491786
 42
-0.099577
  0
VERTEX
  8
0
 10
82.513332
 20
2897.219376
 42
-0.036677
  0
VERTEX
  8
0
 10
81.530695
 20
2893.507119
 42
-0.052653
  0
VERTEX
  8
0
 10
80.091075
 20
2890.427592
 42
-0.053772
  0
VERTEX
  8
0
 10
78.066333
 20
2887.763865
 42
-0.040474
  0
VERTEX
  8
0
 10
75.328894
 20
2885.301693
 42
-0.032059
  0
VERTEX
  8
0
 10
73.076835
 20
2883.801935
 42
-0.065325
  0
VERTEX
  8
0
 10
71.117166
 20
2882.989651
 42
-0.051711
  0
VERTEX
  8
0
 10
68.733002
 20
2882.606976
 42
-0.013956
  0
VERTEX
  8
0
 10
64.901173
 20
2882.500000
 42
-0.036554
  0
VERTEX
  8
0
 10
59.893505
 20
2882.866594
 42
-0.081464
  0
VERTEX
  8
0
 10
56.263888
 20
2884.024146
 42
-0.084325
  0
VERTEX
  8
0
 10
53.271092
 20
2886.250291
 42
-0.041365
  0
VERTEX
  8
0
 10
50.274348
 20
2889.953701
 42
-0.080596
  0
VERTEX
  8
0
 10
47.876788
 20
2895.089173
 42
-0.086357
  0
VERTEX
  8
0
 10
47.304018
 20
2900.595060
 42
-0.084588
  0
VERTEX
  8
0
 10
48.627238
 20
2906.063640
 42
-0.073464
  0
VERTEX
  8
0
 10
51.727063
 20
2911.087479
 42
-0.087018
  0
VERTEX
  8
0
 10
55.863811
 20
2914.555519
 42
-0.076850
  0
VERTEX
  8
0
 10
61.113153
 20
2916.595738
 42
-0.075335
  0
VERTEX
  8
0
 10
66.831989
 20
2916.978963
 42
-0.078235
  0
SEQEND
  0
POLYLINE
  8
0
 66
1
 70
1
  0
VERTEX
  8
0
 10
55.702676
 20
1982.618415
 42
0.053124
  0
VERTEX
  8
0
 10
49.542963
 20
1979.544285
 42
0.053961
  0
VERTEX
  8
0
 10
44.204621
 20
1975.254957
 42
0.054982
  0
VERTEX
  8
0
 10
39.992911
 20
1970.006652
 42
0.059547
  0
VERTEX
  8
0
 10
37.158606
 20
1964.100777
 42
0.059997
  0
VERTEX
  8
0
 10
36.114102
 20
1959.167519
 42
0.036454
  0
VERTEX
  8
0
 10
36.019062
 20
1953.198194
 42
0.036457
  0
VERTEX
  8
0
 10
36.791901
 20
1947.279347
 42
0.060079
  0
VERTEX
  8
0
 10
38.390237
 20
1942.500000
 42
0.139829
  0
VERTEX
  8
0
 10
49.046987
 20
1930.364314
 42
0.139245
  0
VERTEX
  8
0
 10
64.519964
 20
1925.651997
 42
0.139306
  0
VERTEX
  8
0
 10
80.154953
 20
1929.776367
 42
0.139990
  0
VERTEX
  8
0
 10
91.250404
 20
1941.500000
 42
0.040390
  0
VERTEX
  8
0
 10
92.185994
 20
1943.719264
 42
0.025916
  0
VERTEX
  8
0
 10
92.922305
 20
1946.417379
 42
0.022777
  0
VERTEX
  8
0
 10
93.459148
 20
1949.562817
 42
0.015958
  0
VERTEX
  8
0
 10
93.787961
 20
1953.143004
 42
0.012623
  0
VERTEX
  8
0
 10
93.937835
 20
1957.494399
 42
0.040591
  0
VERTEX
  8
0
 10
93.729656
 20
1960.382754
 42
0.047311
  0
VERTEX
  8
0
 10
93.078758
 20
1962.957209
 42
0.022172
  0
VERTEX
  8
0
 10
91.782129
 20
1966.143004
 42
0.028197
  0
VERTEX
  8
0
 10
89.197641
 20
1971.020726
 42
0.047321
  0
VERTEX
  8
0
 10
86.437159
 20
1974.742336
 42
0.049735
  0
VERTEX
  8
0
 10
83.131236
 20
1977.752713
 42
0.035220
  0
VERTEX
  8
0
 10
78.899891
 20
1980.457969
 42
0.060135
  0
VERTEX
  8
0
 10
73.599565
 20
1982.564583
 42
0.041352
  0
VERTEX
  8
0
 10
67.226082
 20
1983.694907
 42
0.041848
  0
VERTEX
  8
0
 10
60.885196
 20
1983.753365
 42
0.070699
  0
SEQEND
  0
POLYLINE
  8
0
 66
1
 70
1
  0
VERTEX
  8
0
 10
72.799660
 20
1970.595014
 42
-0.079046
  0
VERTEX
  8
0
 10
77.174948
 20
1967.354266
 42
-0.071172
  0
VERTEX
  8
0
 10
80.514669
 20
1962.806404
 42
-0.072480
  0
VERTEX
  8
0
 10
82.399084
 20
1957.588990
 42
-0.087911
  0
VERTEX
  8
0
 10
82.536813
 20
1952.396923
 42
-0.117335
  0
VERTEX
  8
0
 10
79.412397
 20
1944.629725
 42
-0.118009
  0
VERTEX
  8
0
 10
73.129786
 20
1939.121523
 42
-0.119135
  0
VERTEX
  8
0
 10
65.085240
 20
1937.086856
 42
-0.121168
  0
VERTEX
  8
0
 10
57.054688
 20
1938.972100
 42
-0.129101
  0
VERTEX
  8
0
 10
49.952943
 20
1945.308756
 42
-0.142882
  0
VERTEX
  8
0
 10
47.225324
 20
1954.075326
 42
-0.139241
  0
VERTEX
  8
0
 10
49.617110
 20
1963.106180
 42
-0.120432
  0
VERTEX
  8
0
 10
56.500000
 20
1970.129298
 42
-0.090627
  0
VERTEX
  8
0
 10
59.851894
 20
1971.448738
 42
-0.041446
  0
VERTEX
  8
0
 10
64.541538
 20
1971.973374
 42
-0.041426
  0
VERTEX
  8
0
 10
69.280560
 20
1971.716075
 42
-0.085888
  0
SEQEND
  0
POLYLINE
  8
0
 66
1
 70
1
  0
VERTEX
  8
0
 10
52.441988
 20
1036.132470
 42
0.065901
  0
VERTEX
  8
0
 10
45.293707
 20
1031.515312
 42
0.080162
  0
VERTEX
  8
0
 10
40.129945
 20
1025.455205
 42
0.078131
  0
VERTEX
  8
0
 10
37.045439
 20
1017.946597
 42
0.058898
  0
VERTEX
  8
0
 10
36.009769
 20
1009.071861
 42
0.154672
  0
VERTEX
  8
0
 10
41.141776
 20
992.961934
 42
0.150207
  0
VERTEX
  8
0
 10
54.668815
 20
982.521892
 42
0.149239
  0
VERTEX
  8
0
 10
71.795193
 20
981.444513
 42
0.152419
  0
VERTEX
  8
0
 10
86.437404
 20
990.141603
 42
0.143294
  0
VERTEX
  8
0
 10
93.655041
 20
1005.172931
 42
0.145147
  0
VERTEX
  8
0
 10
91.581252
 20
1021.640729
 42
0.145892
  0
VERTEX
  8
0
 10
80.883493
 20
1034.257006
 42
0.145101
  0
VERTEX
  8
0
 10
65.000000
 20
1038.989442
 42
0.020603
  0
VERTEX
  8
0
 10
61.481917
 20
1038.849280
 42
0.035684
  0
VERTEX
  8
0
 10
58.591169
 20
1038.405412
 42
0.035179
  0
VERTEX
  8
0
 10
55.765019
 20
1037.549655
 42
0.019386
  0
SEQEND
  0
POLYLINE
  8
0
 66
1
 70
1
  0
VERTEX
  8
0
 10
69.277334
 20
1026.939872
 42
-0.096370
  0
VERTEX
  8
0
 10
74.945230
 20
1024.110347
 42
-0.080527
  0
VERTEX
  8
0
 10
79.561591
 20
1019.203652
 42
-0.082655
  0
VERTEX
  8
0
 10
82.299180
 20
1013.223089
 42
-0.111312
  0
VERTEX
  8
0
 10
82.552141
 20
1007.293138
 42
-0.089723
  0
VERTEX
  8
0
 10
80.368862
 20
1001.458194
 42
-0.080075
  0
VERTEX
  8
0
 10
76.212067
 20
996.491108
 42
-0.081578
  0
VERTEX
  8
0
 10
70.785675
 20
993.153916
 42
-0.099064
  0
VERTEX
  8
0
 10
64.934276
 20
992.021962
 42
-0.065931
  0
VERTEX
  8
0
 10
61.330289
 20
992.522737
 42
-0.042028
  0
VERTEX
  8
0
 10
57.354114
 20
993.991053
 42
-0.042349
  0
VERTEX
  8
0
 10
53.735635
 20
996.074397
 42
-0.074446
  0
VERTEX
  8
0
 10
51.228332
 20
998.436852
 42
-0.119363
  0
VERTEX
  8
0
 10
47.527163
 20
1006.530235
 42
-0.129652
  0
VERTEX
  8
0
 10
48.102066
 20
1015.155768
 42
-0.127101
  0
VERTEX
  8
0
 10
52.885527
 20
1022.500647
 42
-0.112295
  0
VERTEX
  8
0
 10
60.842638
 20
1027.025306
 42
-0.016088
  0
VERTEX
  8
0
 10
63.264056
 20
1027.672590
 42
-0.059862
  0
VERTEX
  8
0
 10
64.830204
 20
1027.844697
 42
-0.053870
  0
VERTEX
  8
0
 10
66.473307
 20
1027.650299
 42
-0.011370
  0
SEQEND
  0
POLYLINE
  8
0
 66
1
 70
1
  0
VERTEX
  8
0
 10
54.385352
 20
92.382837
 42
0.056654
  0
VERTEX
  8
0
 10
50.266104
 20
90.372646
 42
0.037621
  0
VERTEX
  8
0
 10
46.051871
 20
87.219246
 42
0.036664
  0
VERTEX
  8
0
 10
42.220662
 20
83.345671
 42
0.043819
  0
VERTEX
  8
0
 10
39.242953
 20
79.166044
 42
0.028617
  0
VERTEX
  8
0
 10
37.731251
 20
76.220918
 42
0.056495
  0
VERTEX
  8
0
 10
36.944974
 20
73.715815
 42
0.039641
  0
VERTEX
  8
0
 10
36.591335
 20
70.572136
 42
0.008195
  0
VERTEX
  8
0
 10
36.500000
 20
65.000000
 42
0.019218
  0
VERTEX
  8
0
 10
36.761110
 20
58.209048
 42
0.063003
  0
VERTEX
  8
0
 10
37.663444
 20
53.818618
 42
0.070182
  0
VERTEX
  8
0
 10
39.572325
 20
50.048344
 42
0.027939
  0
VERTEX
  8
0
 10
43.155852
 20
45.475275
 42
0.044794
  0
VERTEX
  8
0
 10
47.236774
 20
41.590849
 42
0.056175
  0
VERTEX
  8
0
 10
51.662660
 20
38.822368
 42
0.055062
  0
VERTEX
  8
0
 10
56.667022
 20
37.070542
 42
0.040679
  0
VERTEX
  8
0
 10
62.476670
 20
36.219804
 42
0.038431
  0
VERTEX
  8
0
 10
69.524119
 20
36.309563
 42
0.063006
  0
VERTEX
  8
0
 10
75.346593
 20
37.583523
 42
0.065577
  0
VERTEX
  8
0
 10
80.506231
 20
40.218855
 42
0.045585
  0
VERTEX
  8
0
 10
85.541695
 20
44.411260
 42
0.070473
  0
VERTEX
  8
0
 10
90.538565
 20
51.057355
 42
0.072529
  0
VERTEX
  8
0
 10
93.432875
 20
58.766244
 42
0.071288
  0
VERTEX
  8
0
 10
94.034016
 20
67.098053
 42
0.064611
  0
VERTEX
  8
0
 10
92.323707
 20
75.563372
 42
0.070588
  0
VERTEX
  8
0
 10
89.797483
 20
80.544752
 42
0.043808
  0
VERTEX
  8
0
 10
85.577238
 20
85.577238
 42
0.043808
  0
VERTEX
  8
0
 10
80.544752
 20
89.797483
 42
0.070588
  0
VERTEX
  8
0
 10
75.563372
 20
92.323707
 42
0.049384
  0
VERTEX
  8
0
 10
70.662357
 20
93.469745
 42
0.032069
  0
VERTEX
  8
0
 10
64.852840
 20
93.859024
 42
0.032225
  0
VERTEX
  8
0
 10
59.100809
 20
93.504045
 42
0.053739
  0
SEQEND
  0
POLYLINE
  8
0
 66
1
 70
1
  0
VERTEX
  8
0
 10
74.540437
 20
79.831858
 42
-0.120396
  0
VERTEX
  8
0
 10
80.521958
 20
73.153713
 42
-0.126162
  0
VERTEX
  8
0
 10
82.616525
 20
64.586774
 42
-0.127736
  0
VERTEX
  8
0
 10
80.324182
 20
56.150037
 42
-0.125102
  0
VERTEX
  8
0
 10
74.204018
 20
49.817073
 42
-0.078876
  0
VERTEX
  8
0
 10
69.800114
 20
47.975099
 42
-0.064836
  0
VERTEX
  8
0
 10
64.728331
 20
47.418895
 42
-0.064564
  0
VERTEX
  8
0
 10
59.661715
 20
48.180548
 42
-0.076761
  0
VERTEX
  8
0
 10
55.272934
 20
50.200683
 42
-0.067208
  0
VERTEX
  8
0
 10
52.246424
 20
52.848819
 42
-0.045052
  0
VERTEX
  8
0
 10
49.541905
 20
56.575966
 42
-0.045865
  0
VERTEX
  8
0
 10
47.624487
 20
60.586105
 42
-0.089396
  0
VERTEX
  8
0
 10
47.005577
 20
64.065724
 42
-0.081785
  0
VERTEX
  8
0
 10
47.944828
 20
69.689113
 42
-0.068181
  0
VERTEX
  8
0
 10
50.663803
 20
75.110666
 42
-0.070161
  0
VERTEX
  8
0
 10
54.640741
 20
79.456520
 42
-0.098811
  0
VERTEX
  8
0
 10
59.256400
 20
81.934019
 42
-0.064095
  0
VERTEX
  8
0
 10
62.965339
 20
82.561613
 42
-0.044101
  0
VERTEX
  8
0
 10
67.229132
 20
82.354497
 42
-0.044507
  0
VERTEX
  8
0
 10
71.329903
 20
81.413178
 42
-0.071657
  0
SEQEND
  0
POLYLINE
  8
0
 66
1
 70
1
  0
VERTEX
  8
0
 10
170.290066
 20
91.024350
 42
0.030827
  0
VERTEX
  8
0
 10
165.835166
 20
88.415117
 42
0.046959
  0
VERTEX
  8
0
 10
162.366843
 20
85.579751
 42
0.046423
  0
VERTEX
  8
0
 10
159.461045
 20
82.121768
 42
0.029284
  0
VERTEX
  8
0
 10
156.714200
 20
77.616470
 42
0.036721
  0
VERTEX
  8
0
 10
155.616900
 20
75.129685
 42
0.042591
  0
VERTEX
  8
0
 10
154.959487
 20
72.628398
 42
0.032010
  0
VERTEX
  8
0
 10
154.623298
 20
69.524386
 42
0.010973
  0
VERTEX
  8
0
 10
154.523997
 20
65.000000
 42
0.010973
  0
VERTEX
  8
0
 10
154.623298
 20
60.475614
 42
0.032010
  0
VERTEX
  8
0
 10
154.959487
 20
57.371602
 42
0.042591
  0
VERTEX
  8
0
 10
155.616900
 20
54.870315
 42
0.036721
  0
VERTEX
  8
0
 10
156.714200
 20
52.383530
 42
0.029189
  0
VERTEX
  8
0
 10
159.457935
 20
47.881417
 42
0.046454
  0
VERTEX
  8
0
 10
162.356376
 20
44.429973
 42
0.047324
  0
VERTEX
  8
0
 10
165.800901
 20
41.616784
 42
0.031725
  0
VERTEX
  8
0
 10
170.199788
 20
39.058028
 42
0.076748
  0
VERTEX
  8
0
 10
179.082787
 20
36.210432
 42
0.080037
  0
VERTEX
  8
0
 10
188.278729
 20
36.235376
 42
0.080887
  0
VERTEX
  8
0
 10
196.920856
 20
39.136453
 42
0.080778
  0
VERTEX
  8
0
 10
204.200650
 20
44.630468
 42
0.094893
  0
VERTEX
  8
0
 10
210.296959
 20
54.060935
 42
0.096461
  0
VERTEX
  8
0
 10
212.431324
 20
65.021298
 42
0.096681
  0
VERTEX
  8
0
 10
210.295993
 20
75.961210
 42
0.095811
  0
VERTEX
  8
0
 10
204.200650
 20
85.334734
 42
0.039235
  0
VERTEX
  8
0
 10
199.930544
 20
89.116029
 42
0.060679
  0
VERTEX
  8
0
 10
195.672363
 20
91.583147
 42
0.057311
  0
VERTEX
  8
0
 10
190.768638
 20
93.043364
 42
0.030947
  0
VERTEX
  8
0
 10
184.500000
 20
93.755037
 42
0.011629
  0
VERTEX
  8
0
 10
179.667011
 20
93.889981
 42
0.048666
  0
VERTEX
  8
0
 10
176.774010
 20
93.621328
 42
0.053567
  0
VERTEX
  8
0
 10
174.122478
 20
92.810157
 42
0.016073
  0
SEQEND
  0
POLYLINE
  8
0
 66
1
 70
1
  0
VERTEX
  8
0
 10
189.316196
 20
81.551188
 42
-0.039584
  0
VERTEX
  8
0
 10
192.668528
 20
80.047256
 42
-0.061253
  0
VERTEX
  8
0
 10
195.242251
 20
78.197439
 42
-0.060702
  0
VERTEX
  8
0
 10
197.306885
 20
75.766028
 42
-0.038085
  0
VERTEX
  8
0
 10
199.119269
 20
72.500000
 42
-0.138189
  0
VERTEX
  8
0
 10
200.658236
 20
62.704886
 42
-0.141495
  0
VERTEX
  8
0
 10
196.830161
 20
53.648630
 42
-0.144315
  0
VERTEX
  8
0
 10
188.839331
 20
48.145352
 42
-0.145267
  0
VERTEX
  8
0
 10
179.163384
 20
47.874988
 42
-0.077386
  0
VERTEX
  8
0
 10
173.706516
 20
50.279515
 42
-0.084584
  0
VERTEX
  8
0
 10
169.427691
 20
54.172949
 42
-0.085413
  0
VERTEX
  8
0
 10
166.709274
 20
59.228695
 42
-0.080908
  0
VERTEX
  8
0
 10
165.769231
 20
65.000000
 42
-0.070407
  0
VERTEX
  8
0
 10
166.510145
 20
70.235548
 42
-0.080016
  0
VERTEX
  8
0
 10
168.670477
 20
74.814182
 42
-0.077951
  0
VERTEX
  8
0
 10
172.215331
 20
78.572797
 42
-0.062554
  0
VERTEX
  8
0
 10
177.007140
 20
81.407017
 42
-0.039635
  0
VERTEX
  8
0
 10
180.103489
 20
82.467426
 42
-0.059824
  0
VERTEX
  8
0
 10
182.926595
 20
82.840008
 42
-0.056801
  0
VERTEX
  8
0
 10
185.862829
 20
82.540160
 42
-0.031845
  0
SEQEND
  0
POLYLINE
  8
0
 66
1
 70
1
  0
VERTEX
  8
0
 10
412.000000
 20
2928.124748
 42
0.045048
  0
VERTEX
  8
0
 10
405.970183
 20
2925.517639
 42
0.050590
  0
VERTEX
  8
0
 10
400.752857
 20
2921.954212
 42
0.050901
  0
VERTEX
  8
0
 10
396.383331
 20
2917.436850
 42
0.046600
  0
VERTEX
  8
0
 10
392.868353
 20
2912.000000
 42
0.076313
  0
VERTEX
  8
0
 10
390.943309
 20
2906.351403
 42
0.047698
  0
VERTEX
  8
0
 10
390.378121
 20
2899.371940
 42
0.047251
  0
VERTEX
  8
0
 10
391.150383
 20
2892.312008
 42
0.068551
  0
VERTEX
  8
0
 10
393.239968
 20
2886.409980
 42
0.096507
  0
VERTEX
  8
0
 10
400.279754
 20
2877.516537
 42
0.096253
  0
VERTEX
  8
0
 10
410.149409
 20
2871.906321
 42
0.096860
  0
VERTEX
  8
0
 10
421.347995
 20
2870.421169
 42
0.099126
  0
VERTEX
  8
0
 10
432.181603
 20
2873.290085
 42
0.064306
  0
VERTEX
  8
0
 10
439.140410
 20
2877.898340
 42
0.075658
  0
VERTEX
  8
0
 10
444.267466
 20
2883.906753
 42
0.075477
  0
VERTEX
  8
0
 10
447.383448
 20
2891.180906
 42
0.063597
  0
VERTEX
  8
0
 10
448.445888
 20
2899.500000
 42
0.089288
  0
VERTEX
  8
0
 10
446.446125
 20
2910.609101
 42
0.100227
  0
VERTEX
  8
0
 10
440.720641
 20
2919.823208
 42
0.100730
  0
VERTEX
  8
0
 10
431.888759
 20
2926.051809
 42
0.091085
  0
VERTEX
  8
0
 10
421.000000
 20
2928.621830
 42
0.013025
  0
VERTEX
  8
0
 10
418.328131
 20
2928.686140
 42
0.013298
  0
VERTEX
  8
0
 10
415.675000
 20
2928.610293
 42
0.013161
  0
VERTEX
  8
0
 10
413.377908
 20
2928.422675
 42
0.052610
  0
SEQEND
  0
POLYLINE
  8
0
 66
1
 70
1
  0
VERTEX
  8
0
 10
428.422890
 20
2914.598057
 42
-0.166922
  0
VERTEX
  8
0
 10
435.670820
 20
2906.164104
 42
-0.162642
  0
VERTEX
  8
0
 10
436.306563
 20
2894.955468
 42
-0.162509
  0
VERTEX
  8
0
 10
430.075894
 20
2885.609454
 42
-0.166666
  0
VERTEX
  8
0
 10
419.548297
 20
2882.000000
 42
-0.131897
  0
VERTEX
  8
0
 10
410.763164
 20
2884.358501
 42
-0.131599
  0
VERTEX
  8
0
 10
404.331540
 20
2890.801163
 42
-0.130964
  0
VERTEX
  8
0
 10
401.962125
 20
2899.622700
 42
-0.130046
  0
VERTEX
  8
0
 10
404.286833
 20
2908.479618
 42
-0.105426
  0
VERTEX
  8
0
 10
408.731571
 20
2913.492471
 42
-0.097066
  0
VERTEX
  8
0
 10
414.963090
 20
2916.439813
 42
-0.095764
  0
VERTEX
  8
0
 10
421.919824
 20
2916.839024
 42
-0.099443
  0
SEQEND
  0
POLYLINE
  8
0
 66
1
 70
1
  0
VERTEX
  8
0
 10
409.594357
 20
1982.354705
 42
0.078583
  0
VERTEX
  8
0
 10
404.188871
 20
1979.712140
 42
0.048219
  0
VERTEX
  8
0
 10
398.790359
 20
1975.091562
 42
0.047648
  0
VERTEX
  8
0
 10
394.290314
 20
1969.426664
 42
0.068568
  0
VERTEX
  8
0
 10
391.571048
 20
1963.637897
 42
0.087980
  0
VERTEX
  8
0
 10
390.249163
 20
1953.262603
 42
0.089712
  0
VERTEX
  8
0
 10
392.594784
 20
1943.141222
 42
0.089721
  0
VERTEX
  8
0
 10
398.336958
 20
1934.483648
 42
0.088022
  0
VERTEX
  8
0
 10
406.782747
 20
1928.317863
 42
0.084128
  0
VERTEX
  8
0
 10
415.625858
 20
1925.706365
 42
0.076247
  0
VERTEX
  8
0
 10
425.155639
 20
1926.020084
 42
0.077124
  0
VERTEX
  8
0
 10
434.055779
 20
1929.158888
 42
0.089555
  0
VERTEX
  8
0
 10
441.075947
 20
1934.739280
 42
0.039323
  0
VERTEX
  8
0
 10
444.509058
 20
1939.331805
 42
0.053898
  0
VERTEX
  8
0
 10
446.777843
 20
1943.961821
 42
0.052807
  0
VERTEX
  8
0
 10
448.034524
 20
1949.043728
 42
0.035789
  0
VERTEX
  8
0
 10
448.424370
 20
1955.000000
 42
0.014668
  0
VERTEX
  8
0
 10
448.279548
 20
1959.075040
 42
0.036254
  0
VERTEX
  8
0
 10
447.870438
 20
1962.035237
 42
0.041441
  0
VERTEX
  8
0
 10
447.078429
 20
1964.663919
 42
0.025149
  0
VERTEX
  8
0
 10
445.736304
 20
1967.623349
 42
0.086012
  0
VERTEX
  8
0
 10
439.344866
 20
1976.071892
 42
0.091378
  0
VERTEX
  8
0
 10
430.604835
 20
1981.665208
 42
0.090230
  0
VERTEX
  8
0
 10
420.349200
 20
1983.819683
 42
0.081417
  0
SEQEND
  0
POLYLINE
  8
0
 66
1
 70
1
  0
VERTEX
  8
0
 10
429.815182
 20
1969.131602
 42
-0.116875
  0
VERTEX
  8
0
 10
434.804742
 20
1963.434947
 42
-0.107830
  0
VERTEX
  8
0
 10
436.895568
 20
1955.932803
 42
-0.106885
  0
VERTEX
  8
0
 10
435.677448
 20
1948.187351
 42
-0.112984
  0
VERTEX
  8
0
 10
431.373161
 20
1941.813618
 42
-0.095723
  0
VERTEX
  8
0
 10
425.342634
 20
1938.024795
 42
-0.108404
  0
VERTEX
  8
0
 10
418.601098
 20
1936.977477
 42
-0.106896
  0
VERTEX
  8
0
 10
411.967133
 20
1938.847997
 42
-0.090862
  0
VERTEX
  8
0
 10
406.248826
 20
1943.369384
 42
-0.037097
  0
VERTEX
  8
0
 10
403.873568
 20
1946.517512
 42
-0.071508
  0
VERTEX
  8
0
 10
402.561363
 20
1949.382934
 42
-0.066857
  0
VERTEX
  8
0
 10
402.060186
 20
1952.629709
 42
-0.028866
  0
VERTEX
  8
0
 10
402.227138
 20
1957.012072
 42
-0.061833
  0
VERTEX
  8
0
 10
403.143978
 20
1961.125559
 42
-0.061956
  0
VERTEX
  8
0
 10
405.038437
 20
1964.887010
 42
-0.062500
  0
VERTEX
  8
0
 10
407.778498
 20
1968.041827
 42
-0.064994
  0
VERTEX
  8
0
 10
411.179627
 20
1970.373660
 42
-0.086909
  0
VERTEX
  8
0
 10
415.344642
 20
1971.652078
 42
-0.047782
  0
VERTEX
  8
0
 10
420.690003
 20
1971.806816
 42
-0.047878
  0
VERTEX
  8
0
 10
425.942023
 20
1970.947198
 42
-0.090460
  0
SEQEND
  0
POLYLINE
  8
0
 66
1
 70
1
  0
VERTEX
  8
0
 10
408.305336
 20
1036.898650
 42
0.069237
  0
VERTEX
  8
0
 10
403.156413
 20
1034.050297
 42
0.045178
  0
VERTEX
  8
0
 10
398.105901
 20
1029.495458
 42
0.045189
  0
VERTEX
  8
0
 10
393.957387
 20
1024.109636
 42
0.069450
  0
VERTEX
  8
0
 10
391.521936
 20
1018.761913
 42
0.096471
  0
VERTEX
  8
0
 10
390.340284
 20
1006.532619
 42
0.108297
  0
VERTEX
  8
0
 10
393.961479
 20
995.296614
 42
0.107420
  0
VERTEX
  8
0
 10
401.982686
 20
986.539161
 42
0.093594
  0
VERTEX
  8
0
 10
413.310267
 20
981.363472
 42
0.013645
  0
VERTEX
  8
0
 10
417.128962
 20
980.530951
 42
0.047483
  0
VERTEX
  8
0
 10
419.640444
 20
980.298048
 42
0.047984
  0
VERTEX
  8
0
 10
422.137263
 20
980.544328
 42
0.014146
  0
VERTEX
  8
0
 10
425.892601
 20
981.393974
 42
0.040131
  0
VERTEX
  8
0
 10
431.405999
 20
983.288697
 42
0.045899
  0
VERTEX
  8
0
 10
436.288781
 20
985.975017
 42
0.047663
  0
VERTEX
  8
0
 10
440.442988
 20
989.403323
 42
0.050183
  0
VERTEX
  8
0
 10
443.793430
 20
993.501852
 42
0.135441
  0
VERTEX
  8
0
 10
448.663910
 20
1008.409430
 42
0.136425
  0
VERTEX
  8
0
 10
445.179378
 20
1023.659211
 42
0.136648
  0
VERTEX
  8
0
 10
434.330905
 20
1034.904745
 42
0.136049
  0
VERTEX
  8
0
 10
419.212487
 20
1038.947894
 42
0.026999
  0
VERTEX
  8
0
 10
416.629984
 20
1038.784708
 42
0.017158
  0
VERTEX
  8
0
 10
413.650591
 20
1038.330142
 42
0.017191
  0
VERTEX
  8
0
 10
410.723808
 20
1037.675367
 42
0.028149
  0
SEQEND
  0
POLYLINE
  8
0
 66
1
 70
1
  0
VERTEX
  8
0
 10
428.053280
 20
1025.472448
 42
-0.113252
  0
VERTEX
  8
0
 10
432.886065
 20
1021.378729
 42
-0.085701
  0
VERTEX
  8
0
 10
436.053641
 20
1015.165699
 42
-0.085446
  0
VERTEX
  8
0
 10
436.960256
 20
1008.232025
 42
-0.111474
  0
VERTEX
  8
0
 10
435.304874
 20
1002.071102
 42
-0.106431
  0
VERTEX
  8
0
 10
430.126871
 20
995.880778
 42
-0.112219
  0
VERTEX
  8
0
 10
422.953559
 20
992.515591
 42
-0.115841
  0
VERTEX
  8
0
 10
415.214104
 20
992.635659
 42
-0.119151
  0
VERTEX
  8
0
 10
408.427536
 20
996.197768
 42
-0.037801
  0
VERTEX
  8
0
 10
405.421342
 20
999.268994
 42
-0.062699
  0
VERTEX
  8
0
 10
403.456081
 20
1002.308916
 42
-0.065807
  0
VERTEX
  8
0
 10
402.364984
 20
1005.632083
 42
-0.046488
  0
VERTEX
  8
0
 10
402.000000
 20
1009.549211
 42
-0.123361
  0
VERTEX
  8
0
 10
404.249967
 20
1018.529869
 42
-0.133595
  0
VERTEX
  8
0
 10
410.429063
 20
1025.075774
 42
-0.133847
  0
VERTEX
  8
0
 10
419.062725
 20
1027.581681
 42
-0.124036
  0
SEQEND
  0
POLYLINE
  8
0
 66
1
 70
1
  0
VERTEX
  8
0
 10
407.397828
 20
91.604725
 42
0.138467
  0
VERTEX
  8
0
 10
395.054364
 20
80.974497
 42
0.141089
  0
VERTEX
  8
0
 10
390.205630
 20
65.536554
 42
0.142554
  0
VERTEX
  8
0
 10
394.324324
 20
50.004184
 42
0.142192
  0
VERTEX
  8
0
 10
406.137427
 20
39.089191
 42
0.096646
  0
VERTEX
  8
0
 10
417.481505
 20
35.940834
 42
0.101578
  0
VERTEX
  8
0
 10
428.964694
 20
37.377153
 42
0.101375
  0
VERTEX
  8
0
 10
438.971016
 20
43.225976
 42
0.095875
  0
VERTEX
  8
0
 10
446.108366
 20
52.641700
 42
0.067254
  0
VERTEX
  8
0
 10
447.985457
 20
58.246909
 42
0.046100
  0
VERTEX
  8
0
 10
448.634053
 20
64.933082
 42
0.046238
  0
VERTEX
  8
0
 10
448.047273
 20
71.595709
 42
0.069493
  0
VERTEX
  8
0
 10
446.220200
 20
77.127283
 42
0.042829
  0
VERTEX
  8
0
 10
443.515659
 20
81.604700
 42
0.040427
  0
VERTEX
  8
0
 10
440.040196
 20
85.649786
 42
0.040764
  0
VERTEX
  8
0
 10
435.991228
 20
89.051215
 42
0.045390
  0
VERTEX
  8
0
 10
431.581255
 20
91.614417
 42
0.060677
  0
VERTEX
  8
0
 10
425.903891
 20
93.461748
 42
0.048482
  0
VERTEX
  8
0
 10
419.494166
 20
94.082133
 42
0.048463
  0
VERTEX
  8
0
 10
413.082130
 20
93.456577
 42
0.060492
  0
SEQEND
  0
POLYLINE
  8
0
 66
1
 70
1
  0
VERTEX
  8
0
 10
426.616088
 20
81.086884
 42
-0.126336
  0
VERTEX
  8
0
 10
433.297708
 20
75.710039
 42
-0.119677
  0
VERTEX
  8
0
 10
436.730704
 20
67.671524
 42
-0.121730
  0
VERTEX
  8
0
 10
436.067685
 20
59.063095
 42
-0.133568
  0
VERTEX
  8
0
 10
431.455524
 20
52.095094
 42
-0.072671
  0
VERTEX
  8
0
 10
426.343117
 20
48.778783
 42
-0.086687
  0
VERTEX
  8
0
 10
420.793903
 20
47.317904
 42
-0.089090
  0
VERTEX
  8
0
 10
415.200075
 20
47.840958
 42
-0.081854
  0
VERTEX
  8
0
 10
409.953701
 20
50.274348
 42
-0.040213
  0
VERTEX
  8
0
 10
406.894495
 20
52.738189
 42
-0.056396
  0
VERTEX
  8
0
 10
404.637568
 20
55.419211
 42
-0.059835
  0
VERTEX
  8
0
 10
403.130265
 20
58.404835
 42
-0.053717
  0
VERTEX
  8
0
 10
402.303590
 20
61.773236
 42
-0.066316
  0
VERTEX
  8
0
 10
402.297977
 20
68.054147
 42
-0.088181
  0
VERTEX
  8
0
 10
404.022760
 20
73.486193
 42
-0.090807
  0
VERTEX
  8
0
 10
407.461721
 20
77.876527
 42
-0.074847
  0
VERTEX
  8
0
 10
412.458630
 20
81.120336
 42
-0.042550
  0
VERTEX
  8
0
 10
416.147866
 20
82.430853
 42
-0.064750
  0
VERTEX
  8
0
 10
419.516725
 20
82.860864
 42
-0.064430
  0
VERTEX
  8
0
 10
422.895633
 20
82.415521
 42
-0.041660
  0
SEQEND
  0
POLYLINE
  8
0
 66
1
 70
1
  0
VERTEX
  8
0
 10
525.500000
 20
91.622402
 42
0.044704
  0
VERTEX
  8
0
 10
521.062349
 20
89.022139
 42
0.040270
  0
VERTEX
  8
0
 10
516.987776
 20
85.591059
 42
0.040279
  0
VERTEX
  8
0
 10
513.516750
 20
81.552053
 42
0.044774
  0
VERTEX
  8
0
 10
510.874556
 20
77.143310
 42
0.067866
  0
VERTEX
  8
0
 10
509.080267
 20
71.634912
 42
0.044154
  0
VERTEX
  8
0
 10
508.470397
 20
64.960578
 42
0.044259
  0
VERTEX
  8
0
 10
509.041098
 20
58.308972
 42
0.069954
  0
VERTEX
  8
0
 10
510.804869
 20
52.872717
 42
0.095519
  0
VERTEX
  8
0
 10
517.947628
 20
43.356361
 42
0.101614
  0
VERTEX
  8
0
 10
527.974262
 20
37.428476
 42
0.102081
  0
VERTEX
  8
0
 10
539.486745
 20
35.947423
 42
0.097280
  0
VERTEX
  8
0
 10
550.862573
 20
39.089191
 42
0.110992
  0
VERTEX
  8
0
 10
560.760261
 20
47.166848
 42
0.112921
  0
VERTEX
  8
0
 10
566.173200
 20
58.654577
 42
0.111551
  0
VERTEX
  8
0
 10
566.086881
 20
71.468313
 42
0.106197
  0
VERTEX
  8
0
 10
560.528783
 20
83.258511
 42
0.093404
  0
VERTEX
  8
0
 10
553.613860
 20
89.476832
 42
0.078097
  0
VERTEX
  8
0
 10
544.470468
 20
93.238058
 42
0.077790
  0
VERTEX
  8
0
 10
534.579140
 20
94.022256
 42
0.091385
  0
SEQEND
  0
POLYLINE
  8
0
 66
1
 70
1
  0
VERTEX
  8
0
 10
544.500000
 20
81.109957
 42
-0.060359
  0
VERTEX
  8
0
 10
549.182499
 20
78.219907
 42
-0.084357
  0
VERTEX
  8
0
 10
552.452753
 20
74.557823
 42
-0.083239
  0
VERTEX
  8
0
 10
554.357993
 20
69.981814
 42
-0.057170
  0
VERTEX
  8
0
 10
555.000000
 20
64.385240
 42
-0.071487
  0
VERTEX
  8
0
 10
554.267684
 20
59.289389
 42
-0.083038
  0
VERTEX
  8
0
 10
552.134585
 20
54.886571
 42
-0.079775
  0
VERTEX
  8
0
 10
548.601812
 20
51.287251
 42
-0.060006
  0
VERTEX
  8
0
 10
543.768471
 20
48.547728
 42
-0.042024
  0
VERTEX
  8
0
 10
540.300528
 20
47.430039
 42
-0.063855
  0
VERTEX
  8
0
 10
537.153987
 20
47.113555
 42
-0.062209
  0
VERTEX
  8
0
 10
533.970184
 20
47.599791
 42
-0.037634
  0
VERTEX
  8
0
 10
530.383912
 20
48.913116
 42
-0.116627
  0
VERTEX
  8
0
 10
523.972171
 20
53.873690
 42
-0.115819
  0
VERTEX
  8
0
 10
520.441129
 20
61.192794
 42
-0.116468
  0
VERTEX
  8
0
 10
520.546320
 20
69.285224
 42
-0.118915
  0
VERTEX
  8
0
 10
524.267953
 20
76.405847
 42
-0.057140
  0
VERTEX
  8
0
 10
527.072545
 20
78.958040
 42
-0.045126
  0
VERTEX
  8
0
 10
530.606897
 20
81.047768
 42
-0.045638
  0
VERTEX
  8
0
 10
534.406623
 20
82.445840
 42
-0.063230
  0
VERTEX
  8
0
 10
538.000000
 20
82.934145
 42
-0.051692
  0
VERTEX
  8
0
 10
539.234417
 20
82.817121
 42
-0.018951
  0
VERTEX
  8
0
 10
540.940625
 20
82.407336
 42
-0.018550
  0
VERTEX
  8
0
 10
542.785147
 20
81.815056
 42
-0.021154
  0
SEQEND
  0
POLYLINE
  8
0
 66
1
 70
1
  0
VERTEX
  8
0
 10
1002.000000
 20
2928.124748
 42
0.069165
  0
VERTEX
  8
0
 10
993.010239
 20
2923.713567
 42
0.083574
  0
VERTEX
  8
0
 10
986.211402
 20
2917.238101
 42
0.085322
  0
VERTEX
  8
0
 10
982.003948
 20
2909.011514
 42
0.075777
  0
VERTEX
  8
0
 10
980.554112
 20
2899.500000
 42
0.093198
  0
VERTEX
  8
0
 10
982.697201
 20
2888.102299
 42
0.103673
  0
VERTEX
  8
0
 10
988.808179
 20
2878.740765
 42
0.103942
  0
VERTEX
  8
0
 10
998.149156
 20
2872.637859
 42
0.094139
  0
VERTEX
  8
0
 10
1009.500000
 20
2870.527056
 42
0.061344
  0
VERTEX
  8
0
 10
1017.786888
 20
2871.580136
 42
0.074267
  0
VERTEX
  8
0
 10
1025.006800
 20
2874.608845
 42
0.074148
  0
VERTEX
  8
0
 10
1031.035329
 20
2879.619834
 42
0.060894
  0
VERTEX
  8
0
 10
1035.819960
 20
2886.500000
 42
0.025886
  0
VERTEX
  8
0
 10
1037.196185
 20
2889.467443
 42
0.045540
  0
VERTEX
  8
0
 10
1037.972541
 20
2892.055157
 42
0.037652
  0
VERTEX
  8
0
 10
1038.350455
 20
2895.058225
 42
0.012479
  0
VERTEX
  8
0
 10
1038.461334
 20
2899.500000
 42
0.012479
  0
VERTEX
  8
0
 10
1038.350455
 20
2903.941775
 42
0.037652
  0
VERTEX
  8
0
 10
1037.972541
 20
2906.944843
 42
0.045540
  0
VERTEX
  8
0
 10
1037.196185
 20
2909.532557
 42
0.025886
  0
VERTEX
  8
0
 10
1035.819960
 20
2912.500000
 42
0.059148
  0
VERTEX
  8
0
 10
1031.277052
 20
2919.081304
 42
0.068194
  0
VERTEX
  8
0
 10
1025.508782
 20
2924.062329
 42
0.069012
  0
VERTEX
  8
0
 10
1018.674834
 20
2927.265509
 42
0.062753
  0
VERTEX
  8
0
 10
1011.000000
 20
2928.623758
 42
0.013016
  0
VERTEX
  8
0
 10
1008.328131
 20
2928.687330
 42
0.013288
  0
VERTEX
  8
0
 10
1005.675000
 20
2928.610860
 42
0.013150
  0
VERTEX
  8
0
 10
1003.377905
 20
2928.422797
 42
0.052567
  0
SEQEND
  0
POLYLINE
  8
0
 66
1
 70
1
  0
VERTEX
  8
0
 10
1018.479618
 20
2914.713167
 42
-0.138082
  0
VERTEX
  8
0
 10
1024.699505
 20
2908.438878
 42
-0.127811
  0
VERTEX
  8
0
 10
1026.966771
 20
2899.646597
 42
-0.126697
  0
VERTEX
  8
0
 10
1024.671727
 20
2890.803331
 42
-0.134485
  0
VERTEX
  8
0
 10
1018.422890
 20
2884.401943
 42
-0.131937
  0
VERTEX
  8
0
 10
1009.612225
 20
2881.985011
 42
-0.132889
  0
VERTEX
  8
0
 10
1000.802896
 20
2884.317687
 42
-0.132598
  0
VERTEX
  8
0
 10
994.357947
 20
2890.779980
 42
-0.131106
  0
VERTEX
  8
0
 10
992.005123
 20
2899.636155
 42
-0.133549
  0
VERTEX
  8
0
 10
994.377495
 20
2908.323598
 42
-0.130992
  0
VERTEX
  8
0
 10
1000.835145
 20
2914.688772
 42
-0.129773
  0
VERTEX
  8
0
 10
1009.656088
 20
2917.031374
 42
-0.129924
  0
SEQEND
  0
POLYLINE
  8
0
 66
1
 70
1
  0
VERTEX
  8
0
 10
999.909124
 20
1982.446487
 42
0.066578
  0
VERTEX
  8
0
 10
995.337627
 20
1980.340025
 42
0.040725
  0
VERTEX
  8
0
 10
990.589275
 20
1976.759077
 42
0.039864
  0
VERTEX
  8
0
 10
986.341745
 20
1972.321827
 42
0.052001
  0
VERTEX
  8
0
 10
983.263696
 20
1967.623349
 42
0.066070
  0
VERTEX
  8
0
 10
981.245874
 20
1961.992720
 42
0.046556
  0
VERTEX
  8
0
 10
980.445722
 20
1955.307077
 42
0.046665
  0
VERTEX
  8
0
 10
980.896343
 20
1948.610542
 42
0.067670
  0
VERTEX
  8
0
 10
982.620257
 20
1942.949195
 42
0.065820
  0
VERTEX
  8
0
 10
987.255260
 20
1935.591771
 42
0.075857
  0
VERTEX
  8
0
 10
993.453920
 20
1930.091729
 42
0.076277
  0
VERTEX
  8
0
 10
1000.980451
 20
1926.711902
 42
0.067555
  0
VERTEX
  8
0
 10
1009.500000
 20
1925.555556
 42
0.114417
  0
VERTEX
  8
0
 10
1022.811224
 20
1928.642033
 42
0.120109
  0
VERTEX
  8
0
 10
1033.131829
 20
1937.242922
 42
0.119260
  0
VERTEX
  8
0
 10
1038.384839
 20
1949.682536
 42
0.111731
  0
VERTEX
  8
0
 10
1037.551376
 20
1963.471270
 42
0.028375
  0
VERTEX
  8
0
 10
1036.421343
 20
1966.669443
 42
0.043420
  0
VERTEX
  8
0
 10
1035.055946
 20
1969.271984
 42
0.037870
  0
VERTEX
  8
0
 10
1033.122547
 20
1971.838312
 42
0.016141
  0
VERTEX
  8
0
 10
1030.177827
 20
1974.976277
 42
0.060045
  0
VERTEX
  8
0
 10
1023.463614
 20
1980.240489
 42
0.075902
  0
VERTEX
  8
0
 10
1016.185838
 20
1983.261657
 42
0.075783
  0
VERTEX
  8
0
 10
1008.328952
 20
1983.976107
 42
0.059628
  0
SEQEND
  0
POLYLINE
  8
0
 66
1
 70
1
  0
VERTEX
  8
0
 10
1017.655317
 20
1970.359273
 42
-0.067820
  0
VERTEX
  8
0
 10
1021.109835
 20
1968.103392
 42
-0.064482
  0
VERTEX
  8
0
 10
1023.902622
 20
1964.970600
 42
-0.063551
  0
VERTEX
  8
0
 10
1025.837154
 20
1961.184422
 42
-0.062491
  0
VERTEX
  8
0
 10
1026.772862
 20
1957.012072
 42
-0.028866
  0
VERTEX
  8
0
 10
1026.939814
 20
1952.629709
 42
-0.066857
  0
VERTEX
  8
0
 10
1026.438637
 20
1949.382934
 42
-0.071508
  0
VERTEX
  8
0
 10
1025.126432
 20
1946.517512
 42
-0.037097
  0
VERTEX
  8
0
 10
1022.751174
 20
1943.369384
 42
-0.146792
  0
VERTEX
  8
0
 10
1013.639368
 20
1937.672454
 42
-0.159284
  0
VERTEX
  8
0
 10
1003.217951
 20
1938.179913
 42
-0.158542
  0
VERTEX
  8
0
 10
995.074005
 20
1944.752641
 42
-0.145334
  0
VERTEX
  8
0
 10
992.000000
 20
1955.104938
 42
-0.081454
  0
VERTEX
  8
0
 10
992.813731
 20
1960.066828
 42
-0.068146
  0
VERTEX
  8
0
 10
995.191211
 20
1964.851271
 42
-0.068634
  0
VERTEX
  8
0
 10
998.746156
 20
1968.789316
 42
-0.085203
  0
VERTEX
  8
0
 10
1003.000000
 20
1971.278468
 42
-0.078223
  0
VERTEX
  8
0
 10
1005.935346
 20
1971.883605
 42
-0.027461
  0
VERTEX
  8
0
 10
1010.251847
 20
1971.850237
 42
-0.027748
  0
VERTEX
  8
0
 10
1014.590686
 20
1971.335333
 42
-0.067468
  0
SEQEND
  0
POLYLINE
  8
0
 66
1
 70
1
  0
VERTEX
  8
0
 10
999.274580
 20
1037.405685
 42
0.063426
  0
VERTEX
  8
0
 10
994.865204
 20
1035.112852
 42
0.034041
  0
VERTEX
  8
0
 10
990.066502
 20
1031.277764
 42
0.034040
  0
VERTEX
  8
0
 10
985.831839
 20
1026.826259
 42
0.063329
  0
VERTEX
  8
0
 10
983.165290
 20
1022.628254
 42
0.107989
  0
VERTEX
  8
0
 10
980.231490
 20
1009.766296
 42
0.116339
  0
VERTEX
  8
0
 10
983.068389
 20
997.228318
 42
0.115201
  0
VERTEX
  8
0
 10
991.244750
 20
987.190310
 42
0.104357
  0
VERTEX
  8
0
 10
1003.310267
 20
981.363472
 42
0.013829
  0
VERTEX
  8
0
 10
1007.147231
 20
980.528451
 42
0.048178
  0
VERTEX
  8
0
 10
1009.669894
 20
980.299914
 42
0.047747
  0
VERTEX
  8
0
 10
1012.201193
 20
980.557359
 42
0.013411
  0
VERTEX
  8
0
 10
1016.079267
 20
981.439240
 42
0.055943
  0
VERTEX
  8
0
 10
1023.744033
 20
984.343452
 42
0.071154
  0
VERTEX
  8
0
 10
1029.910724
 20
988.709018
 42
0.072324
  0
VERTEX
  8
0
 10
1034.533718
 20
994.564624
 42
0.060322
  0
VERTEX
  8
0
 10
1037.648034
 20
1001.861222
 42
0.088850
  0
VERTEX
  8
0
 10
1038.702827
 20
1011.805530
 42
0.086015
  0
VERTEX
  8
0
 10
1036.268167
 20
1021.619700
 42
0.085200
  0
VERTEX
  8
0
 10
1030.642603
 20
1030.117578
 42
0.084942
  0
VERTEX
  8
0
 10
1022.500000
 20
1036.263654
 42
0.073482
  0
VERTEX
  8
0
 10
1017.707254
 20
1037.907394
 42
0.033653
  0
VERTEX
  8
0
 10
1011.126302
 20
1038.676980
 42
0.033657
  0
VERTEX
  8
0
 10
1004.437374
 20
1038.555515
 42
0.066946
  0
SEQEND
  0
POLYLINE
  8
0
 66
1
 70
1
  0
VERTEX
  8
0
 10
1018.053280
 20
1025.472448
 42
-0.071741
  0
VERTEX
  8
0
 10
1021.365762
 20
1023.105202
 42
-0.062596
  0
VERTEX
  8
0
 10
1024.053605
 20
1019.795249
 42
-0.060426
  0
VERTEX
  8
0
 10
1025.914963
 20
1015.803327
 42
-0.058282
  0
VERTEX
  8
0
 10
1026.797121
 20
1011.432913
 42
-0.041257
  0
VERTEX
  8
0
 10
1026.798369
 20
1006.840844
 42
-0.073373
  0
VERTEX
  8
0
 10
1025.942890
 20
1003.165323
 42
-0.073609
  0
VERTEX
  8
0
 10
1024.064851
 20
999.901306
 42
-0.041778
  0
VERTEX
  8
0
 10
1020.942817
 20
996.567303
 42
-0.116405
  0
VERTEX
  8
0
 10
1014.015622
 20
992.756421
 42
-0.118270
  0
VERTEX
  8
0
 10
1006.158149
 20
992.475528
 42
-0.116220
  0
VERTEX
  8
0
 10
998.923884
 20
995.803072
 42
-0.109619
  0
VERTEX
  8
0
 10
993.751554
 20
1002.071102
 42
-0.093030
  0
VERTEX
  8
0
 10
992.207050
 20
1007.322985
 42
-0.072575
  0
VERTEX
  8
0
 10
992.471544
 20
1013.276292
 42
-0.072159
  0
VERTEX
  8
0
 10
994.432504
 20
1018.939112
 42
-0.089777
  0
VERTEX
  8
0
 10
997.827394
 20
1023.345081
 42
-0.087485
  0
VERTEX
  8
0
 10
1002.116288
 20
1026.038132
 42
-0.070459
  0
VERTEX
  8
0
 10
1007.404962
 20
1027.363119
 42
-0.068955
  0
VERTEX
  8
0
 10
1012.967236
 20
1027.180066
 42
-0.076815
  0
SEQEND
  0
POLYLINE
  8
0
 66
1
 70
1
  0
VERTEX
  8
0
 10
878.137427
 20
90.910809
 42
0.023288
  0
VERTEX
  8
0
 10
875.202433
 20
89.269169
 42
0.028278
  0
VERTEX
  8
0
 10
872.624941
 20
87.455830
 42
0.029816
  0
VERTEX
  8
0
 10
870.387584
 20
85.456619
 42
0.032465
  0
VERTEX
  8
0
 10
868.471217
 20
83.258511
 42
0.106197
  0
VERTEX
  8
0
 10
862.913119
 20
71.468313
 42
0.111551
  0
VERTEX
  8
0
 10
862.826800
 20
58.654577
 42
0.112921
  0
VERTEX
  8
0
 10
868.239739
 20
47.166848
 42
0.110992
  0
VERTEX
  8
0
 10
878.137427
 20
39.089191
 42
0.097280
  0
VERTEX
  8
0
 10
889.513255
 20
35.947423
 42
0.102081
  0
VERTEX
  8
0
 10
901.025738
 20
37.428476
 42
0.101614
  0
VERTEX
  8
0
 10
911.052372
 20
43.356361
 42
0.095519
  0
VERTEX
  8
0
 10
918.195131
 20
52.872717
 42
0.030656
  0
VERTEX
  8
0
 10
919.286561
 20
55.511990
 42
0.036768
  0
VERTEX
  8
0
 10
919.970462
 20
58.110796
 42
0.031267
  0
VERTEX
  8
0
 10
920.335276
 20
61.103329
 42
0.014700
  0
VERTEX
  8
0
 10
920.449863
 20
65.000000
 42
0.014700
  0
VERTEX
  8
0
 10
920.335276
 20
68.896671
 42
0.031267
  0
VERTEX
  8
0
 10
919.970462
 20
71.889204
 42
0.036768
  0
VERTEX
  8
0
 10
919.286561
 20
74.488010
 42
0.030656
  0
VERTEX
  8
0
 10
918.195131
 20
77.127283
 42
0.095519
  0
VERTEX
  8
0
 10
911.052372
 20
86.643639
 42
0.101614
  0
VERTEX
  8
0
 10
901.025738
 20
92.571524
 42
0.102081
  0
VERTEX
  8
0
 10
889.513255
 20
94.052577
 42
0.097280
  0
SEQEND
  0
POLYLINE
  8
0
 66
1
 70
1
  0
VERTEX
  8
0
 10
899.965540
 20
80.517820
 42
-0.044316
  0
VERTEX
  8
0
 10
901.288008
 20
79.677929
 42
-0.020314
  0
VERTEX
  8
0
 10
902.858608
 20
78.368340
 42
-0.019932
  0
VERTEX
  8
0
 10
904.411021
 20
76.846346
 42
-0.025963
  0
VERTEX
  8
0
 10
905.698307
 20
75.328894
 42
-0.031939
  0
VERTEX
  8
0
 10
907.193436
 20
73.084953
 42
-0.064844
  0
VERTEX
  8
0
 10
908.006791
 20
71.130650
 42
-0.051874
  0
VERTEX
  8
0
 10
908.391626
 20
68.764331
 42
-0.014392
  0
VERTEX
  8
0
 10
908.500000
 20
65.000000
 42
-0.014448
  0
VERTEX
  8
0
 10
908.390435
 20
61.209001
 42
-0.053002
  0
VERTEX
  8
0
 10
907.999653
 20
58.843061
 42
-0.065341
  0
VERTEX
  8
0
 10
907.166991
 20
56.874142
 42
-0.030262
  0
VERTEX
  8
0
 10
905.616088
 20
54.563311
 42
-0.060805
  0
VERTEX
  8
0
 10
902.794441
 20
51.671187
 42
-0.046739
  0
VERTEX
  8
0
 10
899.107882
 20
49.240767
 42
-0.047716
  0
VERTEX
  8
0
 10
895.143591
 20
47.592236
 42
-0.074822
  0
VERTEX
  8
0
 10
891.500000
 20
47.043924
 42
-0.088277
  0
VERTEX
  8
0
 10
886.651028
 20
47.906750
 42
-0.062327
  0
VERTEX
  8
0
 10
881.723211
 20
50.451510
 42
-0.062454
  0
VERTEX
  8
0
 10
877.585160
 20
54.124470
 42
-0.089727
  0
VERTEX
  8
0
 10
875.066612
 20
58.315100
 42
-0.149720
  0
VERTEX
  8
0
 10
874.372660
 20
68.985487
 42
-0.153767
  0
VERTEX
  8
0
 10
879.794318
 20
78.083050
 42
-0.153825
  0
VERTEX
  8
0
 10
889.449242
 20
82.429004
 42
-0.149845
  0
SEQEND
  0
POLYLINE
  8
0
 66
1
 70
1
  0
VERTEX
  8
0
 10
997.500000
 20
91.622402
 42
0.044994
  0
VERTEX
  8
0
 10
993.064010
 20
89.019651
 42
0.039646
  0
VERTEX
  8
0
 10
988.958946
 20
85.563488
 42
0.039646
  0
VERTEX
  8
0
 10
985.450781
 20
81.502626
 42
0.044988
  0
VERTEX
  8
0
 10
982.791592
 20
77.099856
 42
0.069326
  0
VERTEX
  8
0
 10
980.995708
 20
71.588394
 42
0.045452
  0
VERTEX
  8
0
 10
980.422999
 20
64.924041
 42
0.045308
  0
VERTEX
  8
0
 10
981.064994
 20
58.233976
 42
0.066866
  0
VERTEX
  8
0
 10
982.916702
 20
52.641700
 42
0.096777
  0
VERTEX
  8
0
 10
990.010380
 20
43.237288
 42
0.101475
  0
VERTEX
  8
0
 10
1000.013262
 20
37.385257
 42
0.101479
  0
VERTEX
  8
0
 10
1011.511711
 20
35.942512
 42
0.096793
  0
VERTEX
  8
0
 10
1022.862573
 20
39.089191
 42
0.142192
  0
VERTEX
  8
0
 10
1034.675676
 20
50.004184
 42
0.142554
  0
VERTEX
  8
0
 10
1038.794370
 20
65.536554
 42
0.141089
  0
VERTEX
  8
0
 10
1033.945636
 20
80.974497
 42
0.138467
  0
VERTEX
  8
0
 10
1021.602172
 20
91.604725
 42
0.060457
  0
VERTEX
  8
0
 10
1015.919867
 20
93.456369
 42
0.048415
  0
VERTEX
  8
0
 10
1009.509212
 20
94.083323
 42
0.048558
  0
VERTEX
  8
0
 10
1003.119482
 20
93.466036
 42
0.061912
  0
SEQEND
  0
POLYLINE
  8
0
 66
1
 70
1
  0
VERTEX
  8
0
 10
1016.500000
 20
81.109957
 42
-0.060174
  0
VERTEX
  8
0
 10
1021.089695
 20
78.279518
 42
-0.080264
  0
VERTEX
  8
0
 10
1024.378602
 20
74.661638
 42
-0.081253
  0
VERTEX
  8
0
 10
1026.334159
 20
70.228773
 42
-0.063415
  0
VERTEX
  8
0
 10
1027.000000
 20
65.000000
 42
-0.063415
  0
VERTEX
  8
0
 10
1026.334159
 20
59.771227
 42
-0.081253
  0
VERTEX
  8
0
 10
1024.378602
 20
55.338362
 42
-0.080264
  0
VERTEX
  8
0
 10
1021.089695
 20
51.720482
 42
-0.060174
  0
VERTEX
  8
0
 10
1016.500000
 20
48.890043
 42
-0.024390
  0
VERTEX
  8
0
 10
1014.748716
 20
48.183175
 42
-0.019252
  0
VERTEX
  8
0
 10
1012.793750
 20
47.586222
 42
-0.019642
  0
VERTEX
  8
0
 10
1010.931822
 20
47.172633
 42
-0.044855
  0
VERTEX
  8
0
 10
1009.500000
 20
47.043924
 42
-0.074822
  0
VERTEX
  8
0
 10
1005.856409
 20
47.592236
 42
-0.047716
  0
VERTEX
  8
0
 10
1001.892118
 20
49.240767
 42
-0.046739
  0
VERTEX
  8
0
 10
998.205559
 20
51.671187
 42
-0.060805
  0
VERTEX
  8
0
 10
995.383912
 20
54.563311
 42
-0.030262
  0
VERTEX
  8
0
 10
993.833009
 20
56.874142
 42
-0.065341
  0
VERTEX
  8
0
 10
993.000347
 20
58.843061
 42
-0.053002
  0
VERTEX
  8
0
 10
992.609565
 20
61.209001
 42
-0.014448
  0
VERTEX
  8
0
 10
992.500000
 20
65.000000
 42
-0.014448
  0
VERTEX
  8
0
 10
992.609565
 20
68.790999
 42
-0.053002
  0
VERTEX
  8
0
 10
993.000347
 20
71.156939
 42
-0.065341
  0
VERTEX
  8
0
 10
993.833009
 20
73.125858
 42
-0.030262
  0
VERTEX
  8
0
 10
995.383912
 20
75.436689
 42
-0.060805
  0
VERTEX
  8
0
 10
998.205559
 20
78.328813
 42
-0.046739
  0
VERTEX
  8
0
 10
1001.892118
 20
80.759233
 42
-0.047716
  0
VERTEX
  8
0
 10
1005.856409
 20
82.407764
 42
-0.074822
  0
VERTEX
  8
0
 10
1009.500000
 20
82.956076
 42
-0.044855
  0
VERTEX
  8
0
 10
1010.931822
 20
82.827367
 42
-0.019642
  0
VERTEX
  8
0
 10
1012.793750
 20
82.413778
 42
-0.019252
  0
VERTEX
  8
0
 10
1014.748716
 20
81.816825
 42
-0.024390
  0
SEQEND
  0
POLYLINE
  8
0
 66
1
 70
1
  0
VERTEX
  8
0
 10
1236.819723
 20
2927.420418
 42
0.072038
  0
VERTEX
  8
0
 10
1231.626497
 20
2924.960539
 42
0.044391
  0
VERTEX
  8
0
 10
1226.337459
 20
2920.727814
 42
0.044208
  0
VERTEX
  8
0
 10
1221.845503
 20
2915.593855
 42
0.068210
  0
VERTEX
  8
0
 10
1219.052133
 20
2910.409791
 42
0.063634
  0
VERTEX
  8
0
 10
1217.153962
 20
2902.336640
 42
0.071216
  0
VERTEX
  8
0
 10
1217.460127
 20
2894.359366
 42
0.071818
  0
VERTEX
  8
0
 10
1219.983718
 20
2886.843550
 42
0.066341
  0
VERTEX
  8
0
 10
1224.581039
 20
2880.121090
 42
0.132690
  0
VERTEX
  8
0
 10
1237.886499
 20
2871.505202
 42
0.142146
  0
VERTEX
  8
0
 10
1253.348510
 20
2871.065818
 42
0.140195
  0
VERTEX
  8
0
 10
1266.799422
 20
2878.993334
 42
0.127907
  0
VERTEX
  8
0
 10
1274.606026
 20
2893.107399
 42
0.014223
  0
VERTEX
  8
0
 10
1275.460810
 20
2896.888150
 42
0.048869
  0
VERTEX
  8
0
 10
1275.702343
 20
2899.389966
 42
0.047375
  0
VERTEX
  8
0
 10
1275.457441
 20
2901.930690
 42
0.012793
  0
VERTEX
  8
0
 10
1274.587936
 20
2905.886641
 42
0.056206
  0
VERTEX
  8
0
 10
1271.769873
 20
2913.506412
 42
0.069667
  0
VERTEX
  8
0
 10
1267.468917
 20
2919.717642
 42
0.071393
  0
VERTEX
  8
0
 10
1261.723655
 20
2924.396984
 42
0.063155
  0
VERTEX
  8
0
 10
1254.654853
 20
2927.509857
 42
0.033589
  0
VERTEX
  8
0
 10
1250.114122
 20
2928.532501
 42
0.039866
  0
VERTEX
  8
0
 10
1245.731672
 20
2928.860374
 42
0.039859
  0
VERTEX
  8
0
 10
1241.352041
 20
2928.488572
 42
0.033555
  0
SEQEND
  0
POLYLINE
  8
0
 66
1
 70
1
  0
VERTEX
  8
0
 10
1253.901216
 20
2915.551083
 42
-0.039135
  0
VERTEX
  8
0
 10
1255.193554
 20
2914.748967
 42
-0.016778
  0
VERTEX
  8
0
 10
1256.790422
 20
2913.490936
 42
-0.016481
  0
VERTEX
  8
0
 10
1258.410457
 20
2912.030078
 42
-0.020884
  0
VERTEX
  8
0
 10
1259.802232
 20
2910.572464
 42
-0.150865
  0
VERTEX
  8
0
 10
1263.717736
 20
2901.829502
 42
-0.142788
  0
VERTEX
  8
0
 10
1262.141130
 20
2892.186832
 42
-0.139867
  0
VERTEX
  8
0
 10
1255.580830
 20
2884.761998
 42
-0.143179
  0
VERTEX
  8
0
 10
1246.151129
 20
2882.001554
 42
-0.170595
  0
VERTEX
  8
0
 10
1235.289565
 20
2885.814131
 42
-0.166975
  0
VERTEX
  8
0
 10
1229.083490
 20
2895.617222
 42
-0.167776
  0
VERTEX
  8
0
 10
1230.226431
 20
2907.127945
 42
-0.172024
  0
VERTEX
  8
0
 10
1238.222648
 20
2915.339080
 42
-0.070650
  0
VERTEX
  8
0
 10
1241.748988
 20
2916.495475
 42
-0.040596
  0
VERTEX
  8
0
 10
1246.210281
 20
2916.919084
 42
-0.040810
  0
VERTEX
  8
0
 10
1250.604679
 20
2916.619568
 42
-0.082089
  0
SEQEND
  0
POLYLINE
  8
0
 66
1
 70
1
  0
VERTEX
  8
0
 10
3007.500000
 20
2927.293391
 42
0.072312
  0
VERTEX
  8
0
 10
3002.300395
 20
2924.632560
 42
0.041310
  0
VERTEX
  8
0
 10
2996.894175
 20
2920.079522
 42
0.041354
  0
VERTEX
  8
0
 10
2992.322525
 20
2914.713406
 42
0.073926
  0
VERTEX
  8
0
 10
2989.675896
 20
2909.571861
 42
0.088458
  0
VERTEX
  8
0
 10
2988.070464
 20
2899.045016
 42
0.090143
  0
VERTEX
  8
0
 10
2990.223304
 20
2888.686389
 42
0.090027
  0
VERTEX
  8
0
 10
2995.887420
 20
2879.737367
 42
0.087948
  0
VERTEX
  8
0
 10
3004.376651
 20
2873.263696
 42
0.065124
  0
VERTEX
  8
0
 10
3010.379920
 20
2871.099566
 42
0.054291
  0
VERTEX
  8
0
 10
3017.126643
 20
2870.371815
 42
0.053688
  0
VERTEX
  8
0
 10
3023.950385
 20
2871.113702
 42
0.060301
  0
VERTEX
  8
0
 10
3030.181603
 20
2873.290085
 42
0.064293
  0
VERTEX
  8
0
 10
3037.130923
 20
2877.891781
 42
0.076092
  0
VERTEX
  8
0
 10
3042.235731
 20
2883.883903
 42
0.075736
  0
VERTEX
  8
0
 10
3045.330816
 20
2891.153056
 42
0.062921
  0
VERTEX
  8
0
 10
3046.385382
 20
2899.500000
 42
0.038190
  0
VERTEX
  8
0
 10
3045.951077
 20
2905.177769
 42
0.050443
  0
VERTEX
  8
0
 10
3044.650667
 20
2910.197474
 42
0.051064
  0
VERTEX
  8
0
 10
3042.387516
 20
2914.807829
 42
0.040564
  0
VERTEX
  8
0
 10
3039.075947
 20
2919.260720
 42
0.084877
  0
VERTEX
  8
0
 10
3032.782170
 20
2924.359780
 42
0.065709
  0
VERTEX
  8
0
 10
3024.575926
 20
2927.640663
 42
0.065084
  0
VERTEX
  8
0
 10
3015.714569
 20
2928.701282
 42
0.079607
  0
SEQEND
  0
POLYLINE
  8
0
 66
1
 70
1
  0
VERTEX
  8
0
 10
3024.799660
 20
2915.589276
 42
-0.112221
  0
VERTEX
  8
0
 10
3031.431457
 20
2909.947233
 42
-0.121781
  0
VERTEX
  8
0
 10
3034.726623
 20
2902.153152
 42
-0.124586
  0
VERTEX
  8
0
 10
3033.975975
 20
2893.860858
 42
-0.120784
  0
VERTEX
  8
0
 10
3029.373161
 20
2886.813618
 42
-0.107429
  0
VERTEX
  8
0
 10
3022.965699
 20
2882.992129
 42
-0.103983
  0
VERTEX
  8
0
 10
3015.471659
 20
2882.114956
 42
-0.104868
  0
VERTEX
  8
0
 10
3008.309685
 20
2884.327860
 42
-0.111100
  0
VERTEX
  8
0
 10
3002.834215
 20
2889.227361
 42
-0.042420
  0
VERTEX
  8
0
 10
3001.644250
 20
2891.236250
 42
-0.057107
  0
VERTEX
  8
0
 10
3000.948042
 20
2893.230392
 42
-0.042363
  0
VERTEX
  8
0
 10
3000.600438
 20
2895.749304
 42
-0.013115
  0
VERTEX
  8
0
 10
3000.500000
 20
2899.577842
 42
-0.012621
  0
VERTEX
  8
0
 10
3000.601189
 20
2903.586040
 42
-0.049372
  0
VERTEX
  8
0
 10
3000.968739
 20
2906.032128
 42
-0.065776
  0
VERTEX
  8
0
 10
3001.748986
 20
2907.990318
 42
-0.035282
  0
VERTEX
  8
0
 10
3003.179627
 20
2910.168856
 42
-0.030996
  0
VERTEX
  8
0
 10
3004.447896
 20
2911.633770
 42
-0.021502
  0
VERTEX
  8
0
 10
3006.047473
 20
2913.130672
 42
-0.021756
  0
VERTEX
  8
0
 10
3007.714620
 20
2914.439978
 42
-0.041120
  0
VERTEX
  8
0
 10
3009.179627
 20
2915.318244
 42
-0.069977
  0
VERTEX
  8
0
 10
3012.709631
 20
2916.480727
 42
-0.040285
  0
VERTEX
  8
0
 10
3017.172941
 20
2916.918982
 42
-0.040520
  0
VERTEX
  8
0
 10
3021.554188
 20
2916.639757
 42
-0.084396
  0
SEQEND
  0
POLYLINE
  8
0
 66
1
 70
1
  0
VERTEX
  8
0
 10
1235.328895
 20
1981.968693
 42
0.070665
  0
VERTEX
  8
0
 10
1228.294347
 20
1977.955382
 42
0.071650
  0
VERTEX
  8
0
 10
1222.693337
 20
1972.158210
 42
0.071029
  0
VERTEX
  8
0
 10
1218.919520
 20
1964.967696
 42
0.067561
  0
VERTEX
  8
0
 10
1217.225368
 20
1956.883766
 42
0.073759
  0
VERTEX
  8
0
 10
1217.910058
 20
1947.842757
 42
0.077229
  0
VERTEX
  8
0
 10
1221.196070
 20
1939.543208
 42
0.078221
  0
VERTEX
  8
0
 10
1226.799193
 20
1932.716351
 42
0.078572
  0
VERTEX
  8
0
 10
1234.220569
 20
1927.953342
 42
0.058344
  0
VERTEX
  8
0
 10
1239.536972
 20
1926.325038
 42
0.037710
  0
VERTEX
  8
0
 10
1245.945730
 20
1925.647909
 42
0.038143
  0
VERTEX
  8
0
 10
1252.200095
 20
1925.938115
 42
0.074403
  0
VERTEX
  8
0
 10
1257.000000
 20
1927.272466
 42
0.066700
  0
VERTEX
  8
0
 10
1264.740077
 20
1932.048733
 42
0.075509
  0
VERTEX
  8
0
 10
1270.581243
 20
1938.523785
 42
0.076657
  0
VERTEX
  8
0
 10
1274.174142
 20
1946.353166
 42
0.071716
  0
VERTEX
  8
0
 10
1275.351618
 20
1955.085707
 42
0.065318
  0
VERTEX
  8
0
 10
1274.210824
 20
1963.204061
 42
0.074591
  0
VERTEX
  8
0
 10
1271.022518
 20
1970.363492
 42
0.073096
  0
VERTEX
  8
0
 10
1265.808914
 20
1976.382702
 42
0.059420
  0
VERTEX
  8
0
 10
1258.722196
 20
1981.151947
 42
0.066752
  0
VERTEX
  8
0
 10
1253.568709
 20
1982.976992
 42
0.043064
  0
VERTEX
  8
0
 10
1247.272253
 20
1983.742441
 42
0.042697
  0
VERTEX
  8
0
 10
1240.854877
 20
1983.418462
 42
0.060468
  0
SEQEND
  0
POLYLINE
  8
0
 66
1
 70
1
  0
VERTEX
  8
0
 10
1253.799660
 20
1970.589276
 42
-0.051707
  0
VERTEX
  8
0
 10
1256.519140
 20
1968.789048
 42
-0.034419
  0
VERTEX
  8
0
 10
1259.239039
 20
1966.220016
 42
-0.034754
  0
VERTEX
  8
0
 10
1261.530916
 20
1963.360358
 42
-0.061302
  0
VERTEX
  8
0
 10
1262.936382
 20
1960.684900
 42
-0.123355
  0
VERTEX
  8
0
 10
1263.810050
 20
1953.172414
 42
-0.106117
  0
VERTEX
  8
0
 10
1261.143352
 20
1945.660985
 42
-0.105758
  0
VERTEX
  8
0
 10
1255.618455
 20
1939.886528
 42
-0.121723
  0
VERTEX
  8
0
 10
1248.481881
 20
1937.245068
 42
-0.168480
  0
VERTEX
  8
0
 10
1236.857113
 20
1939.863931
 42
-0.174352
  0
VERTEX
  8
0
 10
1229.548869
 20
1949.085618
 42
-0.173365
  0
VERTEX
  8
0
 10
1229.766075
 20
1960.892147
 42
-0.166898
  0
VERTEX
  8
0
 10
1237.411303
 20
1970.109054
 42
-0.088108
  0
VERTEX
  8
0
 10
1240.823912
 20
1971.439865
 42
-0.041718
  0
VERTEX
  8
0
 10
1245.532479
 20
1971.972687
 42
-0.041705
  0
VERTEX
  8
0
 10
1250.275317
 20
1971.716000
 42
-0.086211
  0
SEQEND
  0
POLYLINE
  8
0
 66
1
 70
1
  0
VERTEX
  8
0
 10
3006.432344
 20
1982.007283
 42
0.081403
  0
VERTEX
  8
0
 10
2998.709729
 20
1977.375797
 42
0.077226
  0
VERTEX
  8
0
 10
2992.706145
 20
1970.447047
 42
0.077068
  0
VERTEX
  8
0
 10
2989.078970
 20
1962.009511
 42
0.080543
  0
VERTEX
  8
0
 10
2988.252940
 20
1953.000000
 42
0.088366
  0
VERTEX
  8
0
 10
2990.990569
 20
1942.077699
 42
0.099425
  0
VERTEX
  8
0
 10
2997.273933
 20
1933.277472
 42
0.099623
  0
VERTEX
  8
0
 10
3006.456287
 20
1927.597749
 42
0.089073
  0
VERTEX
  8
0
 10
3017.500000
 20
1925.614618
 42
0.143706
  0
VERTEX
  8
0
 10
3033.409102
 20
1930.283519
 42
0.147247
  0
VERTEX
  8
0
 10
3044.091345
 20
1942.774915
 42
0.145726
  0
VERTEX
  8
0
 10
3046.165903
 20
1959.194563
 42
0.140106
  0
VERTEX
  8
0
 10
3038.984364
 20
1974.365028
 42
0.085393
  0
VERTEX
  8
0
 10
3032.388677
 20
1979.697516
 42
0.069844
  0
VERTEX
  8
0
 10
3023.920865
 20
1982.982420
 42
0.069508
  0
VERTEX
  8
0
 10
3014.834027
 20
1983.818967
 42
0.082885
  0
SEQEND
  0
POLYLINE
  8
0
 66
1
 70
1
  0
VERTEX
  8
0
 10
3026.566094
 20
1969.514134
 42
-0.096021
  0
VERTEX
  8
0
 10
3031.106322
 20
1965.519607
 42
-0.086165
  0
VERTEX
  8
0
 10
3034.037232
 20
1959.969892
 42
-0.085494
  0
VERTEX
  8
0
 10
3034.940178
 20
1953.716887
 42
-0.092416
  0
VERTEX
  8
0
 10
3033.648956
 20
1947.702258
 42
-0.073736
  0
VERTEX
  8
0
 10
3031.675200
 20
1944.431719
 42
-0.045029
  0
VERTEX
  8
0
 10
3028.497415
 20
1941.220652
 42
-0.045360
  0
VERTEX
  8
0
 10
3024.851269
 20
1938.672552
 42
-0.083656
  0
VERTEX
  8
0
 10
3021.465500
 20
1937.427550
 42
-0.078223
  0
VERTEX
  8
0
 10
3015.538149
 20
1937.253723
 42
-0.073832
  0
VERTEX
  8
0
 10
3009.716583
 20
1938.891281
 42
-0.077098
  0
VERTEX
  8
0
 10
3004.841155
 20
1942.054204
 42
-0.099916
  0
VERTEX
  8
0
 10
3001.656287
 20
1946.311891
 42
-0.069809
  0
VERTEX
  8
0
 10
3000.317817
 20
1950.583143
 42
-0.049798
  0
VERTEX
  8
0
 10
2999.992989
 20
1955.591207
 42
-0.050863
  0
VERTEX
  8
0
 10
3000.653804
 20
1960.406479
 42
-0.088977
  0
VERTEX
  8
0
 10
3002.273797
 20
1964.078320
 42
-0.091077
  0
VERTEX
  8
0
 10
3007.116645
 20
1969.026445
 42
-0.098910
  0
VERTEX
  8
0
 10
3013.269152
 20
1971.754226
 42
-0.098513
  0
VERTEX
  8
0
 10
3020.017970
 20
1971.914533
 42
-0.089601
  0
SEQEND
  0
POLYLINE
  8
0
 66
1
 70
1
  0
VERTEX
  8
0
 10
1236.702676
 20
1037.557676
 42
0.058869
  0
VERTEX
  8
0
 10
1230.367443
 20
1034.416983
 42
0.057270
  0
VERTEX
  8
0
 10
1224.873349
 20
1029.861597
 42
0.058228
  0
VERTEX
  8
0
 10
1220.633863
 20
1024.259262
 42
0.065216
  0
VERTEX
  8
0
 10
1217.993084
 20
1018.034520
 42
0.113722
  0
VERTEX
  8
0
 10
1217.395709
 20
1004.621375
 42
0.115021
  0
VERTEX
  8
0
 10
1222.738729
 20
992.361651
 42
0.115890
  0
VERTEX
  8
0
 10
1232.910866
 20
983.793550
 42
0.116760
  0
VERTEX
  8
0
 10
1245.805827
 20
980.681694
 42
0.151949
  0
VERTEX
  8
0
 10
1262.556559
 20
985.813106
 42
0.152846
  0
VERTEX
  8
0
 10
1273.393387
 20
999.531029
 42
0.153197
  0
VERTEX
  8
0
 10
1274.461434
 20
1016.953985
 42
0.152722
  0
VERTEX
  8
0
 10
1265.388379
 20
1031.889337
 42
0.025947
  0
VERTEX
  8
0
 10
1263.328283
 20
1033.521139
 42
0.018150
  0
VERTEX
  8
0
 10
1260.852826
 20
1035.149098
 42
0.018364
  0
VERTEX
  8
0
 10
1258.359924
 20
1036.539298
 42
0.035912
  0
VERTEX
  8
0
 10
1256.266391
 20
1037.424898
 42
0.047977
  0
VERTEX
  8
0
 10
1251.677915
 20
1038.511447
 42
0.032474
  0
VERTEX
  8
0
 10
1246.313612
 20
1038.896790
 42
0.032740
  0
VERTEX
  8
0
 10
1241.030538
 20
1038.586474
 42
0.054682
  0
SEQEND
  0
POLYLINE
  8
0
 66
1
 70
1
  0
VERTEX
  8
0
 10
1254.839238
 20
1025.260887
 42
-0.049404
  0
VERTEX
  8
0
 10
1256.298497
 20
1024.387998
 42
-0.025958
  0
VERTEX
  8
0
 10
1257.930871
 20
1023.041544
 42
-0.025554
  0
VERTEX
  8
0
 10
1259.474874
 20
1021.474799
 42
-0.035612
  0
VERTEX
  8
0
 10
1260.674803
 20
1019.915219
 42
-0.103600
  0
VERTEX
  8
0
 10
1263.541685
 20
1012.698540
 42
-0.109923
  0
VERTEX
  8
0
 10
1263.182056
 20
1005.099517
 42
-0.111451
  0
VERTEX
  8
0
 10
1259.649864
 20
998.449240
 42
-0.108989
  0
VERTEX
  8
0
 10
1253.578599
 20
993.896331
 42
-0.046956
  0
VERTEX
  8
0
 10
1249.661057
 20
992.543617
 42
-0.062846
  0
VERTEX
  8
0
 10
1245.929084
 20
992.119695
 42
-0.062828
  0
VERTEX
  8
0
 10
1242.207956
 20
992.636161
 42
-0.046894
  0
VERTEX
  8
0
 10
1238.322704
 20
994.085828
 42
-0.116042
  0
VERTEX
  8
0
 10
1232.041608
 20
999.184770
 42
-0.120020
  0
VERTEX
  8
0
 10
1228.788975
 20
1006.488725
 42
-0.119104
  0
VERTEX
  8
0
 10
1229.247217
 20
1014.515348
 42
-0.113096
  0
VERTEX
  8
0
 10
1233.310181
 20
1021.622100
 42
-0.075442
  0
VERTEX
  8
0
 10
1237.917129
 20
1025.314207
 42
-0.089632
  0
VERTEX
  8
0
 10
1243.153334
 20
1027.203183
 42
-0.086676
  0
VERTEX
  8
0
 10
1248.860674
 20
1027.171874
 42
-0.065579
  0
SEQEND
  0
POLYLINE
  8
0
 66
1
 70
1
  0
VERTEX
  8
0
 10
3007.697990
 20
1037.556065
 42
0.147674
  0
VERTEX
  8
0
 10
2994.026687
 20
1027.465012
 42
0.147307
  0
VERTEX
  8
0
 10
2988.207641
 20
1011.484108
 42
0.147382
  0
VERTEX
  8
0
 10
2992.182311
 20
994.953624
 42
0.147853
  0
VERTEX
  8
0
 10
3004.624223
 20
983.395422
 42
0.103328
  0
VERTEX
  8
0
 10
3015.648065
 20
980.591271
 42
0.098727
  0
VERTEX
  8
0
 10
3027.067018
 20
982.359764
 42
0.097100
  0
VERTEX
  8
0
 10
3037.083611
 20
988.419455
 42
0.096342
  0
VERTEX
  8
0
 10
3044.103701
 20
997.827533
 42
0.066091
  0
VERTEX
  8
0
 10
3045.867982
 20
1003.205951
 42
0.046875
  0
VERTEX
  8
0
 10
3046.447661
 20
1009.537507
 42
0.046081
  0
VERTEX
  8
0
 10
3045.835174
 20
1016.001094
 42
0.056859
  0
VERTEX
  8
0
 10
3044.046658
 20
1021.779431
 42
0.059485
  0
VERTEX
  8
0
 10
3041.224310
 20
1026.567899
 42
0.042030
  0
VERTEX
  8
0
 10
3037.031150
 20
1031.202519
 42
0.042279
  0
VERTEX
  8
0
 10
3032.162837
 20
1035.034540
 42
0.063571
  0
VERTEX
  8
0
 10
3027.316063
 20
1037.407973
 42
0.047631
  0
VERTEX
  8
0
 10
3022.700616
 20
1038.504268
 42
0.032628
  0
VERTEX
  8
0
 10
3017.326268
 20
1038.896114
 42
0.032921
  0
VERTEX
  8
0
 10
3012.038013
 20
1038.587625
 42
0.054689
  0
SEQEND
  0
POLYLINE
  8
0
 66
1
 70
1
  0
VERTEX
  8
0
 10
3021.500000
 20
1026.896221
 42
-0.117963
  0
VERTEX
  8
0
 10
3029.131692
 20
1022.712208
 42
-0.122195
  0
VERTEX
  8
0
 10
3033.923656
 20
1015.575015
 42
-0.124853
  0
VERTEX
  8
0
 10
3034.766063
 20
1007.151225
 42
-0.126380
  0
VERTEX
  8
0
 10
3031.482024
 20
999.387545
 42
-0.152605
  0
VERTEX
  8
0
 10
3022.566395
 20
993.072012
 42
-0.160545
  0
VERTEX
  8
0
 10
3011.839741
 20
993.124873
 42
-0.160980
  0
VERTEX
  8
0
 10
3003.267006
 20
999.541332
 42
-0.153451
  0
VERTEX
  8
0
 10
3000.000000
 20
1009.935814
 42
-0.067124
  0
VERTEX
  8
0
 10
3000.757888
 20
1015.555848
 42
-0.086187
  0
VERTEX
  8
0
 10
3002.976343
 20
1020.267633
 42
-0.086441
  0
VERTEX
  8
0
 10
3006.647363
 20
1023.945674
 42
-0.067955
  0
VERTEX
  8
0
 10
3011.655189
 20
1026.541351
 42
-0.012022
  0
VERTEX
  8
0
 10
3014.760905
 20
1027.565225
 42
-0.064685
  0
VERTEX
  8
0
 10
3016.512551
 20
1027.857296
 42
-0.064085
  0
VERTEX
  8
0
 10
3018.287733
 20
1027.693580
 42
-0.011673
  0
SEQEND
  0
POLYLINE
  8
0
 66
1
 70
1
  0
VERTEX
  8
0
 10
1233.199788
 20
90.941972
 42
0.057849
  0
VERTEX
  8
0
 10
1226.517596
 20
86.573724
 42
0.075584
  0
VERTEX
  8
0
 10
1221.680628
 20
81.118092
 42
0.074182
  0
VERTEX
  8
0
 10
1218.622981
 20
74.387000
 42
0.053323
  0
VERTEX
  8
0
 10
1217.209741
 20
66.239631
 42
0.014244
  0
VERTEX
  8
0
 10
1217.049703
 20
61.883187
 42
0.050722
  0
VERTEX
  8
0
 10
1217.308983
 20
59.106981
 42
0.051142
  0
VERTEX
  8
0
 10
1218.120774
 20
56.451459
 42
0.014650
  0
VERTEX
  8
0
 10
1219.909826
 20
52.531605
 42
0.060206
  0
VERTEX
  8
0
 10
1224.689976
 20
45.199363
 42
0.081167
  0
VERTEX
  8
0
 10
1230.682475
 20
40.040138
 42
0.080291
  0
VERTEX
  8
0
 10
1238.058518
 20
37.020254
 42
0.057525
  0
VERTEX
  8
0
 10
1246.928139
 20
36.009769
 42
0.154672
  0
VERTEX
  8
0
 10
1263.038066
 20
41.141776
 42
0.150207
  0
VERTEX
  8
0
 10
1273.478108
 20
54.668815
 42
0.149239
  0
VERTEX
  8
0
 10
1274.555487
 20
71.795193
 42
0.152419
  0
VERTEX
  8
0
 10
1265.858397
 20
86.437404
 42
0.071894
  0
VERTEX
  8
0
 10
1258.486008
 20
91.360504
 42
0.077194
  0
VERTEX
  8
0
 10
1250.196775
 20
93.844474
 42
0.077432
  0
VERTEX
  8
0
 10
1241.566410
 20
93.693508
 42
0.072971
  0
SEQEND
  0
POLYLINE
  8
0
 66
1
 70
1
  0
VERTEX
  8
0
 10
1256.095652
 20
79.555398
 42
-0.043819
  0
VERTEX
  8
0
 10
1257.673783
 20
78.299491
 42
-0.026665
  0
VERTEX
  8
0
 10
1259.313036
 20
76.566857
 42
-0.026377
  0
VERTEX
  8
0
 10
1260.790000
 20
74.630656
 42
-0.037035
  0
VERTEX
  8
0
 10
1261.878851
 20
72.750259
 42
-0.131790
  0
VERTEX
  8
0
 10
1263.701599
 20
63.209371
 42
-0.141821
  0
VERTEX
  8
0
 10
1260.411629
 20
54.336118
 42
-0.141463
  0
VERTEX
  8
0
 10
1252.881766
 20
48.577214
 42
-0.130915
  0
VERTEX
  8
0
 10
1243.198142
 20
47.492996
 42
-0.117163
  0
VERTEX
  8
0
 10
1236.849185
 20
50.044411
 42
-0.092907
  0
VERTEX
  8
0
 10
1231.686452
 20
55.367148
 42
-0.093298
  0
VERTEX
  8
0
 10
1228.817280
 20
62.176138
 42
-0.119508
  0
VERTEX
  8
0
 10
1228.987757
 20
68.954531
 42
-0.115317
  0
VERTEX
  8
0
 10
1233.022037
 20
76.469932
 42
-0.119500
  0
VERTEX
  8
0
 10
1239.923832
 20
81.300405
 42
-0.120835
  0
VERTEX
  8
0
 10
1248.208005
 20
82.402624
 42
-0.119660
  0
SEQEND
  0
POLYLINE
  8
0
 66
1
 70
1
  0
VERTEX
  8
0
 10
1351.290066
 20
91.024350
 42
0.030827
  0
VERTEX
  8
0
 10
1346.835166
 20
88.415117
 42
0.046959
  0
VERTEX
  8
0
 10
1343.366843
 20
85.579751
 42
0.046423
  0
VERTEX
  8
0
 10
1340.461045
 20
82.121768
 42
0.029284
  0
VERTEX
  8
0
 10
1337.714200
 20
77.616470
 42
0.036721
  0
VERTEX
  8
0
 10
1336.616900
 20
75.129685
 42
0.042591
  0
VERTEX
  8
0
 10
1335.959487
 20
72.628398
 42
0.032010
  0
VERTEX
  8
0
 10
1335.623298
 20
69.524386
 42
0.010973
  0
VERTEX
  8
0
 10
1335.523997
 20
65.000000
 42
0.010973
  0
VERTEX
  8
0
 10
1335.623298
 20
60.475614
 42
0.032010
  0
VERTEX
  8
0
 10
1335.959487
 20
57.371602
 42
0.042591
  0
VERTEX
  8
0
 10
1336.616900
 20
54.870315
 42
0.036721
  0
VERTEX
  8
0
 10
1337.714200
 20
52.383530
 42
0.029189
  0
VERTEX
  8
0
 10
1340.457935
 20
47.881417
 42
0.046454
  0
VERTEX
  8
0
 10
1343.356376
 20
44.429973
 42
0.047324
  0
VERTEX
  8
0
 10
1346.800901
 20
41.616784
 42
0.031725
  0
VERTEX
  8
0
 10
1351.199788
 20
39.058028
 42
0.125303
  0
VERTEX
  8
0
 10
1365.658024
 20
35.914257
 42
0.129803
  0
VERTEX
  8
0
 10
1379.647006
 20
40.140053
 42
0.130086
  0
VERTEX
  8
0
 10
1389.704986
 20
50.710708
 42
0.126120
  0
VERTEX
  8
0
 10
1393.367586
 20
65.000000
 42
0.045405
  0
VERTEX
  8
0
 10
1392.849098
 20
70.697824
 42
0.050145
  0
VERTEX
  8
0
 10
1391.310804
 20
76.013346
 42
0.050301
  0
VERTEX
  8
0
 10
1388.750506
 20
80.902255
 42
0.046199
  0
VERTEX
  8
0
 10
1385.200650
 20
85.334734
 42
0.039235
  0
VERTEX
  8
0
 10
1380.930544
 20
89.116029
 42
0.060679
  0
VERTEX
  8
0
 10
1376.672363
 20
91.583147
 42
0.057311
  0
VERTEX
  8
0
 10
1371.768638
 20
93.043364
 42
0.030947
  0
VERTEX
  8
0
 10
1365.500000
 20
93.755037
 42
0.011629
  0
VERTEX
  8
0
 10
1360.667011
 20
93.889981
 42
0.048666
  0
VERTEX
  8
0
 10
1357.774010
 20
93.621328
 42
0.053567
  0
VERTEX
  8
0
 10
1355.122478
 20
92.810157
 42
0.016073
  0
SEQEND
  0
POLYLINE
  8
0
 66
1
 70
1
  0
VERTEX
  8
0
 10
1370.316196
 20
81.551188
 42
-0.039584
  0
VERTEX
  8
0
 10
1373.668528
 20
80.047256
 42
-0.061253
  0
VERTEX
  8
0
 10
1376.242251
 20
78.197439
 42
-0.060702
  0
VERTEX
  8
0
 10
1378.306885
 20
75.766028
 42
-0.038085
  0
VERTEX
  8
0
 10
1380.119269
 20
72.500000
 42
-0.053769
  0
VERTEX
  8
0
 10
1381.484628
 20
68.421540
 42
-0.060251
  0
VERTEX
  8
0
 10
1381.878297
 20
64.301286
 42
-0.061682
  0
VERTEX
  8
0
 10
1381.278914
 20
60.289467
 42
-0.061030
  0
VERTEX
  8
0
 10
1379.718322
 20
56.529571
 42
-0.103906
  0
VERTEX
  8
0
 10
1374.497716
 20
50.606001
 42
-0.115629
  0
VERTEX
  8
0
 10
1367.523544
 20
47.565775
 42
-0.115980
  0
VERTEX
  8
0
 10
1359.941670
 20
47.945758
 42
-0.105009
  0
VERTEX
  8
0
 10
1353.009149
 20
51.645755
 42
-0.046909
  0
VERTEX
  8
0
 10
1350.243891
 20
54.454809
 42
-0.065332
  0
VERTEX
  8
0
 10
1348.391982
 20
57.452998
 42
-0.063734
  0
VERTEX
  8
0
 10
1347.346948
 20
60.885439
 42
-0.042086
  0
VERTEX
  8
0
 10
1347.000000
 20
65.000000
 42
-0.064095
  0
VERTEX
  8
0
 10
1347.695059
 20
70.399803
 42
-0.083917
  0
VERTEX
  8
0
 10
1349.736247
 20
74.928292
 42
-0.082685
  0
VERTEX
  8
0
 10
1353.180684
 20
78.582118
 42
-0.060251
  0
VERTEX
  8
0
 10
1358.007140
 20
81.407017
 42
-0.039635
  0
VERTEX
  8
0
 10
1361.103489
 20
82.467426
 42
-0.059824
  0
VERTEX
  8
0
 10
1363.926595
 20
82.840008
 42
-0.056801
  0
VERTEX
  8
0
 10
1366.862829
 20
82.540160
 42
-0.031845
  0
SEQEND
  0
POLYLINE
  8
0
 66
1
 70
1
  0
VERTEX
  8
0
 10
2886.199788
 20
90.941972
 42
0.057849
  0
VERTEX
  8
0
 10
2879.517596
 20
86.573724
 42
0.075584
  0
VERTEX
  8
0
 10
2874.680628
 20
81.118092
 42
0.074182
  0
VERTEX
  8
0
 10
2871.622981
 20
74.387000
 42
0.053323
  0
VERTEX
  8
0
 10
2870.209741
 20
66.239631
 42
0.014244
  0
VERTEX
  8
0
 10
2870.049703
 20
61.883187
 42
0.050722
  0
VERTEX
  8
0
 10
2870.308983
 20
59.106981
 42
0.051142
  0
VERTEX
  8
0
 10
2871.120774
 20
56.451459
 42
0.014650
  0
VERTEX
  8
0
 10
2872.909826
 20
52.531605
 42
0.060206
  0
VERTEX
  8
0
 10
2877.689976
 20
45.199363
 42
0.081167
  0
VERTEX
  8
0
 10
2883.682475
 20
40.040138
 42
0.080291
  0
VERTEX
  8
0
 10
2891.058518
 20
37.020254
 42
0.057525
  0
VERTEX
  8
0
 10
2899.928139
 20
36.009769
 42
0.154672
  0
VERTEX
  8
0
 10
2916.038066
 20
41.141776
 42
0.150207
  0
VERTEX
  8
0
 10
2926.478108
 20
54.668815
 42
0.149239
  0
VERTEX
  8
0
 10
2927.555487
 20
71.795193
 42
0.152419
  0
VERTEX
  8
0
 10
2918.858397
 20
86.437404
 42
0.071894
  0
VERTEX
  8
0
 10
2911.486008
 20
91.360504
 42
0.077194
  0
VERTEX
  8
0
 10
2903.196775
 20
93.844474
 42
0.077432
  0
VERTEX
  8
0
 10
2894.566410
 20
93.693508
 42
0.072971
  0
SEQEND
  0
POLYLINE
  8
0
 66
1
 70
1
  0
VERTEX
  8
0
 10
2909.295304
 20
79.423275
 42
-0.147022
  0
VERTEX
  8
0
 10
2915.410143
 20
72.078027
 42
-0.140354
  0
VERTEX
  8
0
 10
2916.606230
 20
62.434539
 42
-0.137247
  0
VERTEX
  8
0
 10
2912.508683
 20
53.459247
 42
-0.138617
  0
VERTEX
  8
0
 10
2904.362533
 20
47.954632
 42
-0.069237
  0
VERTEX
  8
0
 10
2899.856080
 20
47.132170
 42
-0.074169
  0
VERTEX
  8
0
 10
2895.405893
 20
47.604766
 42
-0.072215
  0
VERTEX
  8
0
 10
2891.190691
 20
49.377228
 42
-0.060868
  0
VERTEX
  8
0
 10
2887.374360
 20
52.362482
 42
-0.077204
  0
VERTEX
  8
0
 10
2883.229599
 20
58.031694
 42
-0.102413
  0
VERTEX
  8
0
 10
2881.510724
 20
64.168887
 42
-0.105731
  0
VERTEX
  8
0
 10
2882.390516
 20
70.335463
 42
-0.086996
  0
VERTEX
  8
0
 10
2885.734930
 20
76.096830
 42
-0.087653
  0
VERTEX
  8
0
 10
2890.784907
 20
80.319652
 42
-0.095618
  0
VERTEX
  8
0
 10
2896.827676
 20
82.395643
 42
-0.095294
  0
VERTEX
  8
0
 10
2903.225816
 20
82.077052
 42
-0.086423
  0
SEQEND
  0
POLYLINE
  8
0
 66
1
 70
1
  0
VERTEX
  8
0
 10
3004.290066
 20
91.024350
 42
0.030827
  0
VERTEX
  8
0
 10
2999.835166
 20
88.415117
 42
0.046959
  0
VERTEX
  8
0
 10
2996.366843
 20
85.579751
 42
0.046423
  0
VERTEX
  8
0
 10
2993.461045
 20
82.121768
 42
0.029284
  0
VERTEX
  8
0
 10
2990.714200
 20
77.616470
 42
0.036721
  0
VERTEX
  8
0
 10
2989.616900
 20
75.129685
 42
0.042591
  0
VERTEX
  8
0
 10
2988.959487
 20
72.628398
 42
0.032010
  0
VERTEX
  8
0
 10
2988.623298
 20
69.524386
 42
0.010973
  0
VERTEX
  8
0
 10
2988.523997
 20
65.000000
 42
0.010973
  0
VERTEX
  8
0
 10
2988.623298
 20
60.475614
 42
0.032010
  0
VERTEX
  8
0
 10
2988.959487
 20
57.371602
 42
0.042591
  0
VERTEX
  8
0
 10
2989.616900
 20
54.870315
 42
0.036721
  0
VERTEX
  8
0
 10
2990.714200
 20
52.383530
 42
0.029189
  0
VERTEX
  8
0
 10
2993.457935
 20
47.881417
 42
0.046454
  0
VERTEX
  8
0
 10
2996.356376
 20
44.429973
 42
0.047324
  0
VERTEX
  8
0
 10
2999.800901
 20
41.616784
 42
0.031725
  0
VERTEX
  8
0
 10
3004.199788
 20
39.058028
 42
0.076748
  0
VERTEX
  8
0
 10
3013.082787
 20
36.210432
 42
0.080037
  0
VERTEX
  8
0
 10
3022.278729
 20
36.235376
 42
0.080887
  0
VERTEX
  8
0
 10
3030.920856
 20
39.136453
 42
0.080778
  0
VERTEX
  8
0
 10
3038.200650
 20
44.630468
 42
0.094379
  0
VERTEX
  8
0
 10
3044.321222
 20
54.077378
 42
0.096975
  0
VERTEX
  8
0
 10
3046.463972
 20
65.021452
 42
0.097198
  0
VERTEX
  8
0
 10
3044.320225
 20
75.944993
 42
0.095295
  0
VERTEX
  8
0
 10
3038.200650
 20
85.334734
 42
0.039235
  0
VERTEX
  8
0
 10
3033.930544
 20
89.116029
 42
0.060679
  0
VERTEX
  8
0
 10
3029.672363
 20
91.583147
 42
0.057311
  0
VERTEX
  8
0
 10
3024.768638
 20
93.043364
 42
0.030947
  0
VERTEX
  8
0
 10
3018.500000
 20
93.755037
 42
0.011629
  0
VERTEX
  8
0
 10
3013.667011
 20
93.889981
 42
0.048666
  0
VERTEX
  8
0
 10
3010.774010
 20
93.621328
 42
0.053567
  0
VERTEX
  8
0
 10
3008.122478
 20
92.810157
 42
0.016073
  0
SEQEND
  0
POLYLINE
  8
0
 66
1
 70
1
  0
VERTEX
  8
0
 10
3023.316196
 20
81.551188
 42
-0.168785
  0
VERTEX
  8
0
 10
3032.069026
 20
74.516432
 42
-0.163354
  0
VERTEX
  8
0
 10
3034.721117
 20
63.465363
 42
-0.161643
  0
VERTEX
  8
0
 10
3030.172711
 20
52.966782
 42
-0.165488
  0
VERTEX
  8
0
 10
3020.291786
 20
47.394961
 42
-0.096212
  0
VERTEX
  8
0
 10
3015.093658
 20
47.428170
 42
-0.069220
  0
VERTEX
  8
0
 10
3009.601417
 20
49.349018
 42
-0.068186
  0
VERTEX
  8
0
 10
3004.759943
 20
52.738743
 42
-0.086858
  0
VERTEX
  8
0
 10
3001.464083
 20
57.069456
 42
-0.082566
  0
VERTEX
  8
0
 10
3000.399527
 20
60.364514
 42
-0.036009
  0
VERTEX
  8
0
 10
3000.050620
 20
64.962060
 42
-0.035984
  0
VERTEX
  8
0
 10
3000.363822
 20
69.548642
 42
-0.085114
  0
VERTEX
  8
0
 10
3001.404986
 20
72.799660
 42
-0.048065
  0
VERTEX
  8
0
 10
3003.102756
 20
75.414839
 42
-0.042051
  0
VERTEX
  8
0
 10
3005.339731
 20
77.787738
 42
-0.040854
  0
VERTEX
  8
0
 10
3008.012717
 20
79.816212
 42
-0.039600
  0
VERTEX
  8
0
 10
3011.007140
 20
81.407017
 42
-0.039635
  0
VERTEX
  8
0
 10
3014.103489
 20
82.467426
 42
-0.059824
  0
VERTEX
  8
0
 10
3016.926595
 20
82.840008
 42
-0.056801
  0
VERTEX
  8
0
 10
3019.862829
 20
82.540160
 42
-0.031845
  0
SEQEND
  0
ENDSEC
  0
EOF
