999
"DXF R12 Output" (www.mydxf.blogspot.com)
 0 
SECTION
 2 
HEADER
 9 
$ACADVER
 1 
AC1009
 9 
$EXTMIN
 10 
 0 
 20 
 0 
 9 
$EXTMAX
 10 
 8.5 
 20 
 11 
 0 
ENDSEC
 0 
SECTION
 2 
ENTITIES
0
LINE
8
Layer 1
10
0.793749
20
297.794000
11
-0.793749
21
296.206000
0
LINE
8
Layer 1
10
0.000000
20
298.323000
11
0.000000
21
295.677000
0
LINE
8
Layer 1
10
2.116660
20
295.942000
11
1.058330
21
294.883670
0
LINE
8
Layer 1
10
1.587500
20
296.471000
11
0.529170
21
295.412670
0
LINE
8
Layer 1
10
1.058330
20
297.000000
11
0.000000
21
295.941670
0
LINE
8
Calque_1
10
60.504900
20
756.795000
11
60.624347
21
758.796545
0
LINE
8
Calque_1
10
60.624347
20
758.796545
11
61.134319
21
760.896040
0
LINE
8
Calque_1
10
61.134300
20
760.896000
11
61.604485
21
761.945782
0
LINE
8
Calque_1
10
61.604485
20
761.945782
11
62.025720
21
762.678840
0
LINE
8
Calque_1
10
62.025700
20
762.679000
11
62.716051
21
763.891507
0
LINE
8
Calque_1
10
62.716051
20
763.891507
11
63.726370
21
765.284530
0
LINE
8
Calque_1
10
63.726400
20
765.285000
11
64.489137
21
766.049804
0
LINE
8
Calque_1
10
64.489100
20
766.049000
11
64.840501
21
766.438651
0
LINE
8
Calque_1
10
64.840500
20
766.439000
11
65.522108
21
767.158322
0
LINE
8
Calque_1
10
65.522100
20
767.158000
11
68.010330
21
769.286040
0
LINE
8
Calque_1
10
68.010400
20
769.286000
11
69.708276
21
770.634547
0
LINE
8
Calque_1
10
69.708276
20
770.634547
11
71.709910
21
771.932330
0
LINE
8
Calque_1
10
71.709900
20
771.933000
11
74.609361
21
773.194023
0
LINE
8
Calque_1
10
74.609361
20
773.194023
11
77.629430
21
773.932880
0
LINE
8
Calque_1
10
77.629400
20
773.933000
11
78.611770
21
774.121621
0
LINE
8
Calque_1
10
78.611800
20
774.121000
11
79.535769
21
774.170609
0
LINE
8
Calque_1
10
79.537700
20
774.171000
11
80.758290
21
774.354965
0
LINE
8
Calque_1
10
80.758300
20
774.355000
11
81.798030
21
774.386988
0
LINE
8
Calque_1
10
79.535800
20
774.171000
11
79.537900
21
774.171000
0
LINE
8
Calque_1
10
81.800100
20
774.387000
11
82.520467
21
774.316224
0
LINE
8
Calque_1
10
82.520400
20
774.316000
11
83.966820
21
774.430194
0
LINE
8
Calque_1
10
81.798100
20
774.387000
11
81.800200
21
774.387000
0
LINE
8
Calque_1
10
83.967400
20
774.426000
11
84.390630
21
774.426000
0
LINE
8
Calque_1
10
84.390600
20
774.426000
11
86.616300
21
774.199649
0
LINE
8
Calque_1
10
86.616300
20
774.200000
11
87.464395
21
773.965854
0
LINE
8
Calque_1
10
87.464395
20
773.965854
11
87.914420
21
773.757644
0
LINE
8
Calque_1
10
87.914400
20
773.758000
11
89.121110
21
773.098634
0
LINE
8
Calque_1
10
89.121110
20
773.098634
11
90.134059
21
772.360179
0
LINE
8
Calque_1
10
90.134059
20
772.360179
11
91.837140
21
770.724610
0
LINE
8
Calque_1
10
91.837200
20
770.724000
11
93.868299
21
768.513955
0
LINE
8
Calque_1
10
93.868299
20
768.513955
11
95.808010
21
765.962540
0
LINE
8
Calque_1
10
95.808000
20
765.963000
11
97.052436
21
763.723827
0
LINE
8
Calque_1
10
97.052436
20
763.723827
11
97.965729
21
761.316340
0
LINE
8
Calque_1
10
97.965729
20
761.316340
11
98.501665
21
758.780266
0
LINE
8
Calque_1
10
98.501665
20
758.780266
11
98.614030
21
756.155330
0
LINE
8
Calque_1
10
98.614000
20
756.155000
11
98.335113
21
754.319141
0
LINE
8
Calque_1
10
98.335113
20
754.319141
11
97.771262
21
752.724736
0
LINE
8
Calque_1
10
97.771262
20
752.724736
11
96.406380
21
750.159500
0
LINE
8
Calque_1
10
96.406400
20
750.160000
11
95.340842
21
748.101286
0
LINE
8
Calque_1
10
95.340842
20
748.101286
11
94.647124
21
746.941365
0
LINE
8
Calque_1
10
94.647124
20
746.941365
11
93.756950
21
745.761330
0
LINE
8
Calque_1
10
93.756900
20
745.761000
11
92.435532
21
744.449020
0
LINE
8
Calque_1
10
92.435532
20
744.449020
11
91.347750
21
743.521330
0
LINE
8
Calque_1
10
91.347800
20
743.521000
11
89.839188
21
742.277325
0
LINE
8
Calque_1
10
89.839188
20
742.277325
11
88.155240
21
741.087050
0
LINE
8
Calque_1
10
88.155200
20
741.087000
11
86.101580
21
739.981650
0
LINE
8
Calque_1
10
86.101600
20
739.982000
11
84.264205
21
739.111991
0
LINE
8
Calque_1
10
84.264205
20
739.111991
11
82.148350
21
738.400690
0
LINE
8
Calque_1
10
82.148400
20
738.401000
11
80.483495
21
738.150063
0
LINE
8
Calque_1
10
80.483495
20
738.150063
11
79.042660
21
738.112128
0
LINE
8
Calque_1
10
79.042600
20
738.112000
11
76.184821
21
738.264423
0
LINE
8
Calque_1
10
76.184821
20
738.264423
11
73.394370
21
738.804969
0
LINE
8
Calque_1
10
73.394400
20
738.805000
11
72.206880
21
739.176554
0
LINE
8
Calque_1
10
72.206900
20
739.176000
11
70.643170
21
739.566154
0
LINE
8
Calque_1
10
70.643100
20
739.566000
11
69.287590
21
740.099198
0
LINE
8
Calque_1
10
69.287590
20
740.099198
11
68.240660
21
740.654840
0
LINE
8
Calque_1
10
68.240700
20
740.655000
11
65.883641
21
742.187820
0
LINE
8
Calque_1
10
65.883641
20
742.187820
11
64.754430
21
743.170354
0
LINE
8
Calque_1
10
64.754430
20
743.170354
11
63.720570
21
744.332280
0
LINE
8
Calque_1
10
63.720600
20
744.332000
11
62.937684
21
745.527500
0
LINE
8
Calque_1
10
62.937684
20
745.527500
11
62.365449
21
746.717363
0
LINE
8
Calque_1
10
62.365449
20
746.717363
11
61.596190
21
748.876420
0
LINE
8
Calque_1
10
61.596200
20
748.877000
11
60.980732
21
751.053620
0
LINE
8
Calque_1
10
60.980700
20
751.054000
11
60.809650
21
752.289050
0
LINE
8
Calque_1
10
60.809600
20
752.289000
11
60.575113
21
754.550570
0
LINE
8
Calque_1
10
60.575113
20
754.550570
11
60.504710
21
756.795190
0
LINE
8
Calque_1
10
83.966900
20
774.430000
11
83.967429
21
774.426031
0
LINE
8
Calque_1
10
198.859000
20
760.570000
11
198.894100
21
761.305858
0
LINE
8
Calque_1
10
198.894000
20
761.306000
11
199.103137
21
762.936940
0
LINE
8
Calque_1
10
199.103137
20
762.936940
11
199.409730
21
764.323380
0
LINE
8
Calque_1
10
199.410000
20
764.323000
11
199.990970
21
766.705465
0
LINE
8
Calque_1
10
199.990970
20
766.705465
11
200.779940
21
769.120630
0
LINE
8
Calque_1
10
200.780000
20
769.121000
11
201.776319
21
771.563740
0
LINE
8
Calque_1
10
201.776000
20
771.563000
11
203.193733
21
774.024608
0
LINE
8
Calque_1
10
203.193733
20
774.024608
11
204.712260
21
776.161690
0
LINE
8
Calque_1
10
204.712000
20
776.162000
11
205.390629
21
777.078464
0
LINE
8
Calque_1
10
205.390629
20
777.078464
11
206.232830
21
777.988260
0
LINE
8
Calque_1
10
206.233000
20
777.988000
11
207.304830
21
778.865758
0
LINE
8
Calque_1
10
207.304830
20
778.865758
11
208.360749
21
779.539214
0
LINE
8
Calque_1
10
208.360749
20
779.539214
11
210.230160
21
780.538210
0
LINE
8
Calque_1
10
210.230000
20
780.538000
11
210.911619
21
780.945722
0
LINE
8
Calque_1
10
210.912000
20
780.946000
11
212.584250
21
781.650346
0
LINE
8
Calque_1
10
212.584000
20
781.650000
11
213.842830
21
781.962129
0
LINE
8
Calque_1
10
213.843000
20
781.963000
11
215.180819
21
782.335189
0
LINE
8
Calque_1
10
215.180819
20
782.335189
11
216.696060
21
782.632210
0
LINE
8
Calque_1
10
216.696000
20
782.632000
11
218.117620
21
782.740532
0
LINE
8
Calque_1
10
218.118000
20
782.740000
11
221.342090
21
782.871762
0
LINE
8
Calque_1
10
221.342000
20
782.872000
11
221.540958
21
782.882054
0
LINE
8
Calque_1
10
60.504800
20
756.795000
11
60.504900
21
756.795000
0
LINE
8
Calque_1
10
221.543000
20
782.882000
11
221.876308
21
782.892319
0
LINE
8
Calque_1
10
221.541000
20
782.882000
11
221.543000
21
782.882000
0
LINE
8
Calque_1
10
221.876000
20
782.886000
11
222.362272
21
782.844090
0
LINE
8
Calque_1
10
222.362000
20
782.845000
11
224.147420
21
782.521521
0
LINE
8
Calque_1
10
224.148000
20
782.521000
11
224.407940
21
782.458982
0
LINE
8
Calque_1
10
224.408000
20
782.459000
11
226.672980
21
781.775318
0
LINE
8
Calque_1
10
226.673000
20
781.775000
11
228.351273
21
780.997078
0
LINE
8
Calque_1
10
228.351273
20
780.997078
11
229.872451
21
779.980890
0
LINE
8
Calque_1
10
229.872451
20
779.980890
11
231.243203
21
778.782332
0
LINE
8
Calque_1
10
231.243203
20
778.782332
11
232.470197
21
777.457296
0
LINE
8
Calque_1
10
232.470197
20
777.457296
11
234.519585
21
774.651366
0
LINE
8
Calque_1
10
234.519585
20
774.651366
11
236.073960
21
772.010250
0
LINE
8
Calque_1
10
236.074000
20
772.011000
11
237.322031
21
769.488220
0
LINE
8
Calque_1
10
237.322031
20
769.488220
11
238.357964
21
766.782536
0
LINE
8
Calque_1
10
238.357964
20
766.782536
11
239.101604
21
763.943835
0
LINE
8
Calque_1
10
239.101604
20
763.943835
11
239.472760
21
761.022000
0
LINE
8
Calque_1
10
239.472000
20
761.022000
11
239.367339
21
758.132607
0
LINE
8
Calque_1
10
239.367339
20
758.132607
11
238.784789
21
755.429051
0
LINE
8
Calque_1
10
238.784789
20
755.429051
11
237.802996
21
752.888420
0
LINE
8
Calque_1
10
237.802996
20
752.888420
11
236.500610
21
750.487800
0
LINE
8
Calque_1
10
236.501000
20
750.487000
11
234.795183
21
748.148645
0
LINE
8
Calque_1
10
234.795183
20
748.148645
11
233.755921
21
747.069998
0
LINE
8
Calque_1
10
233.755921
20
747.069998
11
232.582890
21
746.094000
0
LINE
8
Calque_1
10
232.583000
20
746.094000
11
230.720580
21
745.034640
0
LINE
8
Calque_1
10
230.721000
20
745.035000
11
228.628994
21
744.154998
0
LINE
8
Calque_1
10
228.628994
20
744.154998
11
226.586415
21
743.492818
0
LINE
8
Calque_1
10
226.586415
20
743.492818
11
222.554070
21
742.502860
0
LINE
8
Calque_1
10
222.554000
20
742.503000
11
219.247840
21
741.713483
0
LINE
8
Calque_1
10
219.247840
20
741.713483
11
217.397143
21
741.418489
0
LINE
8
Calque_1
10
217.397143
20
741.418489
11
215.392170
21
741.335130
0
LINE
8
Calque_1
10
215.392000
20
741.335000
11
213.551170
21
741.552702
0
LINE
8
Calque_1
10
213.551170
20
741.552702
11
212.029930
21
741.910124
0
LINE
8
Calque_1
10
212.030000
20
741.910000
11
210.383865
21
742.404295
0
LINE
8
Calque_1
10
210.383865
20
742.404295
11
208.806598
21
743.040920
0
LINE
8
Calque_1
10
208.806598
20
743.040920
11
207.285186
21
743.860882
0
LINE
8
Calque_1
10
207.285186
20
743.860882
11
205.806620
21
744.905190
0
LINE
8
Calque_1
10
205.806000
20
744.905000
11
204.488477
21
746.059445
0
LINE
8
Calque_1
10
204.488477
20
746.059445
11
203.386256
21
747.233886
0
LINE
8
Calque_1
10
203.386256
20
747.233886
11
201.492570
21
749.871090
0
LINE
8
Calque_1
10
201.493000
20
749.871000
11
200.387557
21
751.874661
0
LINE
8
Calque_1
10
200.387557
20
751.874661
11
199.552030
21
754.092950
0
LINE
8
Calque_1
10
199.552000
20
754.093000
11
199.081837
21
756.414891
0
LINE
8
Calque_1
10
199.081837
20
756.414891
11
198.906042
21
758.615200
0
LINE
8
Calque_1
10
198.906000
20
758.616000
11
198.859499
21
760.570420
0
LINE
8
Calque_1
10
221.876000
20
782.892000
11
221.876000
21
782.886000
0
LINE
8
Calque_1
10
198.859000
20
760.570000
11
198.859000
21
760.570000
0
LINE
8
Calque_1
10
258.000000
20
795.999000
11
42.000100
21
795.999000
0
LINE
8
Calque_1
10
42.000100
20
795.999000
11
42.000100
21
725.000000
0
LINE
8
Calque_1
10
42.000100
20
725.000000
11
258.000000
21
725.000000
0
LINE
8
Calque_1
10
258.000000
20
725.000000
11
258.000000
21
795.999000
0
LINE
8
Calque_1
10
258.000000
20
721.000000
11
42.000100
21
721.000000
0
LINE
8
Calque_1
10
42.000100
20
721.000000
11
42.000100
21
200.000000
0
LINE
8
Calque_1
10
42.000100
20
200.000000
11
258.000000
21
200.000000
0
LINE
8
Calque_1
10
258.000000
20
200.000000
11
258.000000
21
721.000000
0
LINE
8
Calque_1
10
238.000000
20
196.001000
11
142.000000
21
196.001000
0
LINE
8
Calque_1
10
142.000000
20
196.001000
11
142.000000
21
150.866000
0
LINE
8
Calque_1
10
142.000000
20
150.866000
11
238.000000
21
150.866000
0
LINE
8
Calque_1
10
238.000000
20
150.866000
11
238.000000
21
196.001000
0
LINE
8
Calque_1
10
138.000000
20
196.001000
11
42.000100
21
196.001000
0
LINE
8
Calque_1
10
42.000100
20
196.001000
11
42.000100
21
0.000370
0
LINE
8
Calque_1
10
42.000100
20
0.000370
11
138.000000
21
0.000370
0
LINE
8
Calque_1
10
138.000000
20
0.000370
11
138.000000
21
3.461670
0
LINE
8
Calque_1
10
138.000000
20
3.461670
11
138.000000
21
196.001000
0
LINE
8
Calque_1
10
238.000000
20
146.866000
11
142.000000
21
146.866000
0
LINE
8
Calque_1
10
142.000000
20
146.866000
11
142.000000
21
101.731000
0
LINE
8
Calque_1
10
142.000000
20
101.731000
11
238.000000
21
101.731000
0
LINE
8
Calque_1
10
238.000000
20
101.731000
11
238.000000
21
146.866000
0
LINE
8
Calque_1
10
238.000000
20
97.730700
11
142.000000
21
97.730700
0
LINE
8
Calque_1
10
142.000000
20
97.730700
11
142.000000
21
52.596100
0
LINE
8
Calque_1
10
142.000000
20
52.596100
11
238.000000
21
52.596100
0
LINE
8
Calque_1
10
238.000000
20
52.596100
11
238.000000
21
97.730700
0
LINE
8
Calque_1
10
238.000000
20
48.596300
11
142.000000
21
48.596300
0
LINE
8
Calque_1
10
142.000000
20
48.596300
11
142.000000
21
3.461670
0
LINE
8
Calque_1
10
142.000000
20
3.461670
11
238.000000
21
3.461670
0
LINE
8
Calque_1
10
238.000000
20
3.461670
11
238.000000
21
48.596300
0
LINE
8
Calque_1
10
238.000000
20
-0.538585
11
142.000000
21
-0.538585
0
LINE
8
Calque_1
10
142.000000
20
-0.538585
11
142.000000
21
-3.999360
0
LINE
8
Calque_1
10
142.000000
20
-3.999360
11
142.000000
21
-45.673200
0
LINE
8
Calque_1
10
142.000000
20
-45.673200
11
238.000000
21
-45.673200
0
LINE
8
Calque_1
10
238.000000
20
-45.673200
11
238.000000
21
-0.538585
0
LINE
8
Calque_1
10
138.000000
20
-3.999360
11
42.000100
21
-3.999360
0
LINE
8
Calque_1
10
42.000100
20
-3.999360
11
42.000100
21
-137.499000
0
LINE
8
Calque_1
10
42.000100
20
-137.499000
11
138.000000
21
-137.499000
0
LINE
8
Calque_1
10
138.000000
20
-137.499000
11
138.000000
21
-49.673000
0
LINE
8
Calque_1
10
138.000000
20
-49.673000
11
138.000000
21
-3.999360
0
LINE
8
Calque_1
10
238.000000
20
-49.673000
11
142.000000
21
-49.673000
0
LINE
8
Calque_1
10
142.000000
20
-49.673000
11
142.000000
21
-137.499000
0
LINE
8
Calque_1
10
142.000000
20
-137.499000
11
142.000000
21
-141.499000
0
LINE
8
Calque_1
10
142.000000
20
-141.499000
11
142.000000
21
-143.943000
0
LINE
8
Calque_1
10
142.000000
20
-143.943000
11
238.000000
21
-143.943000
0
LINE
8
Calque_1
10
238.000000
20
-143.943000
11
238.000000
21
-49.673000
0
LINE
8
Calque_1
10
138.000000
20
-141.499000
11
42.000100
21
-141.499000
0
LINE
8
Calque_1
10
42.000100
20
-141.499000
11
42.000100
21
-193.077000
0
LINE
8
Calque_1
10
42.000100
20
-193.077000
11
138.000000
21
-193.077000
0
LINE
8
Calque_1
10
138.000000
20
-193.077000
11
138.000000
21
-143.943000
0
LINE
8
Calque_1
10
138.000000
20
-143.943000
11
138.000000
21
-141.499000
0
LINE
8
Calque_1
10
58.311700
20
253.597000
11
58.408799
21
257.265500
0
LINE
8
Calque_1
10
58.408800
20
257.266000
11
58.816530
21
261.705510
0
LINE
8
Calque_1
10
58.816600
20
261.705000
11
58.836206
21
263.815470
0
LINE
8
Calque_1
10
238.000000
20
-147.942000
11
142.000000
21
-147.942000
0
LINE
8
Calque_1
10
142.000000
20
-147.942000
11
142.000000
21
-193.077000
0
LINE
8
Calque_1
10
142.000000
20
-193.077000
11
238.000000
21
-193.077000
0
LINE
8
Calque_1
10
238.000000
20
-193.077000
11
238.000000
21
-147.942000
0
LINE
8
Calque_1
10
58.850700
20
263.804000
11
58.961801
21
263.770898
0
LINE
8
Calque_1
10
58.961800
20
263.771000
11
59.065667
21
263.750812
0
LINE
8
Calque_1
10
59.065600
20
263.751000
11
59.351371
21
263.614060
0
LINE
8
Calque_1
10
59.351400
20
263.614000
11
60.277959
21
263.264671
0
LINE
8
Calque_1
10
60.278000
20
263.265000
11
60.734300
21
263.130118
0
LINE
8
Calque_1
10
60.734300
20
263.130000
11
61.166838
21
262.907790
0
LINE
8
Calque_1
10
61.166800
20
262.908000
11
62.381710
21
262.463072
0
LINE
8
Calque_1
10
62.381700
20
262.463000
11
65.316400
21
261.660462
0
LINE
8
Calque_1
10
65.316400
20
261.660000
11
66.540904
21
261.296820
0
LINE
8
Calque_1
10
66.540904
20
261.296820
11
68.067660
21
260.967541
0
LINE
8
Calque_1
10
68.067700
20
260.968000
11
68.229961
21
260.947310
0
LINE
8
Calque_1
10
68.229900
20
260.947000
11
68.445390
21
260.882900
0
LINE
8
Calque_1
10
68.445400
20
260.883000
11
70.418920
21
260.507311
0
LINE
8
Calque_1
10
70.418900
20
260.507000
11
70.929979
21
260.401072
0
LINE
8
Calque_1
10
70.930000
20
260.401000
11
72.964500
21
260.273360
0
LINE
8
Calque_1
10
72.964500
20
260.274000
11
76.076980
21
259.988219
0
LINE
8
Calque_1
10
76.077000
20
259.988000
11
77.304452
21
260.045348
0
LINE
8
Calque_1
10
77.304452
20
260.045348
11
77.925980
21
260.133222
0
LINE
8
Calque_1
10
77.926000
20
260.133000
11
79.060300
21
260.133000
0
LINE
8
Calque_1
10
79.060300
20
260.133000
11
79.498508
21
260.122708
0
LINE
8
Calque_1
10
79.498500
20
260.123000
11
80.257628
21
260.046998
0
LINE
8
Calque_1
10
80.257600
20
260.047000
11
83.527680
21
260.064092
0
LINE
8
Calque_1
10
83.527700
20
260.064000
11
84.710060
21
259.997301
0
LINE
8
Calque_1
10
84.710000
20
259.997000
11
87.583730
21
260.097769
0
LINE
8
Calque_1
10
87.583800
20
260.098000
11
88.810080
21
260.098000
0
LINE
8
Calque_1
10
88.810000
20
260.098000
11
90.833130
21
259.956922
0
LINE
8
Calque_1
10
90.833200
20
259.957000
11
92.615000
21
260.146648
0
LINE
8
Calque_1
10
92.615000
20
260.146000
11
94.401460
21
260.173900
0
LINE
8
Calque_1
10
94.401400
20
260.174000
11
94.899038
21
260.241201
0
LINE
8
Calque_1
10
94.899100
20
260.242000
11
95.128549
21
260.283799
0
LINE
8
Calque_1
10
95.128500
20
260.283000
11
95.435972
21
260.369799
0
LINE
8
Calque_1
10
95.436000
20
260.370000
11
95.962578
21
260.389103
0
LINE
8
Calque_1
10
58.836200
20
263.816000
11
58.850699
21
263.804597
0
LINE
8
Calque_1
10
96.821900
20
260.389000
11
96.835896
21
259.000460
0
LINE
8
Calque_1
10
96.835900
20
259.001000
11
96.819893
21
257.939040
0
LINE
8
Calque_1
10
96.819900
20
257.939000
11
96.916999
21
257.015552
0
LINE
8
Calque_1
10
96.917000
20
257.015000
11
97.062211
21
255.123640
0
LINE
8
Calque_1
10
97.062300
20
255.124000
11
97.449869
21
251.992410
0
LINE
8
Calque_1
10
97.449800
20
251.992000
11
97.685959
21
247.743160
0
LINE
8
Calque_1
10
97.686000
20
247.743000
11
97.853373
21
244.899142
0
LINE
8
Calque_1
10
97.853373
20
244.899142
11
97.863771
21
242.285460
0
LINE
8
Calque_1
10
97.863800
20
242.286000
11
97.560979
21
236.838280
0
LINE
8
Calque_1
10
97.560900
20
236.838000
11
97.383132
21
234.415410
0
LINE
8
Calque_1
10
97.383200
20
234.416000
11
97.383200
21
233.326150
0
LINE
8
Calque_1
10
97.383200
20
233.326000
11
97.395106
21
233.266000
0
LINE
8
Calque_1
10
97.395100
20
233.266000
11
97.433901
21
229.683790
0
LINE
8
Calque_1
10
97.433900
20
229.684000
11
97.433900
21
224.978860
0
LINE
8
Calque_1
10
97.433900
20
224.978000
11
97.423899
21
223.213770
0
LINE
8
Calque_1
10
97.423900
20
223.214000
11
97.193940
21
223.096692
0
LINE
8
Calque_1
10
97.193900
20
223.097000
11
96.813562
21
222.907350
0
LINE
8
Calque_1
10
96.813600
20
222.907000
11
94.183270
21
222.927690
0
LINE
8
Calque_1
10
94.183200
20
222.928000
11
91.314130
21
222.601409
0
LINE
8
Calque_1
10
91.314200
20
222.601000
11
88.091150
21
222.822170
0
LINE
8
Calque_1
10
88.091100
20
222.823000
11
83.832450
21
222.791999
0
LINE
8
Calque_1
10
95.962600
20
260.389000
11
96.554800
21
260.389000
0
LINE
8
Calque_1
10
96.554800
20
260.389000
11
96.821900
21
260.389000
0
LINE
8
Calque_1
10
83.483100
20
222.792000
11
83.355463
21
222.810600
0
LINE
8
Calque_1
10
83.355500
20
222.810000
11
82.821169
21
222.835294
0
LINE
8
Calque_1
10
82.821200
20
222.835000
11
80.989270
21
223.225667
0
LINE
8
Calque_1
10
80.989200
20
223.226000
11
78.550070
21
223.612029
0
LINE
8
Calque_1
10
78.550100
20
223.612000
11
77.571352
21
223.734470
0
LINE
8
Calque_1
10
77.571400
20
223.735000
11
74.904380
21
224.097770
0
LINE
8
Calque_1
10
74.904300
20
224.097000
11
72.019200
21
224.310939
0
LINE
8
Calque_1
10
72.019200
20
224.311000
11
68.207040
21
224.898559
0
LINE
8
Calque_1
10
68.207100
20
224.899000
11
67.103810
21
224.997700
0
LINE
8
Calque_1
10
67.103800
20
224.998000
11
66.098180
21
225.097200
0
LINE
8
Calque_1
10
66.098200
20
225.097000
11
64.510700
21
225.489739
0
LINE
8
Calque_1
10
64.510700
20
225.490000
11
62.672050
21
226.135961
0
LINE
8
Calque_1
10
83.832500
20
222.792000
11
83.483100
21
222.792000
0
LINE
8
Calque_1
10
62.564500
20
226.166000
11
62.659102
21
226.139100
0
LINE
8
Calque_1
10
62.659100
20
226.140000
11
62.245170
21
226.262470
0
LINE
8
Calque_1
10
62.245200
20
226.262000
11
62.219403
21
226.272001
0
LINE
8
Calque_1
10
62.219400
20
226.272000
11
62.009080
21
226.369200
0
LINE
8
Calque_1
10
62.009100
20
226.369000
11
61.625150
21
226.485268
0
LINE
8
Calque_1
10
61.625100
20
226.486000
11
61.419940
21
226.519102
0
LINE
8
Calque_1
10
62.672000
20
226.135000
11
62.564508
21
226.165999
0
LINE
8
Calque_1
10
61.396800
20
226.524000
11
61.369900
21
226.531011
0
LINE
8
Calque_1
10
61.369900
20
226.531000
11
60.978711
21
226.633309
0
LINE
8
Calque_1
10
60.978700
20
226.633000
11
60.342050
21
226.595800
0
LINE
8
Calque_1
10
60.342000
20
226.596000
11
59.572021
21
227.004241
0
LINE
8
Calque_1
10
59.572100
20
227.004000
11
58.969552
21
227.320259
0
LINE
8
Calque_1
10
58.969500
20
227.320000
11
59.043401
21
227.875521
0
LINE
8
Calque_1
10
59.043400
20
227.876000
11
59.079476
21
228.206188
0
LINE
8
Calque_1
10
59.079476
20
228.206188
11
59.086206
21
228.275877
0
LINE
8
Calque_1
10
59.086206
20
228.275877
11
59.071298
21
228.191229
0
LINE
8
Calque_1
10
59.071300
20
228.191000
11
59.485222
21
231.629030
0
LINE
8
Calque_1
10
59.485200
20
231.629000
11
59.503298
21
232.308547
0
LINE
8
Calque_1
10
59.503300
20
232.309000
11
59.455199
21
232.762720
0
LINE
8
Calque_1
10
61.420000
20
226.519000
11
61.396796
21
226.524001
0
LINE
8
Calque_1
10
59.455200
20
233.106000
11
59.560099
21
235.286230
0
LINE
8
Calque_1
10
59.560100
20
235.286000
11
59.330662
21
237.274510
0
LINE
8
Calque_1
10
59.330700
20
237.275000
11
59.177739
21
239.299690
0
LINE
8
Calque_1
10
59.177700
20
239.299000
11
59.060392
21
240.192997
0
LINE
8
Calque_1
10
59.060400
20
240.193000
11
59.044393
21
241.613580
0
LINE
8
Calque_1
10
59.044400
20
241.614000
11
58.958601
21
242.366408
0
LINE
8
Calque_1
10
58.958600
20
242.366000
11
58.942593
21
244.201030
0
LINE
8
Calque_1
10
58.942600
20
244.201000
11
58.644949
21
247.940300
0
LINE
8
Calque_1
10
58.645000
20
247.941000
11
58.423819
21
249.493880
0
LINE
8
Calque_1
10
58.423800
20
249.494000
11
58.326701
21
252.341370
0
LINE
8
Calque_1
10
58.326700
20
252.341000
11
58.311698
21
253.597250
0
LINE
8
Calque_1
10
59.455200
20
232.762000
11
59.455200
21
233.106000
0
LINE
8
Calque_1
10
59.455300
20
232.750000
11
59.411400
21
233.015618
0
LINE
8
Calque_1
10
59.411400
20
233.015000
11
59.455300
21
232.761791
0
LINE
8
Calque_1
10
59.455300
20
232.762000
11
59.455300
21
232.750000
0
LINE
8
Calque_1
10
61.411800
20
226.519000
11
61.406799
21
226.519529
0
LINE
8
Calque_1
10
61.396800
20
226.523000
11
61.411802
21
226.519005
0
LINE
8
Calque_1
10
61.405300
20
226.520000
11
61.310701
21
226.540690
0
LINE
8
Calque_1
10
61.310700
20
226.541000
11
61.396999
21
226.523908
0
LINE
8
Calque_1
10
61.406800
20
226.520000
11
61.405800
21
226.520000
0
LINE
8
Calque_1
10
61.405800
20
226.520000
11
61.405200
21
226.520000
0
LINE
8
Calque_1
10
61.404800
20
226.519000
11
61.236340
21
226.531885
0
LINE
8
Calque_1
10
61.236400
20
226.532000
11
61.272600
21
226.532000
0
LINE
8
Calque_1
10
61.272600
20
226.532000
11
61.404889
21
226.519115
0
LINE
8
Calque_1
10
61.397000
20
226.523000
11
61.396820
21
226.522892
0
LINE
8
Calque_1
10
61.419800
20
226.518000
11
61.416810
21
226.518000
0
LINE
8
Calque_1
10
60.734100
20
263.129000
11
60.754790
21
263.123999
0
LINE
8
Calque_1
10
61.416800
20
226.518000
11
61.419800
21
226.518000
0
LINE
8
Calque_1
10
61.419800
20
226.518000
11
61.419800
21
226.518000
0
LINE
8
Calque_1
10
60.754800
20
263.124000
11
60.734110
21
263.129001
0
LINE
8
Calque_1
10
60.734110
20
263.129001
11
60.734100
21
263.129000
0
LINE
8
Calque_1
10
60.788400
20
263.115000
11
60.869500
21
263.077800
0
LINE
8
Calque_1
10
60.869500
20
263.078000
11
60.754769
21
263.124000
0
LINE
8
Calque_1
10
60.754800
20
263.124000
11
60.788399
21
263.115004
0
LINE
8
Calque_1
10
58.623700
20
289.926000
11
58.814901
21
297.608200
0
LINE
8
Calque_1
10
58.814900
20
297.609000
11
59.040208
21
302.465550
0
LINE
8
Calque_1
10
59.040200
20
302.465000
11
59.281531
21
304.697930
0
LINE
8
Calque_1
10
59.281500
20
304.698000
11
59.518688
21
307.164520
0
LINE
8
Calque_1
10
59.518700
20
307.165000
11
59.595702
21
308.540110
0
LINE
8
Calque_1
10
59.595700
20
308.540000
11
59.579693
21
308.685730
0
LINE
8
Calque_1
10
59.579700
20
308.685000
11
59.605497
21
309.036909
0
LINE
8
Calque_1
10
59.605500
20
309.037000
11
59.682502
21
309.836439
0
LINE
8
Calque_1
10
59.682500
20
309.837000
11
59.752800
21
311.202810
0
LINE
8
Calque_1
10
59.752800
20
311.203000
11
59.735708
21
315.390840
0
LINE
8
Calque_1
10
59.735700
20
315.390000
11
59.735700
21
317.740770
0
LINE
8
Calque_1
10
59.735700
20
317.741000
11
59.735700
21
324.583460
0
LINE
8
Calque_1
10
59.735700
20
324.584000
11
59.946552
21
327.374554
0
LINE
8
Calque_1
10
59.946552
20
327.374554
11
60.288128
21
330.377950
0
LINE
8
Calque_1
10
60.288100
20
330.378000
11
60.686001
21
335.558560
0
LINE
8
Calque_1
10
60.686000
20
335.558000
11
60.740800
21
338.742300
0
LINE
8
Calque_1
10
60.740800
20
338.743000
11
60.931998
21
341.452390
0
LINE
8
Calque_1
10
60.932000
20
341.452000
11
61.003300
21
344.805290
0
LINE
8
Calque_1
10
61.003300
20
344.805000
11
61.159359
21
346.728910
0
LINE
8
Calque_1
10
61.159400
20
346.729000
11
61.421922
21
350.969050
0
LINE
8
Calque_1
10
61.421900
20
350.969000
11
61.818769
21
354.423050
0
LINE
8
Calque_1
10
61.818800
20
354.423000
11
61.996568
21
356.119540
0
LINE
8
Calque_1
10
61.996500
20
356.120000
11
62.256432
21
357.272390
0
LINE
8
Calque_1
10
62.256500
20
357.272000
11
62.372768
21
358.202689
0
LINE
8
Calque_1
10
62.372700
20
358.203000
11
62.838311
21
361.056560
0
LINE
8
Calque_1
10
62.838300
20
361.056000
11
62.947851
21
362.269360
0
LINE
8
Calque_1
10
62.947900
20
362.270000
11
63.029500
21
362.938178
0
LINE
8
Calque_1
10
63.029500
20
362.938000
11
63.133889
21
363.651649
0
LINE
8
Calque_1
10
63.133900
20
363.652000
11
63.233100
21
363.972910
0
LINE
8
Calque_1
10
63.233100
20
363.972000
11
63.282199
21
364.218501
0
LINE
8
Calque_1
10
63.282200
20
364.219000
11
63.411912
21
364.987428
0
LINE
8
Calque_1
10
63.411900
20
364.987000
11
63.520419
21
365.899597
0
LINE
8
Calque_1
10
63.520400
20
365.900000
11
63.886271
21
368.053880
0
LINE
8
Calque_1
10
60.754800
20
263.124000
11
60.754832
21
263.124198
0
LINE
8
Calque_1
10
63.884300
20
368.013000
11
64.013999
21
367.951000
0
LINE
8
Calque_1
10
64.014000
20
367.951000
11
64.449641
21
367.802169
0
LINE
8
Calque_1
10
64.449600
20
367.803000
11
64.562767
21
367.792999
0
LINE
8
Calque_1
10
64.562800
20
367.793000
11
65.373601
21
367.452450
0
LINE
8
Calque_1
10
65.373600
20
367.452000
11
66.554126
21
367.106208
0
LINE
8
Calque_1
10
66.554126
20
367.106208
11
67.318180
21
366.958489
0
LINE
8
Calque_1
10
67.318200
20
366.959000
11
67.676318
21
366.860303
0
LINE
8
Calque_1
10
67.676300
20
366.860000
11
67.648400
21
365.935510
0
LINE
8
Calque_1
10
67.648400
20
365.935000
11
67.562601
21
362.152290
0
LINE
8
Calque_1
10
67.562600
20
362.153000
11
67.463400
21
360.711740
0
LINE
8
Calque_1
10
67.463400
20
360.711000
11
67.440090
21
359.192750
0
LINE
8
Calque_1
10
67.440100
20
359.193000
11
67.224610
21
354.166960
0
LINE
8
Calque_1
10
67.224600
20
354.167000
11
67.175999
21
352.166080
0
LINE
8
Calque_1
10
67.176000
20
352.166000
11
67.153802
21
351.359339
0
LINE
8
Calque_1
10
67.153800
20
351.360000
11
67.076798
21
350.933151
0
LINE
8
Calque_1
10
67.076800
20
350.933000
11
67.022002
21
350.433801
0
LINE
8
Calque_1
10
67.022000
20
350.434000
11
66.963599
21
350.232470
0
LINE
8
Calque_1
10
66.963600
20
350.232000
11
66.934700
21
350.085231
0
LINE
8
Calque_1
10
66.934700
20
350.085000
11
66.857701
21
349.512950
0
LINE
8
Calque_1
10
66.857700
20
349.513000
11
66.731089
21
348.503760
0
LINE
8
Calque_1
10
66.731100
20
348.504000
11
66.721099
21
348.431102
0
LINE
8
Calque_1
10
66.721100
20
348.431000
11
66.711099
21
348.296129
0
LINE
8
Calque_1
10
66.711100
20
348.296000
11
66.721101
21
348.176620
0
LINE
8
Calque_1
10
66.721100
20
348.177000
11
66.616719
21
347.650422
0
LINE
8
Calque_1
10
66.616700
20
347.650000
11
66.437890
21
346.119860
0
LINE
8
Calque_1
10
66.437900
20
346.120000
11
66.298380
21
344.651870
0
LINE
8
Calque_1
10
66.298400
20
344.652000
11
66.098412
21
343.104810
0
LINE
8
Calque_1
10
66.098400
20
343.105000
11
66.031199
21
341.654440
0
LINE
8
Calque_1
10
66.031200
20
341.654000
11
65.952100
21
337.301310
0
LINE
8
Calque_1
10
65.952100
20
337.301000
11
65.878202
21
335.339880
0
LINE
8
Calque_1
10
65.878200
20
335.340000
11
65.868199
21
333.977290
0
LINE
8
Calque_1
10
65.868200
20
333.978000
11
65.506470
21
331.344050
0
LINE
8
Calque_1
10
65.506500
20
331.344000
11
65.450699
21
330.613812
0
LINE
8
Calque_1
10
65.450700
20
330.614000
11
65.426411
21
330.429001
0
LINE
8
Calque_1
10
65.426400
20
330.429000
11
65.294622
21
329.721039
0
LINE
8
Calque_1
10
65.294600
20
329.721000
11
65.249549
21
329.199660
0
LINE
8
Calque_1
10
65.249549
20
329.199660
11
65.261498
21
329.143770
0
LINE
8
Calque_1
10
65.261500
20
329.143000
11
65.202601
21
328.778682
0
LINE
8
Calque_1
10
65.202600
20
328.779000
11
65.190694
21
328.686999
0
LINE
8
Calque_1
10
65.190700
20
328.687000
11
65.109600
21
327.958362
0
LINE
8
Calque_1
10
65.109600
20
327.958000
11
64.951472
21
323.934990
0
LINE
8
Calque_1
10
64.951400
20
323.935000
11
64.997398
21
323.070451
0
LINE
8
Calque_1
10
64.997400
20
323.071000
11
65.014492
21
322.634851
0
LINE
8
Calque_1
10
65.014500
20
322.635000
11
65.000504
21
321.615940
0
LINE
8
Calque_1
10
65.000500
20
321.616000
11
65.000500
21
318.880770
0
LINE
8
Calque_1
10
65.000500
20
318.880000
11
64.925599
21
314.031210
0
LINE
8
Calque_1
10
64.925600
20
314.032000
11
64.825352
21
310.439460
0
LINE
8
Calque_1
10
64.825400
20
310.439000
11
64.970090
21
308.271170
0
LINE
8
Calque_1
10
64.970100
20
308.271000
11
64.987192
21
308.045690
0
LINE
8
Calque_1
10
64.987200
20
308.046000
11
65.002202
21
307.469291
0
LINE
8
Calque_1
10
65.002200
20
307.469000
11
65.179449
21
305.148730
0
LINE
8
Calque_1
10
65.179400
20
305.149000
11
65.214500
21
303.885510
0
LINE
8
Calque_1
10
65.214500
20
303.885000
11
65.141599
21
302.146610
0
LINE
8
Calque_1
10
65.141600
20
302.147000
11
65.310071
21
300.511440
0
LINE
8
Calque_1
10
65.310100
20
300.512000
11
65.456340
21
298.530210
0
LINE
8
Calque_1
10
65.456300
20
298.530000
11
65.963760
21
293.610930
0
LINE
8
Calque_1
10
65.963800
20
293.611000
11
65.911600
21
292.584180
0
LINE
8
Calque_1
10
65.911600
20
292.584000
11
65.907605
21
292.217621
0
LINE
8
Calque_1
10
65.907600
20
292.217000
11
65.794430
21
291.434621
0
LINE
8
Calque_1
10
65.794400
20
291.435000
11
65.617151
21
289.699700
0
LINE
8
Calque_1
10
65.617200
20
289.700000
11
65.510750
21
288.521780
0
LINE
8
Calque_1
10
65.510700
20
288.522000
11
65.343134
21
286.995637
0
LINE
8
Calque_1
10
65.343134
20
286.995637
11
65.300370
21
285.707700
0
LINE
8
Calque_1
10
65.300400
20
285.707000
11
65.236799
21
284.029590
0
LINE
8
Calque_1
10
65.236800
20
284.030000
11
65.248706
21
282.081790
0
LINE
8
Calque_1
10
65.248700
20
282.082000
11
65.161401
21
279.647010
0
LINE
8
Calque_1
10
65.161400
20
279.647000
11
65.148488
21
277.094180
0
LINE
8
Calque_1
10
65.148500
20
277.094000
11
65.186801
21
275.780390
0
LINE
8
Calque_1
10
65.186800
20
275.780000
11
64.936679
21
271.830380
0
LINE
8
Calque_1
10
64.936700
20
271.831000
11
64.817849
21
270.725640
0
LINE
8
Calque_1
10
64.817800
20
270.725000
11
64.776501
21
269.806191
0
LINE
8
Calque_1
10
64.776500
20
269.806000
11
64.730500
21
269.179690
0
LINE
8
Calque_1
10
64.730500
20
269.180000
11
64.696901
21
267.473640
0
LINE
8
Calque_1
10
64.696900
20
267.474000
11
64.640599
21
266.853370
0
LINE
8
Calque_1
10
64.640600
20
266.853000
11
63.778120
21
267.091220
0
LINE
8
Calque_1
10
63.778200
20
267.091000
11
63.225772
21
267.300290
0
LINE
8
Calque_1
10
63.225700
20
267.301000
11
62.772501
21
267.521149
0
LINE
8
Calque_1
10
62.772500
20
267.521000
11
62.014411
21
267.793851
0
LINE
8
Calque_1
10
62.014400
20
267.794000
11
61.816479
21
267.847700
0
LINE
8
Calque_1
10
61.816500
20
267.847000
11
61.096130
21
268.120888
0
LINE
8
Calque_1
10
61.096200
20
268.121000
11
61.105212
21
268.138598
0
LINE
8
Calque_1
10
61.105212
20
268.138598
11
60.613021
21
268.345790
0
LINE
8
Calque_1
10
60.613000
20
268.346000
11
60.069880
21
268.518079
0
LINE
8
Calque_1
10
60.069900
20
268.518000
11
59.737113
21
268.575901
0
LINE
8
Calque_1
10
59.737100
20
268.576000
11
59.414639
21
268.667998
0
LINE
8
Calque_1
10
59.414600
20
268.668000
11
58.906619
21
268.905201
0
LINE
8
Calque_1
10
58.906600
20
268.905000
11
58.745882
21
268.979398
0
LINE
8
Calque_1
10
63.886300
20
368.054000
11
63.884183
21
368.033812
0
LINE
8
Calque_1
10
63.884183
20
368.033812
11
63.884200
21
368.013000
0
LINE
8
Calque_1
10
58.745900
20
269.276000
11
58.851839
21
271.736320
0
LINE
8
Calque_1
10
58.745900
20
268.980000
11
58.745900
21
269.276000
0
LINE
8
Calque_1
10
58.851800
20
271.678000
11
58.940200
21
275.747510
0
LINE
8
Calque_1
10
58.940200
20
275.747000
11
59.029100
21
278.201110
0
LINE
8
Calque_1
10
59.029100
20
278.201000
11
59.011002
21
279.209210
0
LINE
8
Calque_1
10
59.011000
20
279.209000
11
58.992902
21
280.109719
0
LINE
8
Calque_1
10
58.992900
20
280.110000
11
58.919002
21
284.467860
0
LINE
8
Calque_1
10
58.919000
20
284.468000
11
58.622379
21
289.926060
0
LINE
8
Calque_1
10
58.851800
20
271.737000
11
58.851800
21
271.700000
0
LINE
8
Calque_1
10
58.851800
20
271.700000
11
58.851800
21
271.678000
0
LINE
8
Calque_1
10
65.909000
20
292.218000
11
65.922414
21
292.294000
0
LINE
8
Calque_1
10
65.922400
20
292.294000
11
65.908986
21
292.218000
0
LINE
8
Calque_1
10
58.622400
20
289.926000
11
58.623723
21
289.926317
0
LINE
8
Calque_1
10
67.154400
20
351.360000
11
67.151410
21
351.280900
0
LINE
8
Calque_1
10
67.151400
20
351.281000
11
67.154390
21
351.360100
0
LINE
8
Calque_1
10
64.526100
20
373.212000
11
64.547293
21
373.387178
0
LINE
8
Calque_1
10
64.547300
20
373.387000
11
64.573097
21
373.990591
0
LINE
8
Calque_1
10
64.573100
20
373.990000
11
64.795821
21
375.147550
0
LINE
8
Calque_1
10
64.795800
20
375.148000
11
64.906390
21
376.287980
0
LINE
8
Calque_1
10
64.906400
20
376.288000
11
65.085200
21
377.377860
0
LINE
8
Calque_1
10
65.085200
20
377.378000
11
65.230408
21
378.716930
0
LINE
8
Calque_1
10
65.230400
20
378.975000
11
65.352362
21
379.745490
0
LINE
8
Calque_1
10
65.352400
20
379.745000
11
66.041237
21
383.336510
0
LINE
8
Calque_1
10
66.041200
20
383.337000
11
66.325420
21
384.385000
0
LINE
8
Calque_1
10
66.325500
20
384.385000
11
66.515161
21
385.375638
0
LINE
8
Calque_1
10
66.515100
20
385.375000
11
66.883029
21
386.703080
0
LINE
8
Calque_1
10
66.883100
20
386.703000
11
67.785889
21
390.763220
0
LINE
8
Calque_1
10
67.785800
20
390.764000
11
68.158899
21
392.170120
0
LINE
8
Calque_1
10
68.158900
20
392.170000
11
68.884185
21
393.743314
0
LINE
8
Calque_1
10
68.884185
20
393.743314
11
69.834770
21
395.322770
0
LINE
8
Calque_1
10
69.834800
20
395.322000
11
70.901920
21
397.025250
0
LINE
8
Calque_1
10
70.901900
20
397.026000
11
72.141620
21
399.619640
0
LINE
8
Calque_1
10
72.141600
20
399.619000
11
72.941030
21
400.705240
0
LINE
8
Calque_1
10
72.941100
20
400.706000
11
74.010800
21
402.192730
0
LINE
8
Calque_1
10
74.010800
20
402.192000
11
74.876899
21
403.081348
0
LINE
8
Calque_1
10
74.876900
20
403.082000
11
76.188960
21
404.423010
0
LINE
8
Calque_1
10
76.188900
20
404.423000
11
76.363570
21
404.604898
0
LINE
8
Calque_1
10
76.363600
20
404.605000
11
76.634898
21
404.888181
0
LINE
8
Calque_1
10
76.634900
20
404.888000
11
76.727901
21
404.982599
0
LINE
8
Calque_1
10
76.727900
20
404.982000
11
77.151130
21
405.263641
0
LINE
8
Calque_1
10
77.151100
20
405.264000
11
77.161101
21
405.264000
0
LINE
8
Calque_1
10
77.161100
20
405.264000
11
77.704731
21
405.711518
0
LINE
8
Calque_1
10
77.704800
20
405.712000
11
78.100129
21
405.968831
0
LINE
8
Calque_1
10
65.230400
20
378.717000
11
65.230400
21
378.975000
0
LINE
8
Calque_1
10
78.110100
20
405.968000
11
78.564331
21
406.387089
0
LINE
8
Calque_1
10
78.564300
20
406.387000
11
80.279745
21
408.349029
0
LINE
8
Calque_1
10
80.279745
20
408.349029
11
81.582210
21
410.030700
0
LINE
8
Calque_1
10
81.582200
20
410.031000
11
81.852461
21
409.588130
0
LINE
8
Calque_1
10
81.852500
20
409.588000
11
81.985310
21
409.197333
0
LINE
8
Calque_1
10
81.985300
20
409.198000
11
82.541340
21
407.537120
0
LINE
8
Calque_1
10
82.541300
20
407.537000
11
82.915957
21
406.350510
0
LINE
8
Calque_1
10
82.916000
20
406.350000
11
83.173860
21
405.681301
0
LINE
8
Calque_1
10
83.173900
20
405.682000
11
83.238000
21
405.578130
0
LINE
8
Calque_1
10
83.238000
20
405.578000
11
83.258188
21
405.516000
0
LINE
8
Calque_1
10
83.258200
20
405.516000
11
83.707787
21
404.084050
0
LINE
8
Calque_1
10
83.707700
20
404.084000
11
83.743400
21
403.968761
0
LINE
8
Calque_1
10
83.743400
20
403.968000
11
83.912392
21
403.614530
0
LINE
8
Calque_1
10
83.912400
20
403.615000
11
83.969799
21
403.446540
0
LINE
8
Calque_1
10
83.969800
20
403.447000
11
84.628670
21
401.829530
0
LINE
8
Calque_1
10
84.628700
20
401.829000
11
86.069960
21
398.910830
0
LINE
8
Calque_1
10
86.070000
20
398.911000
11
86.547998
21
397.517280
0
LINE
8
Calque_1
10
86.548000
20
397.517000
11
86.935580
21
396.442650
0
LINE
8
Calque_1
10
86.935500
20
396.443000
11
87.059521
21
395.784641
0
LINE
8
Calque_1
10
87.059600
20
395.784000
11
87.583599
21
394.244560
0
LINE
8
Calque_1
10
87.583600
20
394.245000
11
87.734500
21
393.887400
0
LINE
8
Calque_1
10
87.734500
20
393.887000
11
87.957742
21
393.011090
0
LINE
8
Calque_1
10
87.957700
20
393.012000
11
88.193338
21
392.358811
0
LINE
8
Calque_1
10
88.193300
20
392.358000
11
88.268201
21
392.137851
0
LINE
8
Calque_1
10
78.100100
20
405.968000
11
78.110100
21
405.968000
0
LINE
8
Calque_1
10
88.268200
20
392.133000
11
88.302299
21
391.787801
0
LINE
8
Calque_1
10
88.302300
20
391.788000
11
88.365901
21
391.114141
0
LINE
8
Calque_1
10
88.365900
20
391.114000
11
88.498710
21
390.240151
0
LINE
8
Calque_1
10
88.498700
20
390.240000
11
88.597900
21
389.740290
0
LINE
8
Calque_1
10
88.597900
20
389.741000
11
88.734319
21
388.282170
0
LINE
8
Calque_1
10
88.734400
20
388.282000
11
89.067200
21
386.213400
0
LINE
8
Calque_1
10
89.067200
20
386.213000
11
89.218100
21
384.106660
0
LINE
8
Calque_1
10
89.218100
20
384.107000
11
89.238288
21
382.648180
0
LINE
8
Calque_1
10
89.238300
20
382.648000
11
89.430541
21
380.771630
0
LINE
8
Calque_1
10
89.430500
20
380.772000
11
89.530200
21
380.293470
0
LINE
8
Calque_1
10
89.530200
20
380.293000
11
89.556605
21
379.944700
0
LINE
8
Calque_1
10
89.556600
20
379.945000
11
89.656850
21
377.401490
0
LINE
8
Calque_1
10
89.656900
20
377.401000
11
89.640893
21
375.841410
0
LINE
8
Calque_1
10
89.640900
20
375.842000
11
89.783531
21
373.975960
0
LINE
8
Calque_1
10
89.783500
20
373.976000
11
89.872400
21
372.121850
0
LINE
8
Calque_1
10
89.872400
20
372.122000
11
89.657429
21
372.085300
0
LINE
8
Calque_1
10
89.657400
20
372.085000
11
88.190820
21
371.974931
0
LINE
8
Calque_1
10
88.190800
20
371.975000
11
86.823960
21
371.900099
0
LINE
8
Calque_1
10
86.824000
20
371.900000
11
84.792080
21
372.138231
0
LINE
8
Calque_1
10
84.792100
20
372.138000
11
82.500250
21
372.168498
0
LINE
8
Calque_1
10
82.500200
20
372.169000
11
81.261520
21
372.152993
0
LINE
8
Calque_1
10
81.261600
20
372.153000
11
80.193880
21
371.978834
0
LINE
8
Calque_1
10
80.193880
20
371.978834
11
79.635860
21
371.811942
0
LINE
8
Calque_1
10
79.635800
20
371.812000
11
78.232260
21
371.524679
0
LINE
8
Calque_1
10
78.232300
20
371.524000
11
77.064420
21
371.210321
0
LINE
8
Calque_1
10
77.064400
20
371.211000
11
75.367340
21
371.185203
0
LINE
8
Calque_1
10
75.367300
20
371.185000
11
73.912090
21
371.087800
0
LINE
8
Calque_1
10
73.912100
20
371.088000
11
72.247090
21
371.122100
0
LINE
8
Calque_1
10
72.247100
20
371.122000
11
71.478150
21
371.147294
0
LINE
8
Calque_1
10
71.478200
20
371.147000
11
70.562499
21
371.669111
0
LINE
8
Calque_1
10
70.562499
20
371.669111
11
69.476780
21
371.740251
0
LINE
8
Calque_1
10
69.476800
20
371.740000
11
68.850479
21
371.531739
0
LINE
8
Calque_1
10
68.850400
20
371.532000
11
68.449901
21
371.633801
0
LINE
8
Calque_1
10
68.449900
20
371.634000
11
67.100630
21
371.941988
0
LINE
8
Calque_1
10
67.100700
20
371.942000
11
66.012400
21
372.383840
0
LINE
8
Calque_1
10
66.012400
20
372.384000
11
65.803620
21
372.427900
0
LINE
8
Calque_1
10
65.803600
20
372.427000
11
65.432570
21
372.643529
0
LINE
8
Calque_1
10
65.432600
20
372.644000
11
65.345301
21
372.694602
0
LINE
8
Calque_1
10
88.268200
20
392.138000
11
88.268200
21
392.133000
0
LINE
8
Calque_1
10
65.394400
20
372.661000
11
65.122581
21
372.787600
0
LINE
8
Calque_1
10
65.122500
20
372.788000
11
64.915792
21
372.942001
0
LINE
8
Calque_1
10
64.915800
20
372.942000
11
64.559751
21
373.170409
0
LINE
8
Calque_1
10
64.559800
20
373.170000
11
64.526698
21
373.211301
0
LINE
8
Calque_1
10
65.345300
20
372.695000
11
65.394399
21
372.661898
0
LINE
8
Calque_1
10
64.526700
20
373.212000
11
64.526171
21
373.211910
0
LINE
8
Calque_1
10
88.267800
20
392.159000
11
88.267800
21
392.137807
0
LINE
8
Calque_1
10
88.267800
20
392.138000
11
88.267800
21
392.159000
0
LINE
8
Calque_1
10
69.429200
20
266.311000
11
69.478299
21
267.014828
0
LINE
8
Calque_1
10
69.478300
20
267.015000
11
69.519101
21
268.826780
0
LINE
8
Calque_1
10
69.519100
20
268.827000
11
69.572800
21
269.601109
0
LINE
8
Calque_1
10
69.572800
20
269.601000
11
69.586178
21
270.036167
0
LINE
8
Calque_1
10
69.586178
20
270.036167
11
69.556793
21
269.928109
0
LINE
8
Calque_1
10
69.556800
20
269.928000
11
69.712859
21
271.317070
0
LINE
8
Calque_1
10
69.712800
20
271.317000
11
69.986170
21
275.742040
0
LINE
8
Calque_1
10
69.986200
20
275.742000
11
69.948500
21
277.101610
0
LINE
8
Calque_1
10
69.948500
20
277.102000
11
69.961412
21
279.560240
0
LINE
8
Calque_1
10
69.961400
20
279.560000
11
70.047199
21
282.000680
0
LINE
8
Calque_1
10
70.047200
20
282.001000
11
70.035294
21
283.949720
0
LINE
8
Calque_1
10
70.035300
20
283.950000
11
70.096300
21
285.500290
0
LINE
8
Calque_1
10
70.096300
20
285.500000
11
70.235830
21
287.651290
0
LINE
8
Calque_1
10
70.235800
20
287.651000
11
70.403749
21
289.322220
0
LINE
8
Calque_1
10
70.403800
20
289.322000
11
70.575879
21
290.994250
0
LINE
8
Calque_1
10
70.575900
20
290.995000
11
70.668901
21
291.582039
0
LINE
8
Calque_1
10
70.668900
20
291.582000
11
70.698901
21
291.792330
0
LINE
8
Calque_1
10
70.698900
20
291.792000
11
70.709192
21
292.404879
0
LINE
8
Calque_1
10
70.709200
20
292.405000
11
70.757198
21
293.826620
0
LINE
8
Calque_1
10
70.757200
20
293.826000
11
70.240900
21
298.863000
0
LINE
8
Calque_1
10
70.240900
20
298.863000
11
70.087421
21
300.934710
0
LINE
8
Calque_1
10
70.087500
20
300.935000
11
69.931430
21
302.417080
0
LINE
8
Calque_1
10
69.931400
20
302.417000
11
70.008399
21
303.638110
0
LINE
8
Calque_1
10
70.008400
20
303.638000
11
69.968599
21
305.423940
0
LINE
8
Calque_1
10
69.968600
20
305.424000
11
69.795491
21
307.668310
0
LINE
8
Calque_1
10
69.795500
20
307.668000
11
69.785499
21
307.997689
0
LINE
8
Calque_1
10
69.785500
20
307.998000
11
69.752398
21
308.622259
0
LINE
8
Calque_1
10
69.752400
20
308.622000
11
69.622701
21
310.484930
0
LINE
8
Calque_1
10
69.622700
20
310.485000
11
69.722950
21
313.930790
0
LINE
8
Calque_1
10
69.722900
20
313.931000
11
69.796798
21
318.748260
0
LINE
8
Calque_1
10
69.796800
20
318.748000
11
69.796800
21
321.579870
0
LINE
8
Calque_1
10
69.796800
20
321.580000
11
69.807701
21
322.743750
0
LINE
8
Calque_1
10
69.807700
20
322.744000
11
69.753900
21
323.654538
0
LINE
8
Calque_1
10
69.753900
20
323.654000
11
69.748764
21
323.684973
0
LINE
8
Calque_1
10
69.748764
20
323.684973
11
69.743608
21
324.002821
0
LINE
8
Calque_1
10
69.743600
20
324.003000
11
69.885192
21
327.508210
0
LINE
8
Calque_1
10
69.885200
20
327.508000
11
69.949298
21
328.068688
0
LINE
8
Calque_1
10
69.949300
20
328.069000
11
70.032501
21
328.633819
0
LINE
8
Calque_1
10
70.032500
20
328.634000
11
70.063501
21
329.127511
0
LINE
8
Calque_1
10
70.063500
20
329.127000
11
70.167878
21
329.682529
0
LINE
8
Calque_1
10
70.167900
20
329.683000
11
70.243902
21
330.483977
0
LINE
8
Calque_1
10
70.243900
20
330.484000
11
70.259907
21
330.682951
0
LINE
8
Calque_1
10
70.259900
20
330.683000
11
70.259900
21
330.701098
0
LINE
8
Calque_1
10
70.259900
20
330.701000
11
70.647469
21
333.590230
0
LINE
8
Calque_1
10
70.647500
20
333.590000
11
70.665597
21
335.166130
0
LINE
8
Calque_1
10
70.665600
20
335.166000
11
70.740501
21
337.168460
0
LINE
8
Calque_1
10
70.740500
20
337.168000
11
70.811300
21
341.346040
0
LINE
8
Calque_1
10
70.811300
20
341.346000
11
70.869199
21
342.677700
0
LINE
8
Calque_1
10
70.869200
20
342.678000
11
71.043870
21
343.982320
0
LINE
8
Calque_1
10
71.043800
20
343.983000
11
71.203481
21
345.632510
0
LINE
8
Calque_1
10
71.203500
20
345.632000
11
71.348708
21
346.885670
0
LINE
8
Calque_1
10
71.348700
20
346.886000
11
71.375600
21
347.040511
0
LINE
8
Calque_1
10
71.375600
20
347.040000
11
71.498591
21
347.777938
0
LINE
8
Calque_1
10
71.498600
20
347.778000
11
71.553398
21
348.280300
0
LINE
8
Calque_1
10
71.553400
20
348.280000
11
71.568402
21
348.445359
0
LINE
8
Calque_1
10
71.568400
20
348.446000
11
71.578692
21
348.620149
0
LINE
8
Calque_1
10
71.578700
20
348.620000
11
71.610699
21
348.868560
0
LINE
8
Calque_1
10
71.610700
20
348.869000
11
71.620701
21
348.936201
0
LINE
8
Calque_1
10
71.620700
20
348.936000
11
71.752468
21
349.612967
0
LINE
8
Calque_1
10
71.752500
20
349.613000
11
71.817601
21
350.185571
0
LINE
8
Calque_1
10
71.817600
20
350.185000
11
71.840077
21
350.221731
0
LINE
8
Calque_1
10
71.840077
20
350.221731
11
71.917300
21
350.726048
0
LINE
8
Calque_1
10
81.581900
20
410.031000
11
81.577905
21
410.037006
0
LINE
8
Calque_1
10
81.577905
20
410.037006
11
81.583911
21
410.034016
0
LINE
8
Calque_1
10
81.583911
20
410.034016
11
81.581794
21
410.031026
0
LINE
8
Calque_1
10
81.581794
20
410.031026
11
81.581900
21
410.031000
0
LINE
8
Calque_1
10
71.917300
20
350.736000
11
71.966399
21
351.959700
0
LINE
8
Calque_1
10
71.966400
20
351.960000
11
72.017602
21
354.012590
0
LINE
8
Calque_1
10
72.017600
20
354.013000
11
72.225859
21
358.876770
0
LINE
8
Calque_1
10
72.225800
20
358.876000
11
72.253700
21
360.475390
0
LINE
8
Calque_1
10
72.253700
20
360.476000
11
72.353400
21
361.929140
0
LINE
8
Calque_1
10
72.353400
20
361.929000
11
72.442800
21
365.851230
0
LINE
8
Calque_1
10
71.917300
20
350.726000
11
71.917300
21
350.736000
0
LINE
8
Calque_1
10
72.442800
20
365.863000
11
72.453701
21
366.267629
0
LINE
8
Calque_1
10
72.453700
20
366.267000
11
74.027770
21
366.244801
0
LINE
8
Calque_1
10
74.027800
20
366.245000
11
75.642170
21
366.348359
0
LINE
8
Calque_1
10
75.642200
20
366.348000
11
76.410760
21
366.333001
0
LINE
8
Calque_1
10
76.410760
20
366.333001
11
77.712870
21
366.411002
0
LINE
8
Calque_1
10
77.712800
20
366.411000
11
79.339580
21
366.810459
0
LINE
8
Calque_1
10
79.339600
20
366.811000
11
80.755530
21
367.102459
0
LINE
8
Calque_1
10
80.755500
20
367.102000
11
81.574570
21
367.318519
0
LINE
8
Calque_1
10
81.574600
20
367.319000
11
82.580230
21
367.329292
0
LINE
8
Calque_1
10
82.580200
20
367.329000
11
83.561528
21
367.340906
0
LINE
8
Calque_1
10
72.442800
20
365.851000
11
72.442800
21
365.863000
0
LINE
8
Calque_1
10
83.573000
20
367.374000
11
84.415837
21
367.345600
0
LINE
8
Calque_1
10
84.415800
20
367.345000
11
86.675610
21
367.094882
0
LINE
8
Calque_1
10
86.675600
20
367.095000
11
88.478080
21
367.176100
0
LINE
8
Calque_1
10
88.478100
20
367.176000
11
90.228890
21
367.310879
0
LINE
8
Calque_1
10
90.228900
20
367.311000
11
90.507961
21
367.354900
0
LINE
8
Calque_1
10
90.507900
20
367.355000
11
90.548199
21
365.893600
0
LINE
8
Calque_1
10
90.548200
20
365.894000
11
90.632901
21
365.002583
0
LINE
8
Calque_1
10
90.632900
20
365.002000
11
90.650998
21
364.192230
0
LINE
8
Calque_1
10
90.651000
20
364.193000
11
91.037019
21
358.868780
0
LINE
8
Calque_1
10
91.037100
20
358.868000
11
90.932719
21
356.519310
0
LINE
8
Calque_1
10
90.932700
20
356.520000
11
90.825211
21
351.062980
0
LINE
8
Calque_1
10
90.825200
20
351.063000
11
90.809193
21
350.345210
0
LINE
8
Calque_1
10
90.809200
20
350.345000
11
90.826292
21
350.221501
0
LINE
8
Calque_1
10
90.826300
20
350.221000
11
91.128610
21
348.005110
0
LINE
8
Calque_1
10
91.128600
20
348.005000
11
91.143602
21
347.895960
0
LINE
8
Calque_1
10
91.143600
20
347.896000
11
91.297600
21
347.297762
0
LINE
8
Calque_1
10
91.297600
20
347.297762
11
91.333250
21
347.256773
0
LINE
8
Calque_1
10
91.333300
20
347.257000
11
91.486258
21
345.486050
0
LINE
8
Calque_1
10
91.486200
20
345.486000
11
91.679991
21
344.573911
0
LINE
8
Calque_1
10
91.680000
20
344.574000
11
91.819520
21
343.975071
0
LINE
8
Calque_1
10
91.819500
20
343.975000
11
91.856700
21
343.765191
0
LINE
8
Calque_1
10
91.856700
20
343.765000
11
91.871702
21
342.996050
0
LINE
8
Calque_1
10
91.871700
20
342.996000
11
92.034479
21
341.841550
0
LINE
8
Calque_1
10
92.034500
20
341.842000
11
92.317691
21
340.295840
0
LINE
8
Calque_1
10
92.317700
20
340.296000
11
92.553338
21
339.348261
0
LINE
8
Calque_1
10
92.553300
20
339.348000
11
92.723832
21
338.610062
0
LINE
8
Calque_1
10
92.723900
20
338.610000
11
92.792099
21
337.779559
0
LINE
8
Calque_1
10
92.792100
20
337.780000
11
93.155380
21
334.807570
0
LINE
8
Calque_1
10
93.155300
20
334.807000
11
93.272090
21
332.995220
0
LINE
8
Calque_1
10
93.272100
20
332.995000
11
93.443658
21
331.820920
0
LINE
8
Calque_1
10
93.443700
20
331.821000
11
93.507614
21
329.993549
0
LINE
8
Calque_1
10
93.507614
20
329.993549
11
93.459707
21
327.994880
0
LINE
8
Calque_1
10
93.459700
20
327.995000
11
93.471606
21
325.053060
0
LINE
8
Calque_1
10
83.561600
20
367.341000
11
83.561600
21
367.366000
0
LINE
8
Calque_1
10
83.561600
20
367.366000
11
83.573003
21
367.373990
0
LINE
8
Calque_1
10
93.471600
20
324.825000
11
93.842119
21
321.201970
0
LINE
8
Calque_1
10
93.471600
20
325.053000
11
93.471600
21
324.825000
0
LINE
8
Calque_1
10
93.842100
20
321.192000
11
93.895800
21
318.496040
0
LINE
8
Calque_1
10
93.895800
20
318.496000
11
94.102511
21
316.947260
0
LINE
8
Calque_1
10
94.102500
20
316.948000
11
94.220840
21
316.001801
0
LINE
8
Calque_1
10
94.220900
20
316.002000
11
94.312901
21
315.084741
0
LINE
8
Calque_1
10
94.312900
20
315.084000
11
94.488599
21
313.321320
0
LINE
8
Calque_1
10
94.488600
20
313.322000
11
94.418800
21
310.958840
0
LINE
8
Calque_1
10
94.418800
20
310.958000
11
94.435892
21
308.495100
0
LINE
8
Calque_1
10
94.435900
20
308.496000
11
94.384701
21
306.687840
0
LINE
8
Calque_1
10
94.384700
20
306.687000
11
94.408989
21
306.530940
0
LINE
8
Calque_1
10
94.409000
20
306.531000
11
94.644584
21
304.701458
0
LINE
8
Calque_1
10
94.644584
20
304.701458
11
94.887520
21
303.409740
0
LINE
8
Calque_1
10
94.887500
20
303.410000
11
94.905597
21
303.292180
0
LINE
8
Calque_1
10
94.905600
20
303.292000
11
94.921105
21
302.997441
0
LINE
8
Calque_1
10
94.921100
20
302.998000
11
95.023334
21
300.179781
0
LINE
8
Calque_1
10
95.023334
20
300.179781
11
95.246669
21
296.976670
0
LINE
8
Calque_1
10
93.842100
20
321.202000
11
93.842100
21
321.192000
0
LINE
8
Calque_1
10
95.246600
20
296.879000
11
95.869299
21
293.029630
0
LINE
8
Calque_1
10
95.869300
20
293.030000
11
95.976782
21
292.281201
0
LINE
8
Calque_1
10
95.976800
20
292.281000
11
95.966799
21
292.200900
0
LINE
8
Calque_1
10
95.966800
20
292.201000
11
95.996801
21
291.799470
0
LINE
8
Calque_1
10
95.996800
20
291.799000
11
96.179219
21
290.435260
0
LINE
8
Calque_1
10
96.179200
20
290.436000
11
96.429310
21
289.066570
0
LINE
8
Calque_1
10
96.429400
20
289.066000
11
96.559109
21
288.188021
0
LINE
8
Calque_1
10
96.559100
20
288.188000
11
96.657300
21
286.950350
0
LINE
8
Calque_1
10
96.657300
20
286.951000
11
96.791658
21
281.922890
0
LINE
8
Calque_1
10
96.791600
20
281.923000
11
96.915110
21
278.712350
0
LINE
8
Calque_1
10
96.915100
20
278.712000
11
96.791071
21
275.507540
0
LINE
8
Calque_1
10
96.791100
20
275.507000
11
96.826800
21
269.826220
0
LINE
8
Calque_1
10
96.826800
20
269.827000
11
96.793201
21
268.775900
0
LINE
8
Calque_1
10
96.793200
20
268.776000
11
96.756000
21
268.033932
0
LINE
8
Calque_1
10
96.756000
20
268.034000
11
96.774097
21
265.202650
0
LINE
8
Calque_1
10
96.774100
20
265.202000
11
96.545691
21
265.179299
0
LINE
8
Calque_1
10
95.246600
20
296.976000
11
95.246600
21
296.879000
0
LINE
8
Calque_1
10
95.940000
20
265.179000
11
95.087863
21
265.154711
0
LINE
8
Calque_1
10
95.087900
20
265.155000
11
94.070910
21
265.035631
0
LINE
8
Calque_1
10
94.070900
20
265.036000
11
93.682810
21
264.928000
0
LINE
8
Calque_1
10
93.682800
20
264.928000
11
92.453930
21
264.928000
0
LINE
8
Calque_1
10
92.454000
20
264.928000
11
90.717670
21
264.739381
0
LINE
8
Calque_1
10
90.717600
20
264.739000
11
89.197280
21
264.865090
0
LINE
8
Calque_1
10
89.197300
20
264.865000
11
87.479580
21
264.884103
0
LINE
8
Calque_1
10
87.479600
20
264.884000
11
84.763480
21
264.783228
0
LINE
8
Calque_1
10
84.763500
20
264.784000
11
83.425600
21
264.851201
0
LINE
8
Calque_1
10
83.425600
20
264.851000
11
80.582880
21
264.825203
0
LINE
8
Calque_1
10
80.582900
20
264.825000
11
80.528602
21
264.835001
0
LINE
8
Calque_1
10
80.528600
20
264.835000
11
80.454699
21
264.855214
0
LINE
8
Calque_1
10
80.454700
20
264.855000
11
80.158600
21
264.898900
0
LINE
8
Calque_1
10
80.158600
20
264.899000
11
80.033021
21
264.909001
0
LINE
8
Calque_1
10
96.545700
20
265.179000
11
95.940000
21
265.179000
0
LINE
8
Calque_1
10
79.937900
20
264.909000
11
79.134851
21
264.921912
0
LINE
8
Calque_1
10
79.134800
20
264.922000
11
77.748840
21
264.922000
0
LINE
8
Calque_1
10
77.748900
20
264.922000
11
76.229090
21
264.777310
0
LINE
8
Calque_1
10
76.229100
20
264.777000
11
73.377600
21
265.047780
0
LINE
8
Calque_1
10
73.377600
20
265.048000
11
71.664520
21
265.140501
0
LINE
8
Calque_1
10
71.664500
20
265.141000
11
71.312591
21
265.215398
0
LINE
8
Calque_1
10
71.312600
20
265.215000
11
69.494620
21
265.444960
0
LINE
8
Calque_1
10
69.494600
20
265.445000
11
69.494600
21
265.662040
0
LINE
8
Calque_1
10
69.494600
20
265.662000
11
69.429002
21
266.312091
0
LINE
8
Calque_1
10
80.033000
20
264.909000
11
79.937900
21
264.909000
0
LINE
8
Calque_1
10
71.664700
20
265.140000
11
71.621300
21
265.143995
0
LINE
8
Calque_1
10
71.621300
20
265.144000
11
71.664700
21
265.140005
0
LINE
8
Calque_1
10
69.429000
20
266.312000
11
69.429169
21
266.311206
0
LINE
8
Calque_1
10
92.723900
20
338.610000
11
92.717894
21
338.689100
0
LINE
8
Calque_1
10
92.717900
20
338.689000
11
92.723906
21
338.609900
0
LINE
8
Calque_1
10
91.856700
20
343.765000
11
91.859690
21
343.833699
0
LINE
8
Calque_1
10
70.063800
20
329.127000
11
70.050888
21
329.079499
0
LINE
8
Calque_1
10
70.050900
20
329.080000
11
70.063812
21
329.127501
0
LINE
8
Calque_1
10
91.859700
20
343.834000
11
91.859700
21
343.750000
0
LINE
8
Calque_1
10
91.859700
20
343.750000
11
91.856710
21
343.765002
0
LINE
8
Calque_1
10
91.856710
20
343.765002
11
91.856700
21
343.765000
0
LINE
8
Calque_1
10
103.467000
20
617.522000
11
103.766209
21
619.158600
0
LINE
8
Calque_1
10
103.767000
20
619.159000
11
105.332455
21
624.055125
0
LINE
8
Calque_1
10
105.332455
20
624.055125
11
107.153360
21
628.467980
0
LINE
8
Calque_1
10
107.153000
20
628.468000
11
111.713430
21
638.337660
0
LINE
8
Calque_1
10
111.713000
20
638.337000
11
118.323960
21
651.876700
0
LINE
8
Calque_1
10
118.324000
20
651.877000
11
124.764940
21
664.080400
0
LINE
8
Calque_1
10
124.765000
20
664.080000
11
128.000460
21
669.940090
0
LINE
8
Calque_1
10
128.001000
20
669.940000
11
131.865880
21
676.392840
0
LINE
8
Calque_1
10
131.866000
20
676.393000
11
135.306090
21
681.954930
0
LINE
8
Calque_1
10
135.306000
20
681.955000
11
137.838140
21
685.670010
0
LINE
8
Calque_1
10
137.848000
20
685.680000
11
140.561530
21
689.985660
0
LINE
8
Calque_1
10
140.561000
20
689.986000
11
140.577007
21
690.011665
0
LINE
8
Calque_1
10
140.577000
20
690.012000
11
144.088930
21
695.186370
0
LINE
8
Calque_1
10
144.089000
20
695.186000
11
146.456820
21
698.390440
0
LINE
8
Calque_1
10
146.457000
20
698.391000
11
147.677332
21
697.454024
0
LINE
8
Calque_1
10
147.677332
20
697.454024
11
148.707510
21
696.385460
0
LINE
8
Calque_1
10
148.708000
20
696.385000
11
148.743100
21
696.343090
0
LINE
8
Calque_1
10
148.743000
20
696.343000
11
153.005770
21
691.039460
0
LINE
8
Calque_1
10
137.838000
20
685.670000
11
137.848001
21
685.680054
0
LINE
8
Calque_1
10
153.015000
20
691.030000
11
156.682470
21
686.363100
0
LINE
8
Calque_1
10
156.683000
20
686.363000
11
162.232000
21
679.341230
0
LINE
8
Calque_1
10
162.232000
20
679.341000
11
164.509601
21
676.445074
0
LINE
8
Calque_1
10
164.509601
20
676.445074
11
166.580570
21
673.475190
0
LINE
8
Calque_1
10
166.581000
20
673.475000
11
166.597007
21
673.450129
0
LINE
8
Calque_1
10
166.597000
20
673.450000
11
171.951700
21
665.147150
0
LINE
8
Calque_1
10
171.951000
20
665.147000
11
178.808970
21
653.994700
0
LINE
8
Calque_1
10
153.005000
20
691.040000
11
153.015001
21
691.029946
0
LINE
8
Calque_1
10
178.809000
20
653.985000
11
180.908267
21
650.315471
0
LINE
8
Calque_1
10
180.908267
20
650.315471
11
182.853710
21
646.618530
0
LINE
8
Calque_1
10
182.854000
20
646.619000
11
184.632789
21
642.575606
0
LINE
8
Calque_1
10
184.632789
20
642.575606
11
186.170070
21
638.337370
0
LINE
8
Calque_1
10
178.809000
20
653.995000
11
178.809000
21
653.985000
0
LINE
8
Calque_1
10
186.170000
20
638.327000
11
189.189450
21
629.080540
0
LINE
8
Calque_1
10
189.189000
20
629.081000
11
190.545521
21
624.237020
0
LINE
8
Calque_1
10
190.545521
20
624.237020
11
191.862220
21
619.013900
0
LINE
8
Calque_1
10
191.863000
20
619.014000
11
191.417551
21
618.908061
0
LINE
8
Calque_1
10
191.417000
20
618.908000
11
190.945709
21
618.809787
0
LINE
8
Calque_1
10
190.946000
20
618.809000
11
189.779670
21
618.471551
0
LINE
8
Calque_1
10
189.780000
20
618.472000
11
189.493708
21
618.398102
0
LINE
8
Calque_1
10
189.493000
20
618.398000
11
188.752482
21
618.252797
0
LINE
8
Calque_1
10
188.753000
20
618.253000
11
187.361350
21
617.704731
0
LINE
8
Calque_1
10
187.361000
20
617.705000
11
187.260750
21
617.682246
0
LINE
8
Calque_1
10
187.261000
20
617.682000
11
187.061531
21
617.628792
0
LINE
8
Calque_1
10
187.061000
20
617.629000
11
186.729231
21
617.525654
0
LINE
8
Calque_1
10
186.170000
20
638.337000
11
186.170000
21
638.327000
0
LINE
8
Calque_1
10
186.720000
20
617.525000
11
186.060090
21
617.290897
0
LINE
8
Calque_1
10
186.060000
20
617.291000
11
184.708660
21
616.938046
0
LINE
8
Calque_1
10
184.708000
20
616.938000
11
184.330750
21
616.840660
0
LINE
8
Calque_1
10
184.330750
20
616.840660
11
184.298201
21
616.823806
0
LINE
8
Calque_1
10
184.299000
20
616.824000
11
182.513070
21
616.587304
0
LINE
8
Calque_1
10
182.513000
20
616.587000
11
181.160110
21
616.326571
0
LINE
8
Calque_1
10
181.160000
20
616.327000
11
179.084670
21
616.147666
0
LINE
8
Calque_1
10
179.084000
20
616.148000
11
178.050470
21
616.058095
0
LINE
8
Calque_1
10
178.051000
20
616.058000
11
176.645920
21
616.032335
0
LINE
8
Calque_1
10
176.646000
20
616.032000
11
175.629010
21
615.834595
0
LINE
8
Calque_1
10
175.629000
20
615.834000
11
175.377782
21
615.788439
0
LINE
8
Calque_1
10
175.377782
20
615.788439
11
174.702441
21
615.637626
0
LINE
8
Calque_1
10
174.702000
20
615.638000
11
174.530950
21
615.592016
0
LINE
8
Calque_1
10
174.531000
20
615.592000
11
174.202340
21
615.531490
0
LINE
8
Calque_1
10
186.730000
20
617.525000
11
186.720000
21
617.525000
0
LINE
8
Calque_1
10
174.193000
20
615.532000
11
173.584253
21
615.382669
0
LINE
8
Calque_1
10
173.584000
20
615.382000
11
172.983010
21
615.280188
0
LINE
8
Calque_1
10
172.983000
20
615.280000
11
172.941101
21
615.269681
0
LINE
8
Calque_1
10
172.941000
20
615.270000
11
172.595664
21
615.181639
0
LINE
8
Calque_1
10
172.595664
20
615.181639
11
172.601479
21
615.173903
0
LINE
8
Calque_1
10
172.601000
20
615.174000
11
172.135400
21
615.078909
0
LINE
8
Calque_1
10
172.136000
20
615.079000
11
171.856952
21
615.072915
0
LINE
8
Calque_1
10
174.203000
20
615.532000
11
174.193000
21
615.532000
0
LINE
8
Calque_1
10
171.846000
20
615.073000
11
171.246550
21
615.027994
0
LINE
8
Calque_1
10
171.247000
20
615.028000
11
171.298334
21
615.033027
0
LINE
8
Calque_1
10
171.298334
20
615.033027
11
171.191199
21
615.038054
0
LINE
8
Calque_1
10
171.191000
20
615.038000
11
169.694970
21
615.102108
0
LINE
8
Calque_1
10
169.695000
20
615.102000
11
166.386160
21
615.233260
0
LINE
8
Calque_1
10
166.386000
20
615.233000
11
164.363380
21
615.205113
0
LINE
8
Calque_1
10
164.364000
20
615.205000
11
163.012150
21
615.137796
0
LINE
8
Calque_1
10
171.857000
20
615.073000
11
171.846000
21
615.073000
0
LINE
8
Calque_1
10
162.994000
20
615.138000
11
162.581110
21
615.138000
0
LINE
8
Calque_1
10
163.012000
20
615.138000
11
162.994000
21
615.138000
0
LINE
8
Calque_1
10
162.560000
20
615.138000
11
160.906350
21
614.966444
0
LINE
8
Calque_1
10
162.581000
20
615.138000
11
162.560000
21
615.138000
0
LINE
8
Calque_1
10
160.618000
20
614.967000
11
159.354510
21
614.881196
0
LINE
8
Calque_1
10
159.355000
20
614.881000
11
158.819630
21
614.853589
0
LINE
8
Calque_1
10
158.819000
20
614.853000
11
158.279502
21
614.784314
0
LINE
8
Calque_1
10
158.280000
20
614.785000
11
158.258807
21
614.774946
0
LINE
8
Calque_1
10
158.259000
20
614.775000
11
158.162901
21
614.775000
0
LINE
8
Calque_1
10
158.163000
20
614.775000
11
155.466010
21
614.722798
0
LINE
8
Calque_1
10
155.466000
20
614.723000
11
152.992250
21
614.504402
0
LINE
8
Calque_1
10
152.992000
20
614.504000
11
152.550681
21
614.463704
0
LINE
8
Calque_1
10
152.550000
20
614.464000
11
151.659620
21
614.414391
0
LINE
8
Calque_1
10
151.660000
20
614.414000
11
150.588230
21
614.316819
0
LINE
8
Calque_1
10
160.907000
20
614.967000
11
160.888000
21
614.967000
0
LINE
8
Calque_1
10
160.888000
20
614.967000
11
160.758000
21
614.967000
0
LINE
8
Calque_1
10
160.758000
20
614.967000
11
160.618000
21
614.967000
0
LINE
8
Calque_1
10
150.566000
20
614.317000
11
150.016159
21
614.306152
0
LINE
8
Calque_1
10
150.588000
20
614.317000
11
150.566000
21
614.317000
0
LINE
8
Calque_1
10
149.988000
20
614.306000
11
148.722960
21
614.155611
0
LINE
8
Calque_1
10
148.723000
20
614.156000
11
147.312230
21
614.018020
0
LINE
8
Calque_1
10
147.312000
20
614.018000
11
146.005620
21
613.856790
0
LINE
8
Calque_1
10
150.016000
20
614.306000
11
149.988000
21
614.306000
0
LINE
8
Calque_1
10
145.995000
20
613.856000
11
146.086950
21
613.865761
0
LINE
8
Calque_1
10
146.086950
20
613.865761
11
145.977728
21
613.857614
0
LINE
8
Calque_1
10
145.977728
20
613.857614
11
145.555231
21
613.823986
0
LINE
8
Calque_1
10
145.556000
20
613.824000
11
144.989110
21
613.782116
0
LINE
8
Calque_1
10
144.989000
20
613.783000
11
144.628810
21
613.749901
0
LINE
8
Calque_1
10
146.006000
20
613.856000
11
145.995000
21
613.856000
0
LINE
8
Calque_1
10
144.619000
20
613.749000
11
144.289259
21
613.758029
0
LINE
8
Calque_1
10
144.289259
20
613.758029
11
143.776671
21
613.760906
0
LINE
8
Calque_1
10
143.776000
20
613.761000
11
143.742901
21
613.761000
0
LINE
8
Calque_1
10
143.743000
20
613.761000
11
142.874829
21
613.771054
0
LINE
8
Calque_1
10
142.875000
20
613.771000
11
141.327810
21
613.843416
0
LINE
8
Calque_1
10
141.328000
20
613.844000
11
138.503370
21
613.903902
0
LINE
8
Calque_1
10
138.503000
20
613.904000
11
136.821450
21
614.110692
0
LINE
8
Calque_1
10
136.822000
20
614.110000
11
134.070230
21
614.250044
0
LINE
8
Calque_1
10
134.070000
20
614.250000
11
133.779573
21
614.260054
0
LINE
8
Calque_1
10
133.779000
20
614.260000
11
133.699898
21
614.270054
0
LINE
8
Calque_1
10
133.700000
20
614.270000
11
133.237501
21
614.299395
0
LINE
8
Calque_1
10
133.238000
20
614.300000
11
131.327520
21
614.394615
0
LINE
8
Calque_1
10
131.327000
20
614.394000
11
130.015450
21
614.550051
0
LINE
8
Calque_1
10
130.016000
20
614.550000
11
129.408801
21
614.656468
0
LINE
8
Calque_1
10
129.409000
20
614.657000
11
128.097970
21
614.790826
0
LINE
8
Calque_1
10
128.098000
20
614.791000
11
127.195211
21
614.818411
0
LINE
8
Calque_1
10
127.195000
20
614.818000
11
125.420430
21
615.001965
0
LINE
8
Calque_1
10
125.420000
20
615.002000
11
124.269690
21
615.052588
0
LINE
8
Calque_1
10
124.270000
20
615.053000
11
124.042623
21
615.064377
0
LINE
8
Calque_1
10
124.043000
20
615.064000
11
123.826989
21
615.075906
0
LINE
8
Calque_1
10
123.827000
20
615.076000
11
122.743870
21
615.095050
0
LINE
8
Calque_1
10
122.743000
20
615.095000
11
121.778711
21
615.151806
0
LINE
8
Calque_1
10
121.779000
20
615.152000
11
120.633340
21
615.253282
0
LINE
8
Calque_1
10
144.629000
20
613.749000
11
144.619000
21
613.749000
0
LINE
8
Calque_1
10
120.555000
20
615.253000
11
120.376192
21
615.242946
0
LINE
8
Calque_1
10
120.377000
20
615.243000
11
119.435979
21
615.311712
0
LINE
8
Calque_1
10
119.436000
20
615.312000
11
119.339401
21
615.312000
0
LINE
8
Calque_1
10
120.633000
20
615.253000
11
120.555000
21
615.253000
0
LINE
8
Calque_1
10
119.329000
20
615.312000
11
119.268000
21
615.312000
0
LINE
8
Calque_1
10
119.339000
20
615.312000
11
119.329000
21
615.312000
0
LINE
8
Calque_1
10
119.228000
20
615.312000
11
119.277099
21
615.322054
0
LINE
8
Calque_1
10
119.268000
20
615.312000
11
119.246000
21
615.312000
0
LINE
8
Calque_1
10
119.246000
20
615.312000
11
119.228000
21
615.312000
0
LINE
8
Calque_1
10
119.267000
20
615.322000
11
119.189001
21
615.340256
0
LINE
8
Calque_1
10
119.189000
20
615.340000
11
119.129101
21
615.350319
0
LINE
8
Calque_1
10
119.277000
20
615.322000
11
119.267000
21
615.322000
0
LINE
8
Calque_1
10
119.025000
20
615.350000
11
118.615722
21
615.377887
0
LINE
8
Calque_1
10
118.616000
20
615.378000
11
117.465680
21
615.471001
0
LINE
8
Calque_1
10
117.465000
20
615.471000
11
116.424760
21
615.550110
0
LINE
8
Calque_1
10
116.425000
20
615.550000
11
115.042140
21
615.716925
0
LINE
8
Calque_1
10
115.042000
20
615.717000
11
112.854530
21
615.836883
0
LINE
8
Calque_1
10
112.855000
20
615.837000
11
112.597140
21
615.847054
0
LINE
8
Calque_1
10
112.597000
20
615.847000
11
111.868360
21
615.958628
0
LINE
8
Calque_1
10
111.868000
20
615.959000
11
110.714580
21
616.065971
0
LINE
8
Calque_1
10
110.715000
20
616.066000
11
110.195650
21
616.094893
0
LINE
8
Calque_1
10
110.195000
20
616.095000
11
109.556802
21
616.211787
0
LINE
8
Calque_1
10
109.557000
20
616.211000
11
109.554027
21
616.221398
0
LINE
8
Calque_1
10
109.554027
20
616.221398
11
109.209219
21
616.306091
0
LINE
8
Calque_1
10
109.210000
20
616.306000
11
108.283441
21
616.441916
0
LINE
8
Calque_1
10
108.283000
20
616.442000
11
107.767272
21
616.570667
0
LINE
8
Calque_1
10
107.767000
20
616.571000
11
106.663710
21
616.836112
0
LINE
8
Calque_1
10
106.664000
20
616.836000
11
105.726593
21
617.135720
0
LINE
8
Calque_1
10
105.727000
20
617.136000
11
105.144089
21
617.283796
0
LINE
8
Calque_1
10
105.144000
20
617.284000
11
105.200173
21
617.282422
0
LINE
8
Calque_1
10
105.200173
20
617.282422
11
104.773481
21
617.375996
0
LINE
8
Calque_1
10
104.773000
20
617.376000
11
104.216442
21
617.433891
0
LINE
8
Calque_1
10
119.129000
20
615.350000
11
119.093000
21
615.350000
0
LINE
8
Calque_1
10
119.093000
20
615.350000
11
119.071000
21
615.350000
0
LINE
8
Calque_1
10
119.071000
20
615.350000
11
119.025000
21
615.350000
0
LINE
8
Calque_1
10
104.207000
20
617.434000
11
103.518671
21
617.522397
0
LINE
8
Calque_1
10
104.217000
20
617.434000
11
104.207000
21
617.434000
0
LINE
8
Calque_1
10
103.508000
20
617.522000
11
103.467201
21
617.522000
0
LINE
8
Calque_1
10
103.518000
20
617.522000
11
103.508000
21
617.522000
0
LINE
8
Calque_1
10
172.136000
20
615.079000
11
172.058001
21
615.063125
0
LINE
8
Calque_1
10
172.058000
20
615.063000
11
172.135999
21
615.078875
0
LINE
8
Calque_1
10
103.467000
20
617.522000
11
103.467265
21
617.522106
0
LINE
8
Calque_1
10
174.531000
20
615.592000
11
174.469500
21
615.568717
0
LINE
8
Calque_1
10
174.480000
20
615.569000
11
174.417650
21
615.558714
0
LINE
8
Calque_1
10
174.417650
20
615.558714
11
174.531199
21
615.592283
0
LINE
8
Calque_1
10
174.470000
20
615.569000
11
174.480000
21
615.569000
0
LINE
8
Calque_1
10
146.464000
20
698.401000
11
146.456989
21
698.392004
0
LINE
8
Calque_1
10
146.457000
20
698.391000
11
146.450994
21
698.396027
0
LINE
8
Calque_1
10
146.450994
20
698.396027
11
146.463906
21
698.401054
0
LINE
8
Calque_1
10
121.297000
20
554.736000
11
121.379433
21
557.326924
0
LINE
8
Calque_1
10
121.379433
20
557.326924
11
121.732631
21
559.743960
0
LINE
8
Calque_1
10
121.733000
20
559.744000
11
122.431076
21
562.206253
0
LINE
8
Calque_1
10
122.431076
20
562.206253
11
123.330830
21
564.745740
0
LINE
8
Calque_1
10
123.330000
20
564.746000
11
123.869501
21
566.340750
0
LINE
8
Calque_1
10
123.870000
20
566.341000
11
123.943898
21
566.747691
0
LINE
8
Calque_1
10
123.944000
20
566.748000
11
124.421490
21
567.925180
0
LINE
8
Calque_1
10
124.421000
20
567.925000
11
125.773390
21
570.800699
0
LINE
8
Calque_1
10
125.773390
20
570.800699
11
127.401180
21
573.505030
0
LINE
8
Calque_1
10
127.401000
20
573.505000
11
127.856789
21
574.102878
0
LINE
8
Calque_1
10
127.857000
20
574.103000
11
128.939100
21
575.159270
0
LINE
8
Calque_1
10
128.939000
20
575.159000
11
129.676941
21
576.090200
0
LINE
8
Calque_1
10
129.677000
20
576.090000
11
130.086799
21
576.580934
0
LINE
8
Calque_1
10
130.087000
20
576.581000
11
131.372190
21
577.484816
0
LINE
8
Calque_1
10
131.372000
20
577.485000
11
133.050970
21
578.843080
0
LINE
8
Calque_1
10
133.051000
20
578.843000
11
134.268555
21
579.612742
0
LINE
8
Calque_1
10
134.268555
20
579.612742
11
135.608240
21
580.286470
0
LINE
8
Calque_1
10
135.608240
20
580.286470
11
138.551430
21
581.385990
0
LINE
8
Calque_1
10
138.552000
20
581.386000
11
139.938206
21
581.954261
0
LINE
8
Calque_1
10
139.938206
20
581.954261
11
140.516220
21
582.293943
0
LINE
8
Calque_1
10
140.516000
20
582.294000
11
141.337649
21
582.466085
0
LINE
8
Calque_1
10
141.338000
20
582.466000
11
142.841086
21
582.913796
0
LINE
8
Calque_1
10
142.841086
20
582.913796
11
143.882540
21
583.152778
0
LINE
8
Calque_1
10
146.457000
20
698.392000
11
146.457000
21
698.392000
0
LINE
8
Calque_1
10
143.876000
20
583.148000
11
143.805772
21
583.129788
0
LINE
8
Calque_1
10
143.805772
20
583.129788
11
143.955346
21
583.103920
0
LINE
8
Calque_1
10
143.955346
20
583.103920
11
144.610318
21
582.978005
0
LINE
8
Calque_1
10
144.610000
20
582.978000
11
146.154090
21
582.512387
0
LINE
8
Calque_1
10
146.155000
20
582.512000
11
147.328745
21
582.273260
0
LINE
8
Calque_1
10
147.328745
20
582.273260
11
147.614340
21
582.291338
0
LINE
8
Calque_1
10
147.614000
20
582.292000
11
148.867160
21
581.710129
0
LINE
8
Calque_1
10
148.867000
20
581.710000
11
149.542994
21
581.476145
0
LINE
8
Calque_1
10
149.542994
20
581.476145
11
149.768238
21
581.475394
0
LINE
8
Calque_1
10
149.768000
20
581.475000
11
150.397930
21
581.201633
0
LINE
8
Calque_1
10
150.398000
20
581.202000
11
151.316154
21
580.963915
0
LINE
8
Calque_1
10
151.316154
20
580.963915
11
151.856310
21
581.003563
0
LINE
8
Calque_1
10
143.882000
20
583.153000
11
143.875994
21
583.147973
0
LINE
8
Calque_1
10
151.867000
20
581.003000
11
154.710297
21
579.899352
0
LINE
8
Calque_1
10
154.710297
20
579.899352
11
157.422720
21
578.382990
0
LINE
8
Calque_1
10
157.423000
20
578.383000
11
157.439007
21
578.372152
0
LINE
8
Calque_1
10
157.439000
20
578.372000
11
159.976376
21
576.534299
0
LINE
8
Calque_1
10
159.976376
20
576.534299
11
162.307420
21
574.462680
0
LINE
8
Calque_1
10
151.857000
20
581.003000
11
151.867000
21
581.003000
0
LINE
8
Calque_1
10
162.317000
20
574.453000
11
162.892574
21
573.548740
0
LINE
8
Calque_1
10
162.892574
20
573.548740
11
163.876600
21
571.887290
0
LINE
8
Calque_1
10
163.877000
20
571.887000
11
165.496705
21
569.168164
0
LINE
8
Calque_1
10
165.496705
20
569.168164
11
166.925910
21
566.301810
0
LINE
8
Calque_1
10
166.925000
20
566.302000
11
168.079464
21
563.855763
0
LINE
8
Calque_1
10
168.079464
20
563.855763
11
169.025130
21
561.580840
0
LINE
8
Calque_1
10
169.026000
20
561.581000
11
169.750500
21
559.185280
0
LINE
8
Calque_1
10
169.750000
20
559.185000
11
170.276068
21
557.795420
0
LINE
8
Calque_1
10
170.276000
20
557.796000
11
170.598461
21
556.931451
0
LINE
8
Calque_1
10
170.599000
20
556.931000
11
170.735419
21
556.528961
0
LINE
8
Calque_1
10
170.735000
20
556.529000
11
171.136010
21
553.779300
0
LINE
8
Calque_1
10
171.136000
20
553.779000
11
171.585069
21
551.809610
0
LINE
8
Calque_1
10
171.585000
20
551.810000
11
171.970511
21
547.390640
0
LINE
8
Calque_1
10
171.971000
20
547.391000
11
172.073320
21
546.508883
0
LINE
8
Calque_1
10
172.073000
20
546.508000
11
171.818749
21
545.029020
0
LINE
8
Calque_1
10
171.819000
20
545.030000
11
171.862900
21
543.154150
0
LINE
8
Calque_1
10
162.307000
20
574.463000
11
162.317001
21
574.452946
0
LINE
8
Calque_1
10
171.863000
20
543.138000
11
171.684346
21
539.835915
0
LINE
8
Calque_1
10
171.684346
20
539.835915
11
171.091992
21
536.713080
0
LINE
8
Calque_1
10
171.863000
20
543.154000
11
171.863000
21
543.138000
0
LINE
8
Calque_1
10
171.092000
20
536.698000
11
170.555082
21
535.338400
0
LINE
8
Calque_1
10
170.555000
20
535.338000
11
170.019119
21
533.421830
0
LINE
8
Calque_1
10
170.019000
20
533.422000
11
169.512572
21
532.441191
0
LINE
8
Calque_1
10
169.512000
20
532.441000
11
169.459300
21
532.327309
0
LINE
8
Calque_1
10
169.460000
20
532.327000
11
168.730330
21
530.634080
0
LINE
8
Calque_1
10
168.730000
20
530.635000
11
168.296430
21
529.010810
0
LINE
8
Calque_1
10
168.296000
20
529.010000
11
166.870412
21
526.498931
0
LINE
8
Calque_1
10
166.870412
20
526.498931
11
165.278100
21
524.172060
0
LINE
8
Calque_1
10
165.279000
20
524.172000
11
164.196900
21
523.187561
0
LINE
8
Calque_1
10
164.196000
20
523.188000
11
163.233259
21
522.157060
0
LINE
8
Calque_1
10
163.234000
20
522.157000
11
162.962191
21
521.847970
0
LINE
8
Calque_1
10
162.962000
20
521.848000
11
162.588890
21
521.306430
0
LINE
8
Calque_1
10
162.589000
20
521.306000
11
162.563706
21
521.259000
0
LINE
8
Calque_1
10
162.563000
20
521.259000
11
162.493200
21
521.188200
0
LINE
8
Calque_1
10
162.494000
20
521.189000
11
160.843871
21
519.645194
0
LINE
8
Calque_1
10
160.843871
20
519.645194
11
159.046150
21
518.173170
0
LINE
8
Calque_1
10
159.046000
20
518.173000
11
158.394324
21
517.632985
0
LINE
8
Calque_1
10
158.394324
20
517.632985
11
158.283771
21
517.501721
0
LINE
8
Calque_1
10
158.284000
20
517.502000
11
155.842373
21
516.703270
0
LINE
8
Calque_1
10
155.842373
20
516.703270
11
152.882270
21
515.951190
0
LINE
8
Calque_1
10
152.882000
20
515.951000
11
151.188560
21
515.870900
0
LINE
8
Calque_1
10
151.188000
20
515.871000
11
148.175046
21
515.448587
0
LINE
8
Calque_1
10
148.175046
20
515.448587
11
145.600760
21
515.162000
0
LINE
8
Calque_1
10
145.601000
20
515.162000
11
144.499770
21
515.316511
0
LINE
8
Calque_1
10
144.500000
20
515.316000
11
141.356530
21
515.595058
0
LINE
8
Calque_1
10
141.356000
20
515.595000
11
140.018090
21
516.016679
0
LINE
8
Calque_1
10
140.019000
20
516.017000
11
138.388610
21
516.638151
0
LINE
8
Calque_1
10
138.388000
20
516.638000
11
135.628356
21
517.908018
0
LINE
8
Calque_1
10
135.628356
20
517.908018
11
132.639674
21
519.544644
0
LINE
8
Calque_1
10
132.639674
20
519.544644
11
129.988355
21
521.288315
0
LINE
8
Calque_1
10
129.988355
20
521.288315
11
128.966207
21
522.119180
0
LINE
8
Calque_1
10
128.966207
20
522.119180
11
128.240800
21
522.879470
0
LINE
8
Calque_1
10
128.241000
20
522.880000
11
127.164443
21
524.756024
0
LINE
8
Calque_1
10
127.164443
20
524.756024
11
126.354810
21
526.934530
0
LINE
8
Calque_1
10
126.355000
20
526.934000
11
126.080598
21
528.584030
0
LINE
8
Calque_1
10
126.080000
20
528.584000
11
125.171704
21
531.856985
0
LINE
8
Calque_1
10
125.171704
20
531.856985
11
124.339530
21
534.745370
0
LINE
8
Calque_1
10
124.340000
20
534.745000
11
124.175670
21
536.088580
0
LINE
8
Calque_1
10
124.176000
20
536.089000
11
124.157903
21
536.203728
0
LINE
8
Calque_1
10
124.158000
20
536.204000
11
123.774040
21
538.320660
0
LINE
8
Calque_1
10
123.774000
20
538.320000
11
123.381782
21
539.515280
0
LINE
8
Calque_1
10
123.381000
20
539.516000
11
123.376296
21
539.930083
0
LINE
8
Calque_1
10
123.376296
20
539.930083
11
123.223380
21
541.063190
0
LINE
8
Calque_1
10
123.224000
20
541.063000
11
122.582701
21
543.299560
0
LINE
8
Calque_1
10
122.582000
20
543.299000
11
121.933887
21
546.225261
0
LINE
8
Calque_1
10
121.933887
20
546.225261
11
121.466300
21
549.225240
0
LINE
8
Calque_1
10
121.467000
20
549.226000
11
121.382799
21
551.465660
0
LINE
8
Calque_1
10
121.383000
20
551.465000
11
121.297701
21
554.735600
0
LINE
8
Calque_1
10
171.092000
20
536.713000
11
171.092000
21
536.698000
0
LINE
8
Calque_1
10
170.735000
20
556.530000
11
170.715897
21
556.612698
0
LINE
8
Calque_1
10
170.716000
20
556.612000
11
170.735103
21
556.529302
0
LINE
8
Calque_1
10
121.297000
20
554.736000
11
121.296738
21
554.736529
0
LINE
8
Calque_1
10
121.506000
20
438.686000
11
121.518912
21
439.433238
0
LINE
8
Calque_1
10
121.519000
20
439.433000
11
121.789134
21
442.317751
0
LINE
8
Calque_1
10
121.789134
20
442.317751
11
122.509120
21
445.067270
0
LINE
8
Calque_1
10
122.509000
20
445.078000
11
123.295776
21
446.520522
0
LINE
8
Calque_1
10
123.295776
20
446.520522
11
124.487180
21
448.436960
0
LINE
8
Calque_1
10
124.487000
20
448.437000
11
125.654017
21
450.384032
0
LINE
8
Calque_1
10
125.654017
20
450.384032
11
126.748360
21
451.816640
0
LINE
8
Calque_1
10
126.749000
20
451.817000
11
128.399030
21
453.243270
0
LINE
8
Calque_1
10
128.399000
20
453.243000
11
129.297648
21
454.043469
0
LINE
8
Calque_1
10
129.297000
20
454.044000
11
129.702659
21
454.621230
0
LINE
8
Calque_1
10
129.703000
20
454.621000
11
129.779001
21
454.799279
0
LINE
8
Calque_1
10
129.779000
20
454.799000
11
130.224968
21
455.134380
0
LINE
8
Calque_1
10
130.225000
20
455.134000
11
131.321060
21
455.956689
0
LINE
8
Calque_1
10
131.321000
20
455.957000
11
133.191690
21
457.637000
0
LINE
8
Calque_1
10
133.192000
20
457.637000
11
135.237350
21
458.582159
0
LINE
8
Calque_1
10
135.237000
20
458.582000
11
135.658679
21
458.809377
0
LINE
8
Calque_1
10
135.659000
20
458.810000
11
135.918932
21
458.858101
0
LINE
8
Calque_1
10
122.509000
20
445.067000
11
122.509000
21
445.078000
0
LINE
8
Calque_1
10
135.929000
20
458.858000
11
136.720680
21
459.041959
0
LINE
8
Calque_1
10
136.720000
20
459.042000
11
137.261059
21
459.277651
0
LINE
8
Calque_1
10
137.262000
20
459.277000
11
138.858800
21
459.466140
0
LINE
8
Calque_1
10
138.858000
20
459.467000
11
139.890786
21
459.790584
0
LINE
8
Calque_1
10
139.890786
20
459.790584
11
140.118900
21
459.932079
0
LINE
8
Calque_1
10
140.119000
20
459.932000
11
141.697040
21
460.283003
0
LINE
8
Calque_1
10
141.697040
20
460.283003
11
143.333280
21
460.412081
0
LINE
8
Calque_1
10
135.919000
20
458.858000
11
135.929000
21
458.858000
0
LINE
8
Calque_1
10
143.343000
20
460.416000
11
145.947490
21
459.855312
0
LINE
8
Calque_1
10
145.947000
20
459.855000
11
149.362626
21
458.874578
0
LINE
8
Calque_1
10
149.362626
20
458.874578
11
151.333220
21
458.497980
0
LINE
8
Calque_1
10
151.333000
20
458.498000
11
152.014097
21
458.410100
0
LINE
8
Calque_1
10
152.014000
20
458.410000
11
152.040405
21
458.387802
0
LINE
8
Calque_1
10
152.041000
20
458.388000
11
152.103500
21
458.348199
0
LINE
8
Calque_1
10
152.103000
20
458.348000
11
154.279610
21
457.158920
0
LINE
8
Calque_1
10
154.280000
20
457.159000
11
156.475740
21
455.129670
0
LINE
8
Calque_1
10
156.476000
20
455.130000
11
157.549899
21
454.106452
0
LINE
8
Calque_1
10
157.549899
20
454.106452
11
158.915120
21
452.746680
0
LINE
8
Calque_1
10
158.915000
20
452.746000
11
161.440950
21
449.723450
0
LINE
8
Calque_1
10
161.441000
20
449.724000
11
162.286938
21
447.878630
0
LINE
8
Calque_1
10
162.287000
20
447.878000
11
162.700178
21
447.197761
0
LINE
8
Calque_1
10
162.700178
20
447.197761
11
162.902981
21
446.987623
0
LINE
8
Calque_1
10
162.903000
20
446.988000
11
163.121080
21
446.615409
0
LINE
8
Calque_1
10
163.121000
20
446.615000
11
164.503340
21
443.461190
0
LINE
8
Calque_1
10
164.503000
20
443.462000
11
165.293017
21
441.993843
0
LINE
8
Calque_1
10
165.293017
20
441.993843
11
165.791810
21
441.150510
0
LINE
8
Calque_1
10
165.792000
20
441.150000
11
165.936700
21
440.805841
0
LINE
8
Calque_1
10
165.936000
20
440.806000
11
166.076929
21
439.954160
0
LINE
8
Calque_1
10
166.076929
20
439.954160
11
166.344760
21
439.171470
0
LINE
8
Calque_1
10
166.345000
20
439.171000
11
166.845739
21
437.932320
0
LINE
8
Calque_1
10
166.846000
20
437.933000
11
167.017050
21
437.672552
0
LINE
8
Calque_1
10
167.017000
20
437.672000
11
167.035098
21
437.599099
0
LINE
8
Calque_1
10
167.035000
20
437.599000
11
167.989811
21
434.022856
0
LINE
8
Calque_1
10
167.989811
20
434.022856
11
168.787350
21
430.653180
0
LINE
8
Calque_1
10
168.787000
20
430.654000
11
168.921222
21
428.872826
0
LINE
8
Calque_1
10
168.921222
20
428.872826
11
169.017470
21
426.578810
0
LINE
8
Calque_1
10
169.018000
20
426.578000
11
169.168455
21
421.767942
0
LINE
8
Calque_1
10
169.168455
20
421.767942
11
168.814911
21
416.941910
0
LINE
8
Calque_1
10
168.815000
20
416.942000
11
168.124184
21
411.371339
0
LINE
8
Calque_1
10
168.124184
20
411.371339
11
167.594512
21
408.769903
0
LINE
8
Calque_1
10
167.594512
20
408.769903
11
166.809960
21
406.269300
0
LINE
8
Calque_1
10
166.810000
20
406.270000
11
166.002230
21
404.148810
0
LINE
8
Calque_1
10
166.002230
20
404.148810
11
165.198210
21
402.562220
0
LINE
8
Calque_1
10
165.198000
20
402.562000
11
163.662173
21
400.616972
0
LINE
8
Calque_1
10
163.662173
20
400.616972
11
161.948070
21
398.930710
0
LINE
8
Calque_1
10
161.948000
20
398.931000
11
161.328921
21
398.493300
0
LINE
8
Calque_1
10
161.329000
20
398.493000
11
160.029850
21
397.666170
0
LINE
8
Calque_1
10
160.030000
20
397.666000
11
159.354477
21
397.116336
0
LINE
8
Calque_1
10
159.354477
20
397.116336
11
159.253301
21
396.982320
0
LINE
8
Calque_1
10
159.253000
20
396.982000
11
157.907396
21
396.424246
0
LINE
8
Calque_1
10
157.907396
20
396.424246
11
155.704390
21
395.511290
0
LINE
8
Calque_1
10
155.705000
20
395.512000
11
154.835289
21
395.006612
0
LINE
8
Calque_1
10
154.835000
20
395.006000
11
154.208163
21
394.814281
0
LINE
8
Calque_1
10
154.208000
20
394.815000
11
153.602870
21
394.538011
0
LINE
8
Calque_1
10
153.603000
20
394.538000
11
152.634071
21
394.400028
0
LINE
8
Calque_1
10
152.634000
20
394.400000
11
151.531740
21
394.301300
0
LINE
8
Calque_1
10
143.334000
20
460.412000
11
143.342996
21
460.415995
0
LINE
8
Calque_1
10
151.522000
20
394.301000
11
149.131501
21
394.110191
0
LINE
8
Calque_1
10
149.131501
20
394.110191
11
147.304170
21
394.170780
0
LINE
8
Calque_1
10
151.532000
20
394.301000
11
151.522000
21
394.301000
0
LINE
8
Calque_1
10
147.294000
20
394.171000
11
146.158670
21
394.518781
0
LINE
8
Calque_1
10
146.159000
20
394.518000
11
144.747147
21
394.752305
0
LINE
8
Calque_1
10
144.747147
20
394.752305
11
143.930720
21
394.842008
0
LINE
8
Calque_1
10
143.930000
20
394.842000
11
142.381305
21
395.422645
0
LINE
8
Calque_1
10
142.381305
20
395.422645
11
140.299210
21
396.296690
0
LINE
8
Calque_1
10
140.299000
20
396.297000
11
139.448411
21
396.566761
0
LINE
8
Calque_1
10
139.449000
20
396.567000
11
138.760150
21
397.012960
0
LINE
8
Calque_1
10
138.760000
20
397.013000
11
138.744998
21
397.023001
0
LINE
8
Calque_1
10
138.745000
20
397.023000
11
136.433961
21
398.633597
0
LINE
8
Calque_1
10
136.433961
20
398.633597
11
134.263630
21
400.542170
0
LINE
8
Calque_1
10
134.264000
20
400.542000
11
134.250004
21
400.554409
0
LINE
8
Calque_1
10
134.250000
20
400.554000
11
133.489840
21
401.216489
0
LINE
8
Calque_1
10
133.490000
20
401.217000
11
133.107590
21
401.572528
0
LINE
8
Calque_1
10
133.107000
20
401.572000
11
132.299302
21
402.716640
0
LINE
8
Calque_1
10
132.299000
20
402.717000
11
131.587420
21
403.431170
0
LINE
8
Calque_1
10
131.588000
20
403.431000
11
131.273800
21
403.935869
0
LINE
8
Calque_1
10
131.274000
20
403.936000
11
129.446730
21
406.932200
0
LINE
8
Calque_1
10
129.446000
20
406.932000
11
128.221033
21
408.878720
0
LINE
8
Calque_1
10
128.221033
20
408.878720
11
127.280240
21
410.360740
0
LINE
8
Calque_1
10
127.281000
20
410.361000
11
125.779280
21
413.957660
0
LINE
8
Calque_1
10
125.779000
20
413.958000
11
125.120641
21
415.043210
0
LINE
8
Calque_1
10
125.121000
20
415.043000
11
124.508370
21
417.070912
0
LINE
8
Calque_1
10
124.508370
20
417.070912
11
124.004790
21
419.326450
0
LINE
8
Calque_1
10
124.004000
20
419.326000
11
123.949700
21
420.700590
0
LINE
8
Calque_1
10
123.950000
20
420.701000
11
122.892180
21
426.800880
0
LINE
8
Calque_1
10
122.892000
20
426.801000
11
122.490990
21
429.240640
0
LINE
8
Calque_1
10
122.491000
20
429.240000
11
122.085860
21
430.526750
0
LINE
8
Calque_1
10
122.086000
20
430.527000
11
122.075999
21
431.506259
0
LINE
8
Calque_1
10
122.076000
20
431.506000
11
121.810901
21
433.216490
0
LINE
8
Calque_1
10
121.811000
20
433.217000
11
121.591237
21
436.004491
0
LINE
8
Calque_1
10
121.591237
20
436.004491
11
121.505589
21
438.685910
0
LINE
8
Calque_1
10
147.304000
20
394.171000
11
147.294000
21
394.171000
0
LINE
8
Calque_1
10
124.720000
20
313.128000
11
124.762900
21
315.857030
0
LINE
8
Calque_1
10
124.763000
20
315.857000
11
124.962674
21
317.730144
0
LINE
8
Calque_1
10
124.962674
20
317.730144
11
125.291650
21
319.911530
0
LINE
8
Calque_1
10
125.292000
20
319.912000
11
125.561859
21
322.291705
0
LINE
8
Calque_1
10
125.561859
20
322.291705
11
125.902819
21
324.161860
0
LINE
8
Calque_1
10
125.902000
20
324.162000
11
127.388730
21
328.165880
0
LINE
8
Calque_1
10
127.389000
20
328.166000
11
128.273181
21
331.206120
0
LINE
8
Calque_1
10
128.273000
20
331.206000
11
129.619170
21
334.303490
0
LINE
8
Calque_1
10
129.619000
20
334.303000
11
131.066460
21
336.510610
0
LINE
8
Calque_1
10
131.067000
20
336.511000
11
132.607990
21
338.767710
0
LINE
8
Calque_1
10
132.608000
20
338.767000
11
132.971291
21
339.040888
0
LINE
8
Calque_1
10
132.971000
20
339.041000
11
133.764228
21
339.605821
0
LINE
8
Calque_1
10
133.764000
20
339.606000
11
136.062050
21
341.574870
0
LINE
8
Calque_1
10
136.062000
20
341.575000
11
137.067206
21
342.164385
0
LINE
8
Calque_1
10
137.067206
20
342.164385
11
138.229658
21
342.677524
0
LINE
8
Calque_1
10
138.229658
20
342.677524
11
140.916990
21
343.604850
0
LINE
8
Calque_1
10
140.917000
20
343.605000
11
141.518000
21
343.824630
0
LINE
8
Calque_1
10
141.518000
20
343.825000
11
142.215107
21
343.921099
0
LINE
8
Calque_1
10
142.216000
20
343.921000
11
142.999941
21
344.102901
0
LINE
8
Calque_1
10
143.000000
20
344.103000
11
143.630448
21
344.403749
0
LINE
8
Calque_1
10
143.630000
20
344.403000
11
143.671899
21
344.416996
0
LINE
8
Calque_1
10
143.672000
20
344.417000
11
145.948860
21
344.894490
0
LINE
8
Calque_1
10
145.949000
20
344.895000
11
146.801658
21
344.905292
0
LINE
8
Calque_1
10
121.506000
20
438.686000
11
121.506794
21
438.685931
0
LINE
8
Calque_1
10
146.801000
20
344.893000
11
148.274567
21
344.628041
0
LINE
8
Calque_1
10
148.274567
20
344.628041
11
149.755860
21
344.114232
0
LINE
8
Calque_1
10
149.756000
20
344.114000
11
151.209045
21
343.602830
0
LINE
8
Calque_1
10
151.209045
20
343.602830
11
152.555997
21
343.306151
0
LINE
8
Calque_1
10
152.555997
20
343.306151
11
154.830620
21
342.968850
0
LINE
8
Calque_1
10
154.830000
20
342.969000
11
157.110453
21
341.550818
0
LINE
8
Calque_1
10
157.110453
20
341.550818
11
158.886080
21
339.906660
0
LINE
8
Calque_1
10
158.886000
20
339.907000
11
162.329710
21
335.680390
0
LINE
8
Calque_1
10
162.330000
20
335.680000
11
163.937985
21
333.788560
0
LINE
8
Calque_1
10
163.937985
20
333.788560
11
165.066270
21
332.246620
0
LINE
8
Calque_1
10
165.066000
20
332.247000
11
165.527980
21
331.137510
0
LINE
8
Calque_1
10
165.528000
20
331.137000
11
165.923061
21
330.405195
0
LINE
8
Calque_1
10
165.923061
20
330.405195
11
166.389448
21
329.761890
0
LINE
8
Calque_1
10
166.390000
20
329.762000
11
166.508861
21
329.616789
0
LINE
8
Calque_1
10
166.509000
20
329.617000
11
166.598900
21
329.423733
0
LINE
8
Calque_1
10
166.599000
20
329.424000
11
166.724155
21
328.898352
0
LINE
8
Calque_1
10
166.724155
20
328.898352
11
167.345209
21
327.589480
0
LINE
8
Calque_1
10
167.345000
20
327.589000
11
167.985218
21
326.755300
0
LINE
8
Calque_1
10
167.985218
20
326.755300
11
168.056721
21
326.742691
0
LINE
8
Calque_1
10
168.056721
20
326.742691
11
167.911888
21
326.963200
0
LINE
8
Calque_1
10
167.912000
20
326.964000
11
168.877455
21
325.746588
0
LINE
8
Calque_1
10
168.877455
20
325.746588
11
169.524310
21
324.758450
0
LINE
8
Calque_1
10
169.524000
20
324.758000
11
170.496819
21
322.482646
0
LINE
8
Calque_1
10
170.496819
20
322.482646
11
171.331120
21
320.024450
0
LINE
8
Calque_1
10
171.331000
20
320.024000
11
171.905418
21
318.368325
0
LINE
8
Calque_1
10
171.905418
20
318.368325
11
172.245161
21
317.215900
0
LINE
8
Calque_1
10
172.245000
20
317.216000
11
172.284299
21
317.019120
0
LINE
8
Calque_1
10
172.285000
20
317.019000
11
172.544929
21
314.097730
0
LINE
8
Calque_1
10
172.544000
20
314.098000
11
173.071100
21
310.611910
0
LINE
8
Calque_1
10
173.072000
20
310.612000
11
173.173290
21
307.681940
0
LINE
8
Calque_1
10
173.173000
20
307.682000
11
173.434703
21
303.875979
0
LINE
8
Calque_1
10
173.434703
20
303.875979
11
173.423632
21
300.312440
0
LINE
8
Calque_1
10
173.424000
20
300.313000
11
173.277238
21
298.687770
0
LINE
8
Calque_1
10
173.277000
20
298.687000
11
172.714240
21
296.557420
0
LINE
8
Calque_1
10
172.714000
20
296.558000
11
172.205000
21
292.818000
0
LINE
8
Calque_1
10
172.205000
20
292.818000
11
172.030330
21
291.908501
0
LINE
8
Calque_1
10
172.030000
20
291.908000
11
171.853269
21
291.552461
0
LINE
8
Calque_1
10
171.854000
20
291.553000
11
171.423531
21
290.318450
0
LINE
8
Calque_1
10
171.423000
20
290.318000
11
171.242139
21
289.612621
0
LINE
8
Calque_1
10
171.242000
20
289.613000
11
170.981550
21
288.542780
0
LINE
8
Calque_1
10
170.982000
20
288.543000
11
170.717412
21
287.469680
0
LINE
8
Calque_1
10
170.717000
20
287.469000
11
170.579549
21
286.958441
0
LINE
8
Calque_1
10
170.580000
20
286.959000
11
170.595505
21
286.997800
0
LINE
8
Calque_1
10
170.595000
20
286.998000
11
170.578993
21
286.956600
0
LINE
8
Calque_1
10
170.579000
20
286.956000
11
169.049890
21
283.274060
0
LINE
8
Calque_1
10
169.050000
20
283.274000
11
167.468190
21
279.252020
0
LINE
8
Calque_1
10
167.468000
20
279.252000
11
165.699630
21
276.231000
0
LINE
8
Calque_1
10
165.700000
20
276.231000
11
164.384136
21
274.101669
0
LINE
8
Calque_1
10
164.384136
20
274.101669
11
162.921870
21
272.147020
0
LINE
8
Calque_1
10
162.922000
20
272.147000
11
161.303185
21
270.513537
0
LINE
8
Calque_1
10
161.303185
20
270.513537
11
159.517570
21
269.346650
0
LINE
8
Calque_1
10
159.517000
20
269.347000
11
157.899389
21
269.023305
0
LINE
8
Calque_1
10
157.899389
20
269.023305
11
155.542060
21
269.021960
0
LINE
8
Calque_1
10
155.542000
20
269.022000
11
152.920344
21
269.251900
0
LINE
8
Calque_1
10
152.920344
20
269.251900
11
150.510270
21
269.621450
0
LINE
8
Calque_1
10
150.511000
20
269.621000
11
148.748310
21
269.907800
0
LINE
8
Calque_1
10
148.748000
20
269.908000
11
147.956320
21
270.115219
0
LINE
8
Calque_1
10
147.956000
20
270.115000
11
146.648590
21
270.688090
0
LINE
8
Calque_1
10
146.649000
20
270.688000
11
142.979000
21
272.193875
0
LINE
8
Calque_1
10
142.979000
20
272.193875
11
141.398625
21
273.070891
0
LINE
8
Calque_1
10
141.398625
20
273.070891
11
140.083000
21
274.086000
0
LINE
8
Calque_1
10
140.083000
20
274.086000
11
139.041828
21
275.226500
0
LINE
8
Calque_1
10
139.041828
20
275.226500
11
137.899875
21
276.681250
0
LINE
8
Calque_1
10
137.899875
20
276.681250
11
135.440000
21
279.866000
0
LINE
8
Calque_1
10
135.440000
20
279.866000
11
134.445750
21
281.020970
0
LINE
8
Calque_1
10
134.446000
20
281.021000
11
134.016571
21
281.416320
0
LINE
8
Calque_1
10
134.016000
20
281.416000
11
133.928100
21
281.467700
0
LINE
8
Calque_1
10
133.928000
20
281.468000
11
133.082051
21
282.441579
0
LINE
8
Calque_1
10
133.082000
20
282.441000
11
130.805660
21
285.564330
0
LINE
8
Calque_1
10
130.806000
20
285.565000
11
130.323340
21
286.663120
0
LINE
8
Calque_1
10
130.323000
20
286.663000
11
129.427961
21
288.053100
0
LINE
8
Calque_1
10
129.428000
20
288.053000
11
129.128280
21
288.787839
0
LINE
8
Calque_1
10
129.129000
20
288.788000
11
128.347500
21
291.145625
0
LINE
8
Calque_1
10
128.347500
20
291.145625
11
127.764000
21
293.633000
0
LINE
8
Calque_1
10
127.764000
20
293.633000
11
127.629129
21
294.455169
0
LINE
8
Calque_1
10
127.629000
20
294.456000
11
127.668801
21
294.602240
0
LINE
8
Calque_1
10
127.669000
20
294.602000
11
127.612199
21
295.384899
0
LINE
8
Calque_1
10
127.612000
20
295.385000
11
127.271450
21
296.729620
0
LINE
8
Calque_1
10
127.271000
20
296.729000
11
126.676723
21
298.577980
0
LINE
8
Calque_1
10
126.677000
20
298.578000
11
125.959125
21
302.202250
0
LINE
8
Calque_1
10
125.959125
20
302.202250
11
125.440000
21
306.086000
0
LINE
8
Calque_1
10
146.801000
20
344.905000
11
146.800471
21
344.893094
0
LINE
8
Calque_1
10
125.440000
20
306.096000
11
125.240528
21
307.572400
0
LINE
8
Calque_1
10
125.241000
20
307.573000
11
125.210002
21
307.751280
0
LINE
8
Calque_1
10
125.210000
20
307.751000
11
124.990899
21
308.752490
0
LINE
8
Calque_1
10
124.991000
20
308.752000
11
124.786355
21
310.892793
0
LINE
8
Calque_1
10
124.786355
20
310.892793
11
124.720213
21
313.127950
0
LINE
8
Calque_1
10
125.440000
20
306.086000
11
125.440000
21
306.096000
0
LINE
8
Calque_1
10
129.428000
20
288.053000
11
129.408394
21
288.077799
0
LINE
8
Calque_1
10
124.720000
20
313.128000
11
124.719899
21
313.127840
0
LINE
8
Calque_1
10
126.638000
20
547.183000
11
126.780108
21
544.407460
0
LINE
8
Calque_1
10
126.780000
20
544.407000
11
127.115129
21
542.907875
0
LINE
8
Calque_1
10
127.115129
20
542.907875
11
127.421831
21
541.987000
0
LINE
8
Calque_1
10
127.422000
20
541.987000
11
127.622279
21
540.860305
0
LINE
8
Calque_1
10
127.622279
20
540.860305
11
128.213159
21
539.079160
0
LINE
8
Calque_1
10
128.213000
20
539.080000
11
128.642429
21
538.307441
0
LINE
8
Calque_1
10
128.642000
20
538.307000
11
128.865250
21
537.601622
0
LINE
8
Calque_1
10
128.865000
20
537.602000
11
129.590800
21
535.933980
0
LINE
8
Calque_1
10
129.590800
20
535.933980
11
130.512024
21
534.295320
0
LINE
8
Calque_1
10
130.512024
20
534.295320
11
131.580605
21
532.750148
0
LINE
8
Calque_1
10
131.580605
20
532.750148
11
132.748480
21
531.362590
0
LINE
8
Calque_1
10
132.749000
20
531.362000
11
133.441980
21
530.734650
0
LINE
8
Calque_1
10
133.442000
20
530.735000
11
133.547420
21
530.645600
0
LINE
8
Calque_1
10
133.547000
20
530.645000
11
133.847605
21
530.407518
0
LINE
8
Calque_1
10
133.847605
20
530.407518
11
133.776438
21
530.494111
0
LINE
8
Calque_1
10
133.777000
20
530.495000
11
136.617140
21
527.785090
0
LINE
8
Calque_1
10
136.617000
20
527.785000
11
138.173547
21
526.686708
0
LINE
8
Calque_1
10
138.173547
20
526.686708
11
139.102120
21
526.098790
0
LINE
8
Calque_1
10
139.102000
20
526.098000
11
140.240579
21
525.133898
0
LINE
8
Calque_1
10
140.240579
20
525.133898
11
141.699260
21
524.156520
0
LINE
8
Calque_1
10
141.699000
20
524.157000
11
143.111344
21
523.453576
0
LINE
8
Calque_1
10
143.111344
20
523.453576
11
144.705885
21
522.825282
0
LINE
8
Calque_1
10
144.705885
20
522.825282
11
146.405539
21
522.344532
0
LINE
8
Calque_1
10
146.405539
20
522.344532
11
148.133220
21
522.083740
0
LINE
8
Calque_1
10
148.134000
20
522.084000
11
148.700265
21
522.073874
0
LINE
8
Calque_1
10
148.700265
20
522.073874
11
148.739130
21
522.114001
0
LINE
8
Calque_1
10
148.739000
20
522.114000
11
149.306409
21
521.920219
0
LINE
8
Calque_1
10
129.409000
20
288.078000
11
129.428606
21
288.053201
0
LINE
8
Calque_1
10
129.428606
20
288.053201
11
129.428000
21
288.053000
0
LINE
8
Calque_1
10
149.316000
20
521.920000
11
150.364000
21
521.967000
0
LINE
8
Calque_1
10
150.364000
20
521.967000
11
151.432150
21
522.079659
0
LINE
8
Calque_1
10
151.433000
20
522.080000
11
152.416595
21
522.376602
0
LINE
8
Calque_1
10
152.416595
20
522.376602
11
153.131090
21
522.708379
0
LINE
8
Calque_1
10
153.131000
20
522.708000
11
154.103030
21
523.141048
0
LINE
8
Calque_1
10
154.103000
20
523.141000
11
155.588509
21
523.538401
0
LINE
8
Calque_1
10
155.588509
20
523.538401
11
156.559848
21
523.909643
0
LINE
8
Calque_1
10
156.559848
20
523.909643
11
157.629920
21
524.532650
0
LINE
8
Calque_1
10
157.630000
20
524.533000
11
158.314873
21
525.308776
0
LINE
8
Calque_1
10
158.314873
20
525.308776
11
158.707450
21
526.145820
0
LINE
8
Calque_1
10
158.707000
20
526.145000
11
159.348310
21
527.125820
0
LINE
8
Calque_1
10
159.348000
20
527.126000
11
159.746420
21
527.698058
0
LINE
8
Calque_1
10
159.747000
20
527.698000
11
160.407950
21
528.294860
0
LINE
8
Calque_1
10
160.408000
20
528.295000
11
161.301454
21
529.394247
0
LINE
8
Calque_1
10
161.301454
20
529.394247
11
161.975014
21
530.502040
0
LINE
8
Calque_1
10
161.975014
20
530.502040
11
162.854360
21
532.344880
0
LINE
8
Calque_1
10
162.854000
20
532.345000
11
163.561450
21
533.449330
0
LINE
8
Calque_1
10
163.561000
20
533.449000
11
164.429031
21
535.421706
0
LINE
8
Calque_1
10
164.429031
20
535.421706
11
165.074080
21
537.464770
0
LINE
8
Calque_1
10
165.075000
20
537.465000
11
165.394317
21
539.377377
0
LINE
8
Calque_1
10
165.394317
20
539.377377
11
165.531308
21
540.741280
0
LINE
8
Calque_1
10
165.531000
20
540.741000
11
165.510168
21
540.440064
0
LINE
8
Calque_1
10
165.510168
20
540.440064
11
165.575584
21
540.478645
0
LINE
8
Calque_1
10
165.575584
20
540.478645
11
165.775940
21
541.607610
0
LINE
8
Calque_1
10
165.776000
20
541.608000
11
165.778367
21
542.960935
0
LINE
8
Calque_1
10
165.778367
20
542.960935
11
165.665931
21
543.663170
0
LINE
8
Calque_1
10
165.666000
20
543.663000
11
165.766769
21
544.322910
0
LINE
8
Calque_1
10
165.767000
20
544.323000
11
165.829738
21
545.728907
0
LINE
8
Calque_1
10
165.829738
20
545.728907
11
165.782002
21
546.817940
0
LINE
8
Calque_1
10
165.782000
20
546.818000
11
165.790763
21
547.587535
0
LINE
8
Calque_1
10
165.790763
20
547.587535
11
165.605780
21
548.940870
0
LINE
8
Calque_1
10
165.605000
20
548.941000
11
165.340420
21
549.705290
0
LINE
8
Calque_1
10
165.341000
20
549.705000
11
165.133781
21
552.652620
0
LINE
8
Calque_1
10
165.134000
20
552.653000
11
164.859779
21
554.002789
0
LINE
8
Calque_1
10
164.859779
20
554.002789
11
164.595010
21
554.862160
0
LINE
8
Calque_1
10
164.595000
20
554.862000
11
164.226031
21
557.121810
0
LINE
8
Calque_1
10
164.226000
20
557.122000
11
163.823969
21
558.732696
0
LINE
8
Calque_1
10
163.823969
20
558.732696
11
163.476690
21
559.665520
0
LINE
8
Calque_1
10
163.476000
20
559.665000
11
163.107031
21
561.804400
0
LINE
8
Calque_1
10
163.107000
20
561.805000
11
162.762027
21
563.118216
0
LINE
8
Calque_1
10
162.762027
20
563.118216
11
162.543729
21
563.616790
0
LINE
8
Calque_1
10
162.544000
20
563.617000
11
162.406256
21
564.404291
0
LINE
8
Calque_1
10
162.406256
20
564.404291
11
162.006050
21
565.590520
0
LINE
8
Calque_1
10
162.006000
20
565.590000
11
161.218971
21
566.873620
0
LINE
8
Calque_1
10
161.219000
20
566.874000
11
161.135802
21
567.273467
0
LINE
8
Calque_1
10
161.136000
20
567.273000
11
161.019210
21
567.636802
0
LINE
8
Calque_1
10
161.019000
20
567.637000
11
160.715140
21
568.377515
0
LINE
8
Calque_1
10
160.715000
20
568.377000
11
160.415280
21
568.937704
0
LINE
8
Calque_1
10
160.415000
20
568.938000
11
159.924069
21
569.938970
0
LINE
8
Calque_1
10
159.925000
20
569.939000
11
159.338383
21
570.760493
0
LINE
8
Calque_1
10
159.338383
20
570.760493
11
159.026873
21
571.040190
0
LINE
8
Calque_1
10
159.026000
20
571.040000
11
158.623440
21
571.636370
0
LINE
8
Calque_1
10
158.624000
20
571.637000
11
157.860731
21
572.303617
0
LINE
8
Calque_1
10
157.861000
20
572.303000
11
157.560571
21
572.675745
0
LINE
8
Calque_1
10
157.560571
20
572.675745
11
156.790790
21
573.292091
0
LINE
8
Calque_1
10
156.790000
20
573.292000
11
154.571530
21
574.605600
0
LINE
8
Calque_1
10
154.572000
20
574.606000
11
153.787614
21
575.121623
0
LINE
8
Calque_1
10
153.787614
20
575.121623
11
152.557650
21
575.791970
0
LINE
8
Calque_1
10
152.558000
20
575.792000
11
152.625877
21
575.767276
0
LINE
8
Calque_1
10
152.625877
20
575.767276
11
152.555845
21
575.815369
0
LINE
8
Calque_1
10
152.555845
20
575.815369
11
152.152863
21
576.071585
0
LINE
8
Calque_1
10
152.152000
20
576.072000
11
151.529987
21
576.483566
0
LINE
8
Calque_1
10
151.529987
20
576.483566
11
150.330400
21
576.824924
0
LINE
8
Calque_1
10
150.331000
20
576.825000
11
145.007310
21
577.254418
0
LINE
8
Calque_1
10
145.007000
20
577.254000
11
144.815789
21
577.264319
0
LINE
8
Calque_1
10
144.816000
20
577.264000
11
144.211316
21
577.185630
0
LINE
8
Calque_1
10
144.211316
20
577.185630
11
143.646050
21
576.956528
0
LINE
8
Calque_1
10
143.646000
20
576.957000
11
139.790420
21
574.788640
0
LINE
8
Calque_1
10
139.790000
20
574.788000
11
139.982241
21
574.903252
0
LINE
8
Calque_1
10
139.983000
20
574.904000
11
139.014063
21
574.726227
0
LINE
8
Calque_1
10
139.014000
20
574.726000
11
137.790268
21
574.297640
0
LINE
8
Calque_1
10
137.790268
20
574.297640
11
137.554660
21
574.105897
0
LINE
8
Calque_1
10
137.554000
20
574.106000
11
135.299360
21
573.207847
0
LINE
8
Calque_1
10
135.300000
20
573.208000
11
134.151268
21
572.434310
0
LINE
8
Calque_1
10
134.151268
20
572.434310
11
132.979210
21
571.321310
0
LINE
8
Calque_1
10
132.979000
20
571.321000
11
132.661709
21
571.001648
0
LINE
8
Calque_1
10
132.662000
20
571.002000
11
131.993301
21
570.144169
0
LINE
8
Calque_1
10
131.993000
20
570.144000
11
131.200801
21
568.412830
0
LINE
8
Calque_1
10
131.201000
20
568.413000
11
130.973822
21
568.200216
0
LINE
8
Calque_1
10
130.973822
20
568.200216
11
130.495619
21
567.444071
0
LINE
8
Calque_1
10
130.495000
20
567.444000
11
130.194762
21
566.660067
0
LINE
8
Calque_1
10
130.195000
20
566.660000
11
129.824481
21
566.070879
0
LINE
8
Calque_1
10
129.825000
20
566.071000
11
129.052768
21
564.475727
0
LINE
8
Calque_1
10
129.052768
20
564.475727
11
128.482960
21
562.785940
0
LINE
8
Calque_1
10
128.483000
20
562.786000
11
127.750953
21
559.307070
0
LINE
8
Calque_1
10
127.750953
20
559.307070
11
127.303230
21
555.843290
0
LINE
8
Calque_1
10
127.303000
20
555.843000
11
127.292999
21
555.763900
0
LINE
8
Calque_1
10
127.293000
20
555.764000
11
127.020670
21
554.780590
0
LINE
8
Calque_1
10
127.020000
20
554.780000
11
126.733771
21
552.037014
0
LINE
8
Calque_1
10
126.733771
20
552.037014
11
126.708393
21
549.690920
0
LINE
8
Calque_1
10
126.709000
20
549.691000
11
126.637700
21
547.182620
0
LINE
8
Calque_1
10
149.306000
20
521.920000
11
149.316000
21
521.920000
0
LINE
8
Calque_1
10
127.131000
20
438.903000
11
127.318828
21
434.956576
0
LINE
8
Calque_1
10
127.318828
20
434.956576
11
127.773339
21
431.484340
0
LINE
8
Calque_1
10
127.773000
20
431.485000
11
128.130255
21
430.012518
0
LINE
8
Calque_1
10
128.130255
20
430.012518
11
128.385361
21
429.147160
0
LINE
8
Calque_1
10
128.385000
20
429.147000
11
128.415889
21
428.380595
0
LINE
8
Calque_1
10
128.415889
20
428.380595
11
128.752418
21
426.805540
0
LINE
8
Calque_1
10
128.753000
20
426.805000
11
128.934055
21
426.257435
0
LINE
8
Calque_1
10
128.934055
20
426.257435
11
129.420659
21
425.528070
0
LINE
8
Calque_1
10
129.420000
20
425.528000
11
129.458801
21
425.496999
0
LINE
8
Calque_1
10
129.459000
20
425.497000
11
130.077558
21
422.787090
0
LINE
8
Calque_1
10
130.078000
20
422.788000
11
130.984408
21
420.084800
0
LINE
8
Calque_1
10
130.984000
20
420.084000
11
131.413950
21
419.218422
0
LINE
8
Calque_1
10
131.414000
20
419.219000
11
131.485219
21
418.755201
0
LINE
8
Calque_1
10
131.485219
20
418.755201
11
131.801051
21
417.868700
0
LINE
8
Calque_1
10
131.801000
20
417.869000
11
132.522777
21
416.511525
0
LINE
8
Calque_1
10
132.522777
20
416.511525
11
133.328139
21
415.397569
0
LINE
8
Calque_1
10
133.328139
20
415.397569
11
134.738280
21
413.726620
0
LINE
8
Calque_1
10
134.739000
20
413.726000
11
137.132140
21
410.574780
0
LINE
8
Calque_1
10
137.132000
20
410.575000
11
137.465860
21
409.968984
0
LINE
8
Calque_1
10
137.465860
20
409.968984
11
138.496770
21
408.689840
0
LINE
8
Calque_1
10
138.496000
20
408.690000
11
139.391969
21
407.947948
0
LINE
8
Calque_1
10
139.391969
20
407.947948
11
139.482011
21
407.949345
0
LINE
8
Calque_1
10
139.482011
20
407.949345
11
139.298538
21
408.158770
0
LINE
8
Calque_1
10
139.299000
20
408.159000
11
140.114210
21
407.304270
0
LINE
8
Calque_1
10
140.114210
20
407.304270
11
141.360370
21
406.172040
0
LINE
8
Calque_1
10
141.360000
20
406.172000
11
143.034830
21
405.027360
0
LINE
8
Calque_1
10
143.035000
20
405.027000
11
143.159823
21
404.734734
0
LINE
8
Calque_1
10
143.159823
20
404.734734
11
144.171370
21
403.906140
0
LINE
8
Calque_1
10
144.172000
20
403.906000
11
145.001399
21
403.517910
0
LINE
8
Calque_1
10
145.001000
20
403.518000
11
145.534820
21
403.399152
0
LINE
8
Calque_1
10
145.535000
20
403.399000
11
145.903163
21
403.063680
0
LINE
8
Calque_1
10
145.903163
20
403.063680
11
147.231540
21
402.414561
0
LINE
8
Calque_1
10
147.231000
20
402.415000
11
148.668962
21
402.014095
0
LINE
8
Calque_1
10
148.668962
20
402.014095
11
150.107809
21
401.791790
0
LINE
8
Calque_1
10
150.107809
20
401.791790
11
152.657010
21
401.676030
0
LINE
8
Calque_1
10
152.657000
20
401.676000
11
155.571803
21
401.916718
0
LINE
8
Calque_1
10
155.571803
20
401.916718
11
156.974117
21
402.244317
0
LINE
8
Calque_1
10
156.974117
20
402.244317
11
158.388940
21
402.733810
0
LINE
8
Calque_1
10
158.389000
20
402.734000
11
158.616899
21
402.788300
0
LINE
8
Calque_1
10
158.617000
20
402.788000
11
159.323360
21
402.994542
0
LINE
8
Calque_1
10
159.323360
20
402.994542
11
160.300620
21
403.678909
0
LINE
8
Calque_1
10
160.301000
20
403.679000
11
160.835328
21
404.262419
0
LINE
8
Calque_1
10
160.835000
20
404.262000
11
161.041142
21
404.435904
0
LINE
8
Calque_1
10
161.041142
20
404.435904
11
161.403959
21
405.154449
0
LINE
8
Calque_1
10
161.404000
20
405.155000
11
161.434001
21
405.244900
0
LINE
8
Calque_1
10
161.434000
20
405.245000
11
161.516201
21
405.318901
0
LINE
8
Calque_1
10
161.516000
20
405.318000
11
162.082687
21
406.213165
0
LINE
8
Calque_1
10
162.082687
20
406.213165
11
162.382607
21
406.997480
0
LINE
8
Calque_1
10
162.383000
20
406.998000
11
162.947819
21
408.741570
0
LINE
8
Calque_1
10
162.948000
20
408.741000
11
163.726771
21
411.631780
0
LINE
8
Calque_1
10
163.726000
20
411.632000
11
164.189412
21
413.214878
0
LINE
8
Calque_1
10
164.189412
20
413.214878
11
164.649448
21
415.099480
0
LINE
8
Calque_1
10
164.650000
20
415.100000
11
165.010947
21
418.544159
0
LINE
8
Calque_1
10
165.010947
20
418.544159
11
164.949685
21
422.106681
0
LINE
8
Calque_1
10
164.949685
20
422.106681
11
164.583811
21
425.587088
0
LINE
8
Calque_1
10
164.583811
20
425.587088
11
164.030921
21
428.784900
0
LINE
8
Calque_1
10
164.031000
20
428.785000
11
163.547311
21
431.395170
0
LINE
8
Calque_1
10
163.547000
20
431.395000
11
163.224021
21
433.014030
0
LINE
8
Calque_1
10
163.224000
20
433.014000
11
163.073111
21
433.658400
0
LINE
8
Calque_1
10
163.073000
20
433.658000
11
163.055110
21
433.895952
0
LINE
8
Calque_1
10
163.055110
20
433.895952
11
162.696279
21
434.592827
0
LINE
8
Calque_1
10
162.697000
20
434.593000
11
162.099101
21
435.285980
0
LINE
8
Calque_1
10
162.099000
20
435.286000
11
161.904701
21
435.907670
0
LINE
8
Calque_1
10
161.904000
20
435.908000
11
161.477662
21
436.856258
0
LINE
8
Calque_1
10
161.478000
20
436.856000
11
161.358631
21
437.083380
0
LINE
8
Calque_1
10
161.359000
20
437.083000
11
160.978659
21
437.568751
0
LINE
8
Calque_1
10
160.978000
20
437.569000
11
159.937178
21
439.682172
0
LINE
8
Calque_1
10
159.937178
20
439.682172
11
159.267660
21
440.872779
0
LINE
8
Calque_1
10
159.267660
20
440.872779
11
158.391080
21
442.109280
0
LINE
8
Calque_1
10
158.391000
20
442.109000
11
156.079583
21
445.178546
0
LINE
8
Calque_1
10
156.079583
20
445.178546
11
153.696997
21
448.226130
0
LINE
8
Calque_1
10
153.696997
20
448.226130
11
152.323093
21
449.692201
0
LINE
8
Calque_1
10
152.323093
20
449.692201
11
150.744288
21
451.093399
0
LINE
8
Calque_1
10
150.744288
20
451.093399
11
148.898213
21
452.409930
0
LINE
8
Calque_1
10
148.898213
20
452.409930
11
146.722500
21
453.622000
0
LINE
8
Calque_1
10
146.723000
20
453.622000
11
145.781460
21
453.862810
0
LINE
8
Calque_1
10
145.781000
20
453.863000
11
144.229748
21
454.126567
0
LINE
8
Calque_1
10
144.229748
20
454.126567
11
142.104220
21
454.368909
0
LINE
8
Calque_1
10
126.638000
20
547.183000
11
126.638180
21
547.183058
0
LINE
8
Calque_1
10
142.110000
20
454.369000
11
141.413919
21
454.343203
0
LINE
8
Calque_1
10
141.413000
20
454.343000
11
140.433120
21
454.196944
0
LINE
8
Calque_1
10
140.433120
20
454.196944
11
139.399690
21
453.890312
0
LINE
8
Calque_1
10
139.400000
20
453.890000
11
137.921630
21
453.163323
0
LINE
8
Calque_1
10
137.921630
20
453.163323
11
137.360330
21
452.762940
0
LINE
8
Calque_1
10
137.361000
20
452.763000
11
137.357005
21
452.774403
0
LINE
8
Calque_1
10
137.357000
20
452.774000
11
136.634032
21
452.690680
0
LINE
8
Calque_1
10
136.634032
20
452.690680
11
135.929915
21
452.402224
0
LINE
8
Calque_1
10
135.929915
20
452.402224
11
135.084790
21
451.846412
0
LINE
8
Calque_1
10
135.084000
20
451.847000
11
132.400046
21
450.012190
0
LINE
8
Calque_1
10
132.400046
20
450.012190
11
130.819205
21
448.577210
0
LINE
8
Calque_1
10
130.819205
20
448.577210
11
130.100508
21
447.671999
0
LINE
8
Calque_1
10
130.100508
20
447.671999
11
129.479700
21
446.619420
0
LINE
8
Calque_1
10
129.480000
20
446.619000
11
129.108616
21
445.743190
0
LINE
8
Calque_1
10
129.108616
20
445.743190
11
129.100240
21
445.634327
0
LINE
8
Calque_1
10
129.100240
20
445.634327
11
129.186480
21
445.752380
0
LINE
8
Calque_1
10
129.186000
20
445.753000
11
128.195362
21
444.135530
0
LINE
8
Calque_1
10
128.196000
20
444.135000
11
127.650916
21
442.901898
0
LINE
8
Calque_1
10
127.650916
20
442.901898
11
127.285983
21
441.338270
0
LINE
8
Calque_1
10
127.286000
20
441.338000
11
127.130970
21
438.903010
0
LINE
8
Calque_1
10
142.105000
20
454.369000
11
142.110001
21
454.368471
0
LINE
8
Calque_1
10
137.360000
20
452.763000
11
137.337299
21
452.745405
0
LINE
8
Calque_1
10
131.872000
20
312.618000
11
131.951600
21
310.534920
0
LINE
8
Calque_1
10
131.951000
20
310.535000
11
132.103549
21
308.460409
0
LINE
8
Calque_1
10
132.103549
20
308.460409
11
132.383530
21
306.142000
0
LINE
8
Calque_1
10
132.384000
20
306.142000
11
132.946239
21
303.859450
0
LINE
8
Calque_1
10
132.946000
20
303.859000
11
132.891062
21
303.586752
0
LINE
8
Calque_1
10
132.891062
20
303.586752
11
132.946000
21
302.432730
0
LINE
8
Calque_1
10
132.946000
20
302.433000
11
133.494989
21
299.576120
0
LINE
8
Calque_1
10
133.494989
20
299.576120
11
134.264780
21
296.872630
0
LINE
8
Calque_1
10
134.265000
20
296.872000
11
134.956871
21
295.015324
0
LINE
8
Calque_1
10
134.956871
20
295.015324
11
135.753344
21
293.306281
0
LINE
8
Calque_1
10
135.753344
20
293.306281
11
137.603750
21
290.227500
0
LINE
8
Calque_1
10
137.603750
20
290.227500
11
139.703531
21
287.428469
0
LINE
8
Calque_1
10
139.703531
20
287.428469
11
141.940000
21
284.702000
0
LINE
8
Calque_1
10
141.940000
20
284.702000
11
144.094716
21
282.079904
0
LINE
8
Calque_1
10
144.094716
20
282.079904
11
145.480675
21
280.737937
0
LINE
8
Calque_1
10
145.480675
20
280.737937
11
147.186700
21
279.542640
0
LINE
8
Calque_1
10
147.187000
20
279.542000
11
148.438621
21
278.933995
0
LINE
8
Calque_1
10
148.438621
20
278.933995
11
149.713749
21
278.508628
0
LINE
8
Calque_1
10
149.713749
20
278.508628
11
151.001780
21
278.249542
0
LINE
8
Calque_1
10
151.001780
20
278.249542
11
152.292113
21
278.140383
0
LINE
8
Calque_1
10
152.292113
20
278.140383
11
154.837270
21
278.306419
0
LINE
8
Calque_1
10
154.837270
20
278.306419
11
157.264400
21
278.875891
0
LINE
8
Calque_1
10
157.264000
20
278.876000
11
158.957170
21
279.558475
0
LINE
8
Calque_1
10
158.957170
20
279.558475
11
160.433555
21
280.442932
0
LINE
8
Calque_1
10
160.433555
20
280.442932
11
161.738640
21
281.479396
0
LINE
8
Calque_1
10
161.738640
20
281.479396
11
162.917910
21
282.617890
0
LINE
8
Calque_1
10
162.918000
20
282.618000
11
164.355247
21
284.009798
0
LINE
8
Calque_1
10
164.355247
20
284.009798
11
165.149890
21
284.878894
0
LINE
8
Calque_1
10
165.149890
20
284.878894
11
165.936420
21
285.951640
0
LINE
8
Calque_1
10
165.937000
20
285.952000
11
167.299547
21
288.481676
0
LINE
8
Calque_1
10
167.299547
20
288.481676
11
168.291541
21
291.167993
0
LINE
8
Calque_1
10
168.291541
20
291.167993
11
168.955460
21
293.961275
0
LINE
8
Calque_1
10
168.955460
20
293.961275
11
169.333784
21
296.811846
0
LINE
8
Calque_1
10
169.333784
20
296.811846
11
169.468991
21
299.670031
0
LINE
8
Calque_1
10
169.468991
20
299.670031
11
169.403560
21
302.486152
0
LINE
8
Calque_1
10
169.403560
20
302.486152
11
168.840700
21
307.793500
0
LINE
8
Calque_1
10
168.840000
20
307.793000
11
168.271994
21
310.719371
0
LINE
8
Calque_1
10
168.271994
20
310.719371
11
167.568760
21
313.516150
0
LINE
8
Calque_1
10
167.569000
20
313.516000
11
167.125317
21
315.460176
0
LINE
8
Calque_1
10
167.125317
20
315.460176
11
166.333410
21
317.823220
0
LINE
8
Calque_1
10
166.333000
20
317.824000
11
165.126219
21
320.165531
0
LINE
8
Calque_1
10
165.126219
20
320.165531
11
163.809000
21
322.322000
0
LINE
8
Calque_1
10
163.809000
20
322.322000
11
161.306000
21
326.292000
0
LINE
8
Calque_1
10
161.306000
20
326.292000
11
160.585630
21
327.866070
0
LINE
8
Calque_1
10
160.586000
20
327.866000
11
159.654517
21
329.465847
0
LINE
8
Calque_1
10
159.654517
20
329.465847
11
158.638169
21
330.925425
0
LINE
8
Calque_1
10
158.638169
20
330.925425
11
156.362115
21
333.507014
0
LINE
8
Calque_1
10
156.362115
20
333.507014
11
153.780324
21
335.777246
0
LINE
8
Calque_1
10
153.780324
20
335.777246
11
150.915280
21
337.902600
0
LINE
8
Calque_1
10
150.915000
20
337.903000
11
150.290477
21
338.217451
0
LINE
8
Calque_1
10
150.290477
20
338.217451
11
149.601900
21
338.338628
0
LINE
8
Calque_1
10
149.602000
20
338.339000
11
145.230180
21
338.577741
0
LINE
8
Calque_1
10
137.337000
20
452.745000
11
137.359701
21
452.762595
0
LINE
8
Calque_1
10
137.359701
20
452.762595
11
137.360000
21
452.763000
0
LINE
8
Calque_1
10
145.230000
20
338.574000
11
142.703096
21
338.385473
0
LINE
8
Calque_1
10
142.703096
20
338.385473
11
141.395011
21
338.097679
0
LINE
8
Calque_1
10
141.395011
20
338.097679
11
140.072700
21
337.634521
0
LINE
8
Calque_1
10
140.073000
20
337.635000
11
138.450225
21
336.688348
0
LINE
8
Calque_1
10
138.450225
20
336.688348
11
137.531550
21
335.951390
0
LINE
8
Calque_1
10
137.532000
20
335.951000
11
136.515669
21
335.328793
0
LINE
8
Calque_1
10
136.515669
20
335.328793
11
135.818363
21
334.791893
0
LINE
8
Calque_1
10
135.818363
20
334.791893
11
135.080990
21
334.017260
0
LINE
8
Calque_1
10
135.081000
20
334.018000
11
134.479246
21
333.133617
0
LINE
8
Calque_1
10
134.479246
20
333.133617
11
134.087040
21
332.324274
0
LINE
8
Calque_1
10
134.087040
20
332.324274
11
133.662480
21
331.115340
0
LINE
8
Calque_1
10
133.662000
20
331.115000
11
133.005066
21
329.382955
0
LINE
8
Calque_1
10
133.005066
20
329.382955
11
132.482230
21
327.194310
0
LINE
8
Calque_1
10
132.482000
20
327.194000
11
132.338041
21
324.492014
0
LINE
8
Calque_1
10
132.338041
20
324.492014
11
132.347639
21
322.154010
0
LINE
8
Calque_1
10
132.348000
20
322.154000
11
132.174370
21
318.217810
0
LINE
8
Calque_1
10
132.174000
20
318.218000
11
131.871172
21
312.617840
0
LINE
8
Calque_1
10
145.230000
20
338.577000
11
145.230000
21
338.574000
0
LINE
8
Calque_1
10
203.079000
20
224.469000
11
203.147702
21
224.857609
0
LINE
8
Calque_1
10
203.148000
20
224.858000
11
203.232198
21
226.240340
0
LINE
8
Calque_1
10
203.232000
20
226.240000
11
203.443881
21
228.654330
0
LINE
8
Calque_1
10
203.444000
20
228.654000
11
203.483801
21
230.538120
0
LINE
8
Calque_1
10
203.484000
20
230.539000
11
203.545000
21
232.586940
0
LINE
8
Calque_1
10
203.545000
20
232.694000
11
203.555292
21
232.904320
0
LINE
8
Calque_1
10
203.555000
20
232.904000
11
203.469698
21
233.964920
0
LINE
8
Calque_1
10
203.545000
20
232.587000
11
203.545000
21
232.603000
0
LINE
8
Calque_1
10
203.545000
20
232.603000
11
203.545000
21
232.694000
0
LINE
8
Calque_1
10
203.470000
20
234.025000
11
203.481906
21
234.391900
0
LINE
8
Calque_1
10
203.482000
20
234.392000
11
203.494409
21
234.761488
0
LINE
8
Calque_1
10
203.494000
20
234.761000
11
203.504001
21
234.950650
0
LINE
8
Calque_1
10
203.504000
20
234.951000
11
203.504000
21
234.964996
0
LINE
8
Calque_1
10
203.504000
20
234.965000
11
203.529797
21
236.101360
0
LINE
8
Calque_1
10
203.470000
20
233.965000
11
203.470000
21
234.025000
0
LINE
8
Calque_1
10
203.530000
20
236.112000
11
203.793030
21
237.874170
0
LINE
8
Calque_1
10
203.793000
20
237.874000
11
203.937700
21
240.350850
0
LINE
8
Calque_1
10
203.938000
20
240.351000
11
204.209298
21
245.125380
0
LINE
8
Calque_1
10
204.209000
20
245.125000
11
204.191908
21
251.174230
0
LINE
8
Calque_1
10
204.192000
20
251.175000
11
204.297942
21
253.880780
0
LINE
8
Calque_1
10
204.298000
20
253.880000
11
204.308292
21
254.776579
0
LINE
8
Calque_1
10
204.308000
20
254.777000
11
204.295591
21
254.970789
0
LINE
8
Calque_1
10
204.296000
20
254.971000
11
204.315103
21
255.633489
0
LINE
8
Calque_1
10
204.315000
20
255.633000
11
204.502589
21
258.215790
0
LINE
8
Calque_1
10
204.503000
20
258.216000
11
204.528294
21
259.995740
0
LINE
8
Calque_1
10
204.528000
20
259.996000
11
204.579700
21
261.517350
0
LINE
8
Calque_1
10
203.530000
20
236.101000
11
203.530000
21
236.112000
0
LINE
8
Calque_1
10
204.580000
20
261.937000
11
204.690582
21
261.947292
0
LINE
8
Calque_1
10
204.690000
20
261.948000
11
205.357149
21
261.865799
0
LINE
8
Calque_1
10
204.580000
20
261.517000
11
204.580000
21
261.937000
0
LINE
8
Calque_1
10
205.386000
20
261.865000
11
205.550848
21
261.839706
0
LINE
8
Calque_1
10
205.551000
20
261.840000
11
205.503401
21
261.829999
0
LINE
8
Calque_1
10
205.503000
20
261.830000
11
206.001167
21
261.712692
0
LINE
8
Calque_1
10
206.001000
20
261.713000
11
207.582810
21
261.535240
0
LINE
8
Calque_1
10
207.583000
20
261.535000
11
208.825300
21
261.333980
0
LINE
8
Calque_1
10
208.825000
20
261.334000
11
210.414050
21
261.283301
0
LINE
8
Calque_1
10
210.414000
20
261.283000
11
212.506900
21
261.120218
0
LINE
8
Calque_1
10
212.507000
20
261.120000
11
213.259408
21
261.102405
0
LINE
8
Calque_1
10
213.260000
20
261.103000
11
213.881148
21
261.005800
0
LINE
8
Calque_1
10
213.881000
20
261.006000
11
214.562611
21
260.951202
0
LINE
8
Calque_1
10
214.562000
20
260.951000
11
214.651400
21
260.961001
0
LINE
8
Calque_1
10
214.652000
20
260.961000
11
215.011669
21
260.908800
0
LINE
8
Calque_1
10
215.011000
20
260.909000
11
216.210517
21
260.658542
0
LINE
8
Calque_1
10
216.210517
20
260.658542
11
217.970510
21
260.480082
0
LINE
8
Calque_1
10
217.971000
20
260.480000
11
219.056200
21
260.502199
0
LINE
8
Calque_1
10
219.056000
20
260.502000
11
220.662110
21
260.537100
0
LINE
8
Calque_1
10
220.662000
20
260.537000
11
222.122890
21
260.855841
0
LINE
8
Calque_1
10
222.123000
20
260.856000
11
222.682651
21
260.937600
0
LINE
8
Calque_1
10
222.683000
20
260.937000
11
223.165658
21
261.050170
0
LINE
8
Calque_1
10
223.165000
20
261.051000
11
223.395999
21
261.078398
0
LINE
8
Calque_1
10
223.396000
20
261.078000
11
223.916379
21
261.157102
0
LINE
8
Calque_1
10
223.917000
20
261.157000
11
224.182102
21
261.186998
0
LINE
8
Calque_1
10
224.182000
20
261.187000
11
224.672410
21
261.197001
0
LINE
8
Calque_1
10
224.672000
20
261.197000
11
227.261490
21
261.421279
0
LINE
8
Calque_1
10
227.262000
20
261.421000
11
228.837100
21
261.461799
0
LINE
8
Calque_1
10
228.837000
20
261.462000
11
229.823764
21
261.407484
0
LINE
8
Calque_1
10
229.823764
20
261.407484
11
231.346930
21
261.489400
0
LINE
8
Calque_1
10
231.347000
20
261.490000
11
233.112780
21
261.855349
0
LINE
8
Calque_1
10
233.113000
20
261.855000
11
233.822519
21
261.674142
0
LINE
8
Calque_1
10
233.822000
20
261.674000
11
234.589910
21
261.765998
0
LINE
8
Calque_1
10
234.590000
20
261.766000
11
235.064389
21
261.960302
0
LINE
8
Calque_1
10
235.064000
20
261.960000
11
235.520818
21
262.280399
0
LINE
8
Calque_1
10
235.521000
20
262.281000
11
235.654321
21
262.424139
0
LINE
8
Calque_1
10
235.655000
20
262.424000
11
236.320080
21
262.561459
0
LINE
8
Calque_1
10
236.320000
20
262.561000
11
237.016597
21
262.703110
0
LINE
8
Calque_1
10
205.357000
20
261.865000
11
205.386000
21
261.865000
0
LINE
8
Calque_1
10
237.021000
20
262.714000
11
237.298511
21
262.699501
0
LINE
8
Calque_1
10
237.299000
20
262.699000
11
237.513968
21
262.688999
0
LINE
8
Calque_1
10
237.514000
20
262.689000
11
238.009580
21
262.602198
0
LINE
8
Calque_1
10
238.009000
20
262.602000
11
239.057510
21
262.479011
0
LINE
8
Calque_1
10
239.058000
20
262.479000
11
239.272982
21
262.468708
0
LINE
8
Calque_1
10
237.016000
20
262.704000
11
237.021001
21
262.714001
0
LINE
8
Calque_1
10
239.283000
20
262.469000
11
239.967198
21
262.363580
0
LINE
8
Calque_1
10
239.967000
20
262.364000
11
241.258390
21
262.389294
0
LINE
8
Calque_1
10
239.273000
20
262.469000
11
239.283000
21
262.469000
0
LINE
8
Calque_1
10
241.470000
20
262.389000
11
241.399700
21
261.054200
0
LINE
8
Calque_1
10
241.400000
20
261.054000
11
241.315302
21
258.942500
0
LINE
8
Calque_1
10
241.315000
20
258.943000
11
241.221999
21
258.048482
0
LINE
8
Calque_1
10
241.222000
20
258.048000
11
241.274700
21
255.155150
0
LINE
8
Calque_1
10
241.275000
20
255.155000
11
240.905510
21
249.956880
0
LINE
8
Calque_1
10
240.905000
20
249.957000
11
240.833200
21
244.108270
0
LINE
8
Calque_1
10
240.833000
20
244.108000
11
240.786289
21
243.347896
0
LINE
8
Calque_1
10
240.786289
20
243.347896
11
240.930700
21
243.780891
0
LINE
8
Calque_1
10
240.931000
20
243.781000
11
240.960367
21
243.850222
0
LINE
8
Calque_1
10
240.960367
20
243.850222
11
240.910109
21
243.678751
0
LINE
8
Calque_1
10
240.910109
20
243.678751
11
240.776491
21
243.167601
0
LINE
8
Calque_1
10
240.777000
20
243.168000
11
240.681901
21
242.254882
0
LINE
8
Calque_1
10
240.682000
20
242.255000
11
240.625699
21
241.400270
0
LINE
8
Calque_1
10
240.625000
20
241.400000
11
240.637409
21
241.129220
0
LINE
8
Calque_1
10
240.638000
20
241.129000
11
240.596699
21
240.674251
0
LINE
8
Calque_1
10
240.596000
20
240.674000
11
240.466291
21
239.588790
0
LINE
8
Calque_1
10
240.467000
20
239.589000
11
240.467000
21
237.910550
0
LINE
8
Calque_1
10
240.467000
20
237.911000
11
240.346599
21
236.993741
0
LINE
8
Calque_1
10
240.346000
20
236.993000
11
240.320203
21
235.592050
0
LINE
8
Calque_1
10
240.320000
20
235.593000
11
240.344791
21
233.102720
0
LINE
8
Calque_1
10
240.345000
20
233.102000
11
240.411101
21
232.522190
0
LINE
8
Calque_1
10
241.259000
20
262.389000
11
241.470000
21
262.389000
0
LINE
8
Calque_1
10
240.411000
20
232.513000
11
240.411000
21
231.821571
0
LINE
8
Calque_1
10
240.411000
20
231.822000
11
240.515381
21
230.381770
0
LINE
8
Calque_1
10
240.516000
20
230.382000
11
240.534098
21
228.405900
0
LINE
8
Calque_1
10
240.534000
20
228.406000
11
240.645109
21
226.888780
0
LINE
8
Calque_1
10
240.645000
20
226.888000
11
239.651771
21
226.821899
0
LINE
8
Calque_1
10
239.652000
20
226.822000
11
237.021670
21
226.603412
0
LINE
8
Calque_1
10
237.021000
20
226.604000
11
234.852660
21
226.322878
0
LINE
8
Calque_1
10
234.853000
20
226.323000
11
234.796937
21
226.336125
0
LINE
8
Calque_1
10
234.796937
20
226.336125
11
234.251492
21
226.278002
0
LINE
8
Calque_1
10
234.252000
20
226.278000
11
233.661850
21
226.162758
0
LINE
8
Calque_1
10
233.661000
20
226.162000
11
233.475480
21
226.151708
0
LINE
8
Calque_1
10
233.476000
20
226.152000
11
231.768610
21
225.937021
0
LINE
8
Calque_1
10
240.411000
20
232.522000
11
240.411000
21
232.513000
0
LINE
8
Calque_1
10
231.567000
20
225.937000
11
229.516990
21
226.107540
0
LINE
8
Calque_1
10
229.517000
20
226.108000
11
227.597740
21
226.086304
0
LINE
8
Calque_1
10
227.598000
20
226.086000
11
225.170240
21
226.062796
0
LINE
8
Calque_1
10
225.170000
20
226.063000
11
223.072970
21
225.921400
0
LINE
8
Calque_1
10
223.073000
20
225.921000
11
221.682910
21
225.876100
0
LINE
8
Calque_1
10
221.683000
20
225.876000
11
217.179400
21
225.448111
0
LINE
8
Calque_1
10
217.179000
20
225.448000
11
214.911440
21
225.323458
0
LINE
8
Calque_1
10
214.912000
20
225.324000
11
213.138470
21
225.186031
0
LINE
8
Calque_1
10
213.138000
20
225.186000
11
211.061120
21
225.124000
0
LINE
8
Calque_1
10
211.061000
20
225.124000
11
209.268275
21
224.762550
0
LINE
8
Calque_1
10
209.268275
20
224.762550
11
208.129400
21
224.373651
0
LINE
8
Calque_1
10
208.130000
20
224.374000
11
205.446960
21
224.484080
0
LINE
8
Calque_1
10
205.447000
20
224.484000
11
204.167538
21
224.544952
0
LINE
8
Calque_1
10
204.167538
20
224.544952
11
203.079700
21
224.470004
0
LINE
8
Calque_1
10
231.768000
20
225.937000
11
231.567000
21
225.937000
0
LINE
8
Calque_1
10
203.079000
20
224.470000
11
203.079138
21
224.469471
0
LINE
8
Calque_1
10
205.563000
20
261.841000
11
205.550591
21
261.840471
0
LINE
8
Calque_1
10
205.551000
20
261.840000
11
205.563409
21
261.840529
0
LINE
8
Calque_1
10
204.827000
20
266.770000
11
204.837292
21
266.869700
0
LINE
8
Calque_1
10
204.837000
20
266.870000
11
204.980150
21
272.620550
0
LINE
8
Calque_1
10
204.981000
20
272.621000
11
204.962902
21
275.243570
0
LINE
8
Calque_1
10
204.963000
20
275.243000
11
205.086510
21
280.716050
0
LINE
8
Calque_1
10
205.086000
20
280.716000
11
204.997100
21
283.260540
0
LINE
8
Calque_1
10
204.997000
20
283.261000
11
204.997000
21
285.238660
0
LINE
8
Calque_1
10
204.997000
20
285.239000
11
204.960800
21
292.683500
0
LINE
8
Calque_1
10
204.961000
20
292.860000
11
205.089672
21
299.467860
0
LINE
8
Calque_1
10
205.090000
20
299.468000
11
205.100001
21
299.637490
0
LINE
8
Calque_1
10
205.100000
20
299.637000
11
205.111906
21
299.721200
0
LINE
8
Calque_1
10
205.112000
20
299.721000
11
205.705237
21
303.163160
0
LINE
8
Calque_1
10
205.705000
20
303.163000
11
205.727199
21
303.273590
0
LINE
8
Calque_1
10
205.727000
20
303.274000
11
206.692839
21
308.814740
0
LINE
8
Calque_1
10
206.693000
20
308.815000
11
206.755000
21
309.310059
0
LINE
8
Calque_1
10
204.961000
20
292.683000
11
204.961000
21
292.860000
0
LINE
8
Calque_1
10
206.755000
20
309.320000
11
206.808200
21
309.562360
0
LINE
8
Calque_1
10
206.808000
20
309.562000
11
207.051919
21
311.089040
0
LINE
8
Calque_1
10
207.052000
20
311.089000
11
207.374461
21
314.618500
0
LINE
8
Calque_1
10
207.374000
20
314.619000
11
207.536779
21
318.547960
0
LINE
8
Calque_1
10
207.537000
20
318.548000
11
207.448600
21
320.644510
0
LINE
8
Calque_1
10
207.449000
20
320.644000
11
207.438999
21
321.359719
0
LINE
8
Calque_1
10
207.439000
20
321.360000
11
207.435250
21
321.345221
0
LINE
8
Calque_1
10
207.435250
20
321.345221
11
207.439000
21
321.384299
0
LINE
8
Calque_1
10
207.439000
20
321.384000
11
207.406999
21
322.904830
0
LINE
8
Calque_1
10
207.407000
20
322.905000
11
207.142941
21
327.536750
0
LINE
8
Calque_1
10
207.143000
20
327.537000
11
207.117203
21
328.303881
0
LINE
8
Calque_1
10
207.117000
20
328.304000
11
207.127001
21
329.389720
0
LINE
8
Calque_1
10
207.127000
20
329.389000
11
207.072200
21
333.201160
0
LINE
8
Calque_1
10
207.072000
20
333.202000
11
207.465782
21
338.036320
0
LINE
8
Calque_1
10
207.466000
20
338.036000
11
207.782259
21
340.306670
0
LINE
8
Calque_1
10
207.782000
20
340.307000
11
207.956659
21
342.095000
0
LINE
8
Calque_1
10
207.957000
20
342.095000
11
208.541980
21
343.685600
0
LINE
8
Calque_1
10
208.542000
20
343.685000
11
209.074522
21
345.762085
0
LINE
8
Calque_1
10
209.074522
20
345.762085
11
209.447369
21
347.817570
0
LINE
8
Calque_1
10
209.447000
20
347.818000
11
209.899691
21
351.868900
0
LINE
8
Calque_1
10
209.900000
20
351.869000
11
210.051918
21
353.057560
0
LINE
8
Calque_1
10
210.052000
20
353.057000
11
210.211681
21
354.445030
0
LINE
8
Calque_1
10
210.211000
20
354.445000
11
210.192400
21
357.853060
0
LINE
8
Calque_1
10
210.193000
20
357.853000
11
210.758337
21
364.613300
0
LINE
8
Calque_1
10
210.758000
20
364.614000
11
210.875821
21
366.911020
0
LINE
8
Calque_1
10
210.876000
20
366.911000
11
211.113709
21
370.304070
0
LINE
8
Calque_1
10
206.755000
20
309.310000
11
206.755000
21
309.320000
0
LINE
8
Calque_1
10
211.114000
20
370.377000
11
211.982147
21
370.347399
0
LINE
8
Calque_1
10
211.982147
20
370.347399
11
213.116470
21
370.506191
0
LINE
8
Calque_1
10
213.116000
20
370.506000
11
213.327349
21
370.555099
0
LINE
8
Calque_1
10
213.327000
20
370.555000
11
213.587450
21
370.531690
0
LINE
8
Calque_1
10
213.588000
20
370.532000
11
214.167299
21
370.481398
0
LINE
8
Calque_1
10
214.167000
20
370.481000
11
214.332359
21
370.459807
0
LINE
8
Calque_1
10
214.333000
20
370.460000
11
214.765530
21
370.383998
0
LINE
8
Calque_1
10
214.765000
20
370.384000
11
215.553579
21
370.295100
0
LINE
8
Calque_1
10
215.554000
20
370.295000
11
217.236697
21
370.342353
0
LINE
8
Calque_1
10
217.236697
20
370.342353
11
218.203970
21
370.446931
0
LINE
8
Calque_1
10
218.204000
20
370.447000
11
219.737240
21
370.557580
0
LINE
8
Calque_1
10
219.737000
20
370.557000
11
220.234130
21
370.672239
0
LINE
8
Calque_1
10
220.234000
20
370.673000
11
221.810130
21
370.723099
0
LINE
8
Calque_1
10
221.810000
20
370.723000
11
223.271410
21
370.930221
0
LINE
8
Calque_1
10
223.272000
20
370.930000
11
223.728300
21
371.025599
0
LINE
8
Calque_1
10
223.728000
20
371.025000
11
224.181720
21
371.069400
0
LINE
8
Calque_1
10
224.182000
20
371.070000
11
224.928246
21
371.218227
0
LINE
8
Calque_1
10
224.928246
20
371.218227
11
225.057918
21
371.274131
0
LINE
8
Calque_1
10
225.058000
20
371.274000
11
225.911169
21
371.434708
0
LINE
8
Calque_1
10
225.911000
20
371.435000
11
226.198329
21
371.515600
0
LINE
8
Calque_1
10
226.198000
20
371.515000
11
226.510121
21
371.566202
0
LINE
8
Calque_1
10
226.510000
20
371.567000
11
227.379719
21
371.811948
0
LINE
8
Calque_1
10
227.380000
20
371.811000
11
228.280720
21
372.012020
0
LINE
8
Calque_1
10
211.114000
20
370.304000
11
211.114000
21
370.377000
0
LINE
8
Calque_1
10
228.302000
20
371.960000
11
228.497860
21
369.718270
0
LINE
8
Calque_1
10
228.498000
20
369.719000
11
228.616851
21
369.007420
0
LINE
8
Calque_1
10
228.616000
20
369.007000
11
228.768961
21
366.394250
0
LINE
8
Calque_1
10
228.769000
20
366.394000
11
228.830000
21
364.296450
0
LINE
8
Calque_1
10
228.830000
20
364.297000
11
228.716309
21
362.093000
0
LINE
8
Calque_1
10
228.717000
20
362.093000
11
228.841550
21
359.422370
0
LINE
8
Calque_1
10
228.281000
20
372.013000
11
228.302193
21
372.001094
0
LINE
8
Calque_1
10
228.302193
20
372.001094
11
228.302000
21
371.960000
0
LINE
8
Calque_1
10
228.841000
20
358.901000
11
228.841000
21
358.858101
0
LINE
8
Calque_1
10
228.841000
20
358.858000
11
228.853912
21
358.053911
0
LINE
8
Calque_1
10
228.854000
20
358.054000
11
228.899500
21
357.236481
0
LINE
8
Calque_1
10
228.900000
20
357.236000
11
228.949599
21
356.772980
0
LINE
8
Calque_1
10
228.949000
20
356.773000
11
229.070960
21
354.869760
0
LINE
8
Calque_1
10
229.071000
20
354.870000
11
229.179521
21
353.518140
0
LINE
8
Calque_1
10
229.180000
20
353.518000
11
229.230099
21
350.786900
0
LINE
8
Calque_1
10
229.230000
20
350.787000
11
229.441359
21
346.992920
0
LINE
8
Calque_1
10
229.441000
20
346.993000
11
229.528900
21
343.124510
0
LINE
8
Calque_1
10
229.529000
20
343.124000
11
229.753790
21
339.302540
0
LINE
8
Calque_1
10
229.754000
20
339.303000
11
229.666100
21
336.996160
0
LINE
8
Calque_1
10
229.666000
20
336.996000
11
229.676901
21
335.868940
0
LINE
8
Calque_1
10
229.677000
20
335.869000
11
229.603099
21
334.311990
0
LINE
8
Calque_1
10
229.603000
20
334.312000
11
229.627289
21
333.210780
0
LINE
8
Calque_1
10
229.627000
20
333.211000
11
229.539701
21
328.426790
0
LINE
8
Calque_1
10
229.540000
20
328.427000
11
229.668375
21
325.445653
0
LINE
8
Calque_1
10
229.668375
20
325.445653
11
229.910001
21
322.637180
0
LINE
8
Calque_1
10
229.910000
20
322.637000
11
230.049009
21
320.465560
0
LINE
8
Calque_1
10
230.049000
20
320.465000
11
230.104801
21
320.000951
0
LINE
8
Calque_1
10
230.105000
20
320.001000
11
230.102010
21
319.510590
0
LINE
8
Calque_1
10
230.102000
20
319.511000
11
230.164000
21
317.398460
0
LINE
8
Calque_1
10
230.164000
20
317.398000
11
230.120100
21
315.977420
0
LINE
8
Calque_1
10
230.120000
20
315.978000
11
229.999070
21
315.054541
0
LINE
8
Calque_1
10
229.999000
20
315.054000
11
229.980574
21
315.113525
0
LINE
8
Calque_1
10
229.980574
20
315.113525
11
229.878599
21
314.492801
0
LINE
8
Calque_1
10
229.879000
20
314.493000
11
229.857807
21
313.157680
0
LINE
8
Calque_1
10
229.857000
20
313.158000
11
229.833188
21
313.003480
0
LINE
8
Calque_1
10
229.834000
20
313.003000
11
229.653128
21
312.319321
0
LINE
8
Calque_1
10
229.653000
20
312.320000
11
229.587976
21
311.765858
0
LINE
8
Calque_1
10
229.587976
20
311.765858
11
229.612201
21
311.812541
0
LINE
8
Calque_1
10
229.612000
20
311.812000
11
229.516898
21
310.580550
0
LINE
8
Calque_1
10
229.517000
20
310.581000
11
229.579000
21
309.124760
0
LINE
8
Calque_1
10
229.579000
20
309.124000
11
229.528901
21
307.894100
0
LINE
8
Calque_1
10
229.529000
20
307.895000
11
229.567200
21
306.157640
0
LINE
8
Calque_1
10
229.567000
20
306.157000
11
229.541706
21
303.314280
0
LINE
8
Calque_1
10
229.542000
20
303.314000
11
229.658790
21
301.080030
0
LINE
8
Calque_1
10
229.658000
20
301.080000
11
229.725699
21
299.614450
0
LINE
8
Calque_1
10
229.726000
20
299.615000
11
229.765801
21
299.234661
0
LINE
8
Calque_1
10
229.766000
20
299.235000
11
229.842499
21
298.919780
0
LINE
8
Calque_1
10
229.842000
20
298.919000
11
229.831708
21
298.935000
0
LINE
8
Calque_1
10
229.832000
20
298.935000
11
229.818496
21
298.991900
0
LINE
8
Calque_1
10
229.818496
20
298.991900
11
229.832000
21
298.885900
0
LINE
8
Calque_1
10
229.832000
20
298.886000
11
229.943101
21
297.856600
0
LINE
8
Calque_1
10
229.943000
20
297.857000
11
230.203448
21
296.144440
0
LINE
8
Calque_1
10
230.204000
20
296.144000
11
230.395722
21
294.433000
0
LINE
8
Calque_1
10
230.395000
20
294.433000
11
230.673019
21
293.008280
0
LINE
8
Calque_1
10
230.673000
20
293.009000
11
230.776870
21
291.567740
0
LINE
8
Calque_1
10
230.777000
20
291.567000
11
230.858100
21
289.244150
0
LINE
8
Calque_1
10
228.841000
20
359.422000
11
228.841000
21
358.901000
0
LINE
8
Calque_1
10
230.858000
20
289.230000
11
230.881786
21
288.599551
0
LINE
8
Calque_1
10
230.882000
20
288.600000
11
230.833401
21
287.419710
0
LINE
8
Calque_1
10
230.834000
20
287.420000
11
230.861900
21
286.557521
0
LINE
8
Calque_1
10
230.858000
20
289.244000
11
230.858000
21
289.230000
0
LINE
8
Calque_1
10
230.861000
20
286.514000
11
230.835706
21
286.245800
0
LINE
8
Calque_1
10
230.836000
20
286.246000
11
230.846292
21
285.347351
0
LINE
8
Calque_1
10
230.846000
20
285.348000
11
230.834094
21
283.994070
0
LINE
8
Calque_1
10
230.861000
20
286.557000
11
230.861000
21
286.514000
0
LINE
8
Calque_1
10
230.835000
20
283.965000
11
230.824708
21
283.094251
0
LINE
8
Calque_1
10
230.824000
20
283.094000
11
230.870000
21
282.707981
0
LINE
8
Calque_1
10
230.870000
20
282.708000
11
230.892148
21
282.612120
0
LINE
8
Calque_1
10
230.892148
20
282.612120
11
230.913900
21
282.422220
0
LINE
8
Calque_1
10
230.914000
20
282.422000
11
230.870100
21
282.706739
0
LINE
8
Calque_1
10
230.870000
20
282.707000
11
230.832300
21
280.300950
0
LINE
8
Calque_1
10
230.833000
20
280.301000
11
230.848002
21
279.352731
0
LINE
8
Calque_1
10
230.848000
20
279.353000
11
230.796801
21
277.465780
0
LINE
8
Calque_1
10
230.796000
20
277.465000
11
230.920539
21
275.434120
0
LINE
8
Calque_1
10
230.921000
20
275.434000
11
230.994901
21
273.585530
0
LINE
8
Calque_1
10
230.995000
20
273.586000
11
230.970209
21
272.661511
0
LINE
8
Calque_1
10
230.970000
20
272.662000
11
231.021700
21
271.183020
0
LINE
8
Calque_1
10
231.022000
20
271.183000
11
231.178580
21
269.760870
0
LINE
8
Calque_1
10
231.178000
20
269.760000
11
231.213100
21
268.906302
0
LINE
8
Calque_1
10
231.213000
20
268.907000
11
231.371128
21
267.398570
0
LINE
8
Calque_1
10
231.372000
20
267.398000
11
231.419001
21
266.405811
0
LINE
8
Calque_1
10
231.419000
20
266.406000
11
230.616462
21
266.253042
0
LINE
8
Calque_1
10
230.616000
20
266.253000
11
228.832650
21
266.280900
0
LINE
8
Calque_1
10
228.833000
20
266.281000
11
226.990220
21
266.231899
0
LINE
8
Calque_1
10
226.990000
20
266.232000
11
224.438210
21
266.010311
0
LINE
8
Calque_1
10
224.438000
20
266.010000
11
224.463589
21
266.028426
0
LINE
8
Calque_1
10
224.463589
20
266.028426
11
223.969810
21
266.020001
0
LINE
8
Calque_1
10
223.970000
20
266.020000
11
223.199513
21
265.924401
0
LINE
8
Calque_1
10
223.199000
20
265.925000
11
222.781139
21
265.863473
0
LINE
8
Calque_1
10
222.781139
20
265.863473
11
222.675464
21
265.847316
0
LINE
8
Calque_1
10
222.675464
20
265.847316
11
222.770079
21
265.858899
0
LINE
8
Calque_1
10
222.770000
20
265.859000
11
222.189682
21
265.790801
0
LINE
8
Calque_1
10
222.190000
20
265.790000
11
221.708369
21
265.677870
0
LINE
8
Calque_1
10
221.709000
20
265.678000
11
221.216010
21
265.595299
0
LINE
8
Calque_1
10
221.216000
20
265.596000
11
220.168000
21
265.331941
0
LINE
8
Calque_1
10
220.168000
20
265.331000
11
219.054380
21
265.320999
0
LINE
8
Calque_1
10
219.054000
20
265.321000
11
217.969310
21
265.298802
0
LINE
8
Calque_1
10
217.969000
20
265.299000
11
215.737610
21
265.672099
0
LINE
8
Calque_1
10
215.738000
20
265.672000
11
215.070862
21
265.766102
0
LINE
8
Calque_1
10
215.071000
20
265.766000
11
214.699959
21
265.787193
0
LINE
8
Calque_1
10
230.835000
20
283.994000
11
230.835000
21
283.965000
0
LINE
8
Calque_1
10
214.685000
20
265.788000
11
214.631300
21
265.776597
0
LINE
8
Calque_1
10
214.631000
20
265.776000
11
214.424289
21
265.799310
0
LINE
8
Calque_1
10
214.424000
20
265.800000
11
213.747562
21
265.903349
0
LINE
8
Calque_1
10
213.748000
20
265.903000
11
212.903091
21
265.928797
0
LINE
8
Calque_1
10
214.700000
20
265.788000
11
214.685000
21
265.788000
0
LINE
8
Calque_1
10
212.893000
20
265.929000
11
210.653350
21
266.100048
0
LINE
8
Calque_1
10
210.653000
20
266.100000
11
209.446350
21
266.116007
0
LINE
8
Calque_1
10
209.446000
20
266.116000
11
208.018700
21
266.337689
0
LINE
8
Calque_1
10
208.019000
20
266.337000
11
206.922430
21
266.447069
0
LINE
8
Calque_1
10
206.922000
20
266.448000
11
206.518400
21
266.561691
0
LINE
8
Calque_1
10
206.519000
20
266.561000
11
206.049262
21
266.635898
0
LINE
8
Calque_1
10
206.049000
20
266.636000
11
205.016510
21
266.756920
0
LINE
8
Calque_1
10
205.017000
20
266.757000
11
204.827350
21
266.770414
0
LINE
8
Calque_1
10
212.903000
20
265.929000
11
212.893000
21
265.929000
0
LINE
8
Calque_1
10
229.834000
20
313.003000
11
229.791601
21
312.791650
0
LINE
8
Calque_1
10
229.791000
20
312.792000
11
229.833399
21
313.003350
0
LINE
8
Calque_1
10
204.827000
20
266.770000
11
204.827180
21
266.770011
0
LINE
8
Calque_1
10
230.105000
20
320.001000
11
230.117409
21
320.022201
0
LINE
8
Calque_1
10
230.117000
20
320.022000
11
230.104591
21
320.000799
0
LINE
8
Calque_1
10
211.304000
20
375.165000
11
211.324188
21
376.491020
0
LINE
8
Calque_1
10
211.324000
20
376.491000
11
211.387100
21
377.133339
0
LINE
8
Calque_1
10
211.388000
20
377.133000
11
211.398001
21
377.226498
0
LINE
8
Calque_1
10
211.398000
20
377.227000
11
211.452300
21
378.195940
0
LINE
8
Calque_1
10
211.452000
20
378.196000
11
211.558450
21
380.580860
0
LINE
8
Calque_1
10
211.558000
20
380.580000
11
211.617999
21
382.774700
0
LINE
8
Calque_1
10
211.618000
20
382.775000
11
211.976629
21
384.787280
0
LINE
8
Calque_1
10
211.977000
20
384.787000
11
211.987001
21
384.876900
0
LINE
8
Calque_1
10
211.987000
20
384.877000
11
212.173550
21
386.103280
0
LINE
8
Calque_1
10
212.174000
20
386.104000
11
212.189002
21
386.174800
0
LINE
8
Calque_1
10
212.189000
20
386.174000
11
212.193499
21
386.108627
0
LINE
8
Calque_1
10
212.193499
20
386.108627
11
212.356949
21
386.630818
0
LINE
8
Calque_1
10
212.356000
20
386.631000
11
212.641771
21
387.877950
0
LINE
8
Calque_1
10
212.642000
20
387.878000
11
213.391818
21
392.277200
0
LINE
8
Calque_1
10
213.392000
20
392.277000
11
213.943910
21
394.632420
0
LINE
8
Calque_1
10
213.944000
20
394.633000
11
214.050971
21
395.267579
0
LINE
8
Calque_1
10
214.051000
20
395.267000
11
214.308349
21
396.119148
0
LINE
8
Calque_1
10
214.308000
20
396.119000
11
214.741559
21
398.192260
0
LINE
8
Calque_1
10
214.742000
20
398.193000
11
215.174019
21
400.176340
0
LINE
8
Calque_1
10
215.174000
20
400.176000
11
215.548650
21
402.418750
0
LINE
8
Calque_1
10
215.549000
20
402.419000
11
215.775861
21
402.959540
0
LINE
8
Calque_1
10
215.775000
20
402.959000
11
215.961028
21
403.679888
0
LINE
8
Calque_1
10
215.961000
20
403.680000
11
215.996100
21
403.806600
0
LINE
8
Calque_1
10
215.996000
20
403.807000
11
217.162340
21
405.595520
0
LINE
8
Calque_1
10
217.163000
20
405.595000
11
217.977418
21
406.889500
0
LINE
8
Calque_1
10
217.977000
20
406.890000
11
218.432789
21
407.572637
0
LINE
8
Calque_1
10
218.433000
20
407.572000
11
218.475899
21
407.673290
0
LINE
8
Calque_1
10
218.476000
20
407.674000
11
218.764869
21
408.096200
0
LINE
8
Calque_1
10
218.765000
20
408.096000
11
219.553071
21
409.425630
0
LINE
8
Calque_1
10
219.553000
20
409.426000
11
219.699240
21
409.800139
0
LINE
8
Calque_1
10
219.699000
20
409.800000
11
219.847309
21
410.016521
0
LINE
8
Calque_1
10
219.838000
20
410.011000
11
219.848001
21
410.021001
0
LINE
8
Calque_1
10
219.847000
20
410.016000
11
219.835094
21
410.003088
0
LINE
8
Calque_1
10
219.835094
20
410.003088
11
219.838084
21
410.008089
0
LINE
8
Calque_1
10
219.838084
20
410.008089
11
219.838613
21
410.012084
0
LINE
8
Calque_1
10
219.838613
20
410.012084
11
219.840729
21
410.012613
0
LINE
8
Calque_1
10
219.840729
20
410.012613
11
219.841259
21
410.014730
0
LINE
8
Calque_1
10
219.841259
20
410.014730
11
219.839142
21
410.012613
0
LINE
8
Calque_1
10
219.839142
20
410.012613
11
219.837025
21
410.010497
0
LINE
8
Calque_1
10
219.858000
20
410.021000
11
220.074529
21
410.337259
0
LINE
8
Calque_1
10
220.074000
20
410.337000
11
220.238848
21
410.658950
0
LINE
8
Calque_1
10
220.239000
20
410.659000
11
220.380070
21
410.999029
0
LINE
8
Calque_1
10
220.380000
20
410.999000
11
220.726231
21
411.604130
0
LINE
8
Calque_1
10
220.727000
20
411.604000
11
220.935780
21
412.179680
0
LINE
8
Calque_1
10
220.935000
20
412.180000
11
221.214569
21
411.998610
0
LINE
8
Calque_1
10
221.215000
20
411.999000
11
223.114110
21
410.068370
0
LINE
8
Calque_1
10
223.114000
20
410.068000
11
224.900970
21
408.244340
0
LINE
8
Calque_1
10
219.848000
20
410.021000
11
219.858000
21
410.021000
0
LINE
8
Calque_1
10
224.911000
20
408.234000
11
226.757110
21
406.267785
0
LINE
8
Calque_1
10
226.757110
20
406.267785
11
228.197620
21
404.376870
0
LINE
8
Calque_1
10
224.901000
20
408.244000
11
224.911292
21
408.233999
0
LINE
8
Calque_1
10
228.198000
20
404.367000
11
228.808467
21
403.062124
0
LINE
8
Calque_1
10
228.808467
20
403.062124
11
229.449610
21
401.348580
0
LINE
8
Calque_1
10
229.449000
20
401.348000
11
230.570890
21
398.457220
0
LINE
8
Calque_1
10
230.571000
20
398.458000
11
230.777711
21
397.707651
0
LINE
8
Calque_1
10
230.778000
20
397.707000
11
231.084437
21
396.742722
0
LINE
8
Calque_1
10
231.085000
20
396.743000
11
231.132001
21
396.619490
0
LINE
8
Calque_1
10
231.132000
20
396.619000
11
231.349051
21
396.212309
0
LINE
8
Calque_1
10
231.349000
20
396.213000
11
231.371701
21
396.157700
0
LINE
8
Calque_1
10
231.371000
20
396.157000
11
231.641790
21
395.228372
0
LINE
8
Calque_1
10
231.642000
20
395.229000
11
232.537029
21
392.630190
0
LINE
8
Calque_1
10
232.537000
20
392.630000
11
233.754500
21
389.536650
0
LINE
8
Calque_1
10
233.755000
20
389.537000
11
233.754174
21
389.477134
0
LINE
8
Calque_1
10
233.754174
20
389.477134
11
233.937419
21
388.938069
0
LINE
8
Calque_1
10
233.937000
20
388.938000
11
234.299249
21
388.130821
0
LINE
8
Calque_1
10
234.299000
20
388.131000
11
235.154759
21
385.884110
0
LINE
8
Calque_1
10
235.155000
20
385.884000
11
236.023679
21
382.283180
0
LINE
8
Calque_1
10
236.024000
20
382.283000
11
236.289099
21
381.474781
0
LINE
8
Calque_1
10
236.289000
20
381.475000
11
236.638332
21
380.045630
0
LINE
8
Calque_1
10
236.638000
20
380.045000
11
236.682998
21
379.706011
0
LINE
8
Calque_1
10
236.683000
20
379.706000
11
236.186391
21
379.399549
0
LINE
8
Calque_1
10
236.187000
20
379.400000
11
235.757571
21
379.291481
0
LINE
8
Calque_1
10
235.757000
20
379.291000
11
235.310521
21
379.160780
0
LINE
8
Calque_1
10
235.311000
20
379.161000
11
234.606651
21
379.048859
0
LINE
8
Calque_1
10
234.606000
20
379.049000
11
233.897000
21
378.822660
0
LINE
8
Calque_1
10
233.897000
20
378.823000
11
233.253111
21
378.685541
0
LINE
8
Calque_1
10
233.253000
20
378.685000
11
231.066050
21
378.009070
0
LINE
8
Calque_1
10
231.066000
20
378.009000
11
230.789021
21
377.909300
0
LINE
8
Calque_1
10
230.789000
20
377.910000
11
230.696999
21
377.965801
0
LINE
8
Calque_1
10
230.697000
20
377.965000
11
229.770748
21
378.103632
0
LINE
8
Calque_1
10
229.770748
20
378.103632
11
228.861970
21
377.877201
0
LINE
8
Calque_1
10
228.862000
20
377.878000
11
228.255583
21
377.460633
0
LINE
8
Calque_1
10
228.255583
20
377.460633
11
227.804190
21
376.879091
0
LINE
8
Calque_1
10
227.805000
20
376.879000
11
227.323890
21
376.704330
0
LINE
8
Calque_1
10
227.324000
20
376.704000
11
226.140610
21
376.425471
0
LINE
8
Calque_1
10
226.140000
20
376.425000
11
225.760691
21
376.312859
0
LINE
8
Calque_1
10
225.761000
20
376.313000
11
225.228220
21
376.222002
0
LINE
8
Calque_1
10
225.228000
20
376.222000
11
224.645092
21
376.055598
0
LINE
8
Calque_1
10
224.645000
20
376.056000
11
224.023849
21
375.939210
0
LINE
8
Calque_1
10
224.024000
20
375.939000
11
223.504653
21
375.822732
0
LINE
8
Calque_1
10
223.505000
20
375.823000
11
223.168591
21
375.786800
0
LINE
8
Calque_1
10
223.168000
20
375.787000
11
223.129800
21
375.776999
0
LINE
8
Calque_1
10
223.130000
20
375.777000
11
222.443730
21
375.633339
0
LINE
8
Calque_1
10
222.444000
20
375.633000
11
221.211520
21
375.461431
0
LINE
8
Calque_1
10
221.211000
20
375.461000
11
219.964050
21
375.444014
0
LINE
8
Calque_1
10
219.964000
20
375.444000
11
219.457051
21
375.398000
0
LINE
8
Calque_1
10
219.457000
20
375.398000
11
219.006899
21
375.277591
0
LINE
8
Calque_1
10
219.007000
20
375.278000
11
218.968201
21
375.270010
0
LINE
8
Calque_1
10
218.968000
20
375.270000
11
218.308090
21
375.225100
0
LINE
8
Calque_1
10
218.309000
20
375.225000
11
216.736421
21
375.145338
0
LINE
8
Calque_1
10
216.736421
20
375.145338
11
215.869360
21
375.065311
0
LINE
8
Calque_1
10
215.869000
20
375.065000
11
215.672632
21
375.081007
0
LINE
8
Calque_1
10
215.673000
20
375.081000
11
215.045129
21
375.189529
0
LINE
8
Calque_1
10
215.045000
20
375.190000
11
214.399560
21
375.256101
0
LINE
8
Calque_1
10
214.399000
20
375.256000
11
214.216073
21
375.272986
0
LINE
8
Calque_1
10
214.216000
20
375.273000
11
214.265649
21
375.288315
0
LINE
8
Calque_1
10
214.265649
20
375.288315
11
214.102944
21
375.339918
0
LINE
8
Calque_1
10
214.102944
20
375.339918
11
213.113740
21
375.360900
0
LINE
8
Calque_1
10
213.114000
20
375.361000
11
211.972980
21
375.142931
0
LINE
8
Calque_1
10
211.973000
20
375.143000
11
211.305859
21
375.166310
0
LINE
8
Calque_1
10
228.198000
20
404.377000
11
228.198000
21
404.367000
0
LINE
8
Calque_1
10
219.006000
20
375.277000
11
218.709889
21
375.167960
0
LINE
8
Calque_1
10
218.710000
20
375.168000
11
218.892419
21
375.244002
0
LINE
8
Calque_1
10
218.892000
20
375.244000
11
219.005691
21
375.277099
0
LINE
8
Calque_1
10
211.306000
20
375.166000
11
211.304413
21
375.164412
0
LINE
8
Calque_1
10
235.309000
20
379.160000
11
235.194282
21
379.123800
0
LINE
8
Calque_1
10
235.194000
20
379.124000
11
235.308718
21
379.160200
0
LINE
8
Calque_1
10
236.637000
20
380.044000
11
236.633005
21
380.074499
0
LINE
8
Calque_1
10
236.633000
20
380.074000
11
236.636995
21
380.043501
0
LINE
8
Calque_1
10
236.287000
20
381.473000
11
236.307188
21
381.420800
0
LINE
8
Calque_1
10
236.307000
20
381.421000
11
236.286812
21
381.473200
0
LINE
8
Calque_1
10
220.934000
20
412.178000
11
220.913812
21
412.190409
0
LINE
8
Calque_1
10
232.993000
20
373.583000
11
234.396010
21
374.014500
0
LINE
8
Calque_1
10
234.396000
20
374.014000
11
235.168048
21
374.182460
0
LINE
8
Calque_1
10
235.168000
20
374.183000
11
235.619651
21
374.319940
0
LINE
8
Calque_1
10
235.620000
20
374.320000
11
236.193608
21
374.420769
0
LINE
8
Calque_1
10
236.194000
20
374.421000
11
237.027018
21
374.653550
0
LINE
8
Calque_1
10
237.027000
20
374.653000
11
237.360311
21
374.736701
0
LINE
8
Calque_1
10
220.913000
20
412.191000
11
220.934696
21
412.183010
0
LINE
8
Calque_1
10
220.934696
20
412.183010
11
220.932579
21
412.178009
0
LINE
8
Calque_1
10
220.932579
20
412.178009
11
220.933108
21
412.178538
0
LINE
8
Calque_1
10
237.376000
20
374.755000
11
237.713449
21
371.956730
0
LINE
8
Calque_1
10
237.713000
20
371.957000
11
237.899042
21
370.598430
0
LINE
8
Calque_1
10
237.900000
20
370.598000
11
238.089648
21
367.038010
0
LINE
8
Calque_1
10
238.089000
20
367.038000
11
238.218191
21
365.984830
0
LINE
8
Calque_1
10
238.218000
20
365.985000
11
238.775069
21
359.471200
0
LINE
8
Calque_1
10
238.775000
20
359.471000
11
238.916600
21
355.797320
0
LINE
8
Calque_1
10
238.917000
20
355.797000
11
239.039470
21
354.696810
0
LINE
8
Calque_1
10
239.039000
20
354.697000
11
239.052891
21
353.568390
0
LINE
8
Calque_1
10
239.053000
20
353.569000
11
239.175470
21
349.972320
0
LINE
8
Calque_1
10
239.176000
20
349.972000
11
239.124298
21
344.966110
0
LINE
8
Calque_1
10
239.124000
20
344.966000
11
239.053700
21
341.105780
0
LINE
8
Calque_1
10
239.054000
20
341.106000
11
239.476190
21
335.848440
0
LINE
8
Calque_1
10
239.476000
20
335.848000
11
239.529200
21
332.096300
0
LINE
8
Calque_1
10
239.529000
20
332.097000
11
239.613701
21
329.832020
0
LINE
8
Calque_1
10
239.614000
20
329.832000
11
240.087868
21
325.994510
0
LINE
8
Calque_1
10
240.088000
20
325.994000
11
240.348450
21
322.794710
0
LINE
8
Calque_1
10
240.348000
20
322.795000
11
240.642560
21
319.053630
0
LINE
8
Calque_1
10
240.643000
20
319.053000
11
240.685399
21
318.061851
0
LINE
8
Calque_1
10
240.685000
20
318.062000
11
240.665897
21
317.829970
0
LINE
8
Calque_1
10
240.666000
20
317.830000
11
240.691797
21
316.915331
0
LINE
8
Calque_1
10
240.692000
20
316.916000
11
240.993270
21
311.018180
0
LINE
8
Calque_1
10
240.993000
20
311.018000
11
241.150620
21
305.100540
0
LINE
8
Calque_1
10
241.151000
20
305.100000
11
241.576809
21
297.321670
0
LINE
8
Calque_1
10
241.577000
20
297.322000
11
241.678290
21
295.542780
0
LINE
8
Calque_1
10
241.678000
20
295.543000
11
241.688292
21
295.109950
0
LINE
8
Calque_1
10
241.688000
20
295.110000
11
241.677708
21
295.090900
0
LINE
8
Calque_1
10
241.678000
20
295.091000
11
241.485241
21
293.492650
0
LINE
8
Calque_1
10
241.485000
20
293.492000
11
241.446299
21
291.237870
0
LINE
8
Calque_1
10
241.446000
20
291.238000
11
241.356600
21
284.832720
0
LINE
8
Calque_1
10
241.357000
20
284.833000
11
241.481539
21
281.466800
0
LINE
8
Calque_1
10
241.482000
20
281.467000
11
241.429300
21
278.840800
0
LINE
8
Calque_1
10
241.429000
20
278.841000
11
241.392800
21
273.775690
0
LINE
8
Calque_1
10
241.393000
20
273.775000
11
241.517031
21
269.497750
0
LINE
8
Calque_1
10
241.517000
20
269.498000
11
241.506999
21
267.211830
0
LINE
8
Calque_1
10
241.507000
20
267.212000
11
241.380392
21
267.198004
0
LINE
8
Calque_1
10
241.380000
20
267.198000
11
241.364998
21
267.198000
0
LINE
8
Calque_1
10
241.365000
20
267.198000
11
241.376452
21
267.208120
0
LINE
8
Calque_1
10
241.376452
20
267.208120
11
241.049771
21
267.198000
0
LINE
8
Calque_1
10
237.360000
20
374.737000
11
237.376007
21
374.755098
0
LINE
8
Calque_1
10
241.037000
20
267.198000
11
240.391039
21
267.160800
0
LINE
8
Calque_1
10
240.391000
20
267.161000
11
239.822562
21
267.255102
0
LINE
8
Calque_1
10
239.823000
20
267.255000
11
239.331561
21
267.322199
0
LINE
8
Calque_1
10
239.331000
20
267.322000
11
239.182691
21
267.340098
0
LINE
8
Calque_1
10
239.183000
20
267.340000
11
239.166040
21
267.362750
0
LINE
8
Calque_1
10
239.166040
20
267.362750
11
238.750981
21
267.353996
0
LINE
8
Calque_1
10
238.751000
20
267.354000
11
238.631120
21
267.369002
0
LINE
8
Calque_1
10
238.631000
20
267.369000
11
238.662112
21
267.380662
0
LINE
8
Calque_1
10
238.662112
20
267.380662
11
238.197430
21
267.456900
0
LINE
8
Calque_1
10
238.197000
20
267.457000
11
237.869727
21
267.494197
0
LINE
8
Calque_1
10
237.869727
20
267.494197
11
237.840429
21
267.484900
0
LINE
8
Calque_1
10
237.841000
20
267.485000
11
237.518539
21
267.500002
0
LINE
8
Calque_1
10
237.518000
20
267.500000
11
236.970752
21
267.522199
0
LINE
8
Calque_1
10
241.050000
20
267.198000
11
241.037000
21
267.198000
0
LINE
8
Calque_1
10
236.909000
20
267.522000
11
236.177261
21
267.451698
0
LINE
8
Calque_1
10
236.177000
20
267.452000
11
236.166708
21
267.571890
0
LINE
8
Calque_1
10
236.167000
20
267.572000
11
236.000090
21
269.245800
0
LINE
8
Calque_1
10
236.000000
20
269.245000
11
235.960199
21
270.170527
0
LINE
8
Calque_1
10
235.960000
20
270.171000
11
235.817371
21
271.375570
0
LINE
8
Calque_1
10
235.818000
20
271.375000
11
235.769899
21
272.657610
0
LINE
8
Calque_1
10
235.770000
20
272.658000
11
235.794791
21
273.582489
0
LINE
8
Calque_1
10
235.794000
20
273.583000
11
235.719102
21
275.499170
0
LINE
8
Calque_1
10
235.720000
20
275.499000
11
235.595458
21
277.543830
0
LINE
8
Calque_1
10
235.595000
20
277.544000
11
235.644101
21
279.175940
0
LINE
8
Calque_1
10
235.644000
20
279.175000
11
235.633099
21
280.297930
0
LINE
8
Calque_1
10
235.633000
20
280.298000
11
235.670700
21
282.704060
0
LINE
8
Calque_1
10
235.671000
20
282.704000
11
235.608000
21
283.387679
0
LINE
8
Calque_1
10
235.608000
20
283.388000
11
235.615990
21
283.385989
0
LINE
8
Calque_1
10
235.616000
20
283.386000
11
235.625502
21
283.471282
0
LINE
8
Calque_1
10
235.625502
20
283.471282
11
235.632007
21
283.860389
0
LINE
8
Calque_1
10
236.971000
20
267.522000
11
236.909000
21
267.522000
0
LINE
8
Calque_1
10
235.632000
20
283.889000
11
235.644885
21
285.267730
0
LINE
8
Calque_1
10
235.645000
20
285.268000
11
235.634999
21
285.634379
0
LINE
8
Calque_1
10
235.635000
20
285.635000
11
235.691801
21
286.308859
0
LINE
8
Calque_1
10
235.632000
20
283.861000
11
235.632000
21
283.889000
0
LINE
8
Calque_1
10
235.692000
20
286.318000
11
235.675224
21
287.025774
0
LINE
8
Calque_1
10
235.675224
20
287.025774
11
235.653199
21
286.821849
0
LINE
8
Calque_1
10
235.653000
20
286.822000
11
235.629690
21
287.514459
0
LINE
8
Calque_1
10
235.629000
20
287.515000
11
235.680199
21
288.606410
0
LINE
8
Calque_1
10
235.681000
20
288.606000
11
235.654700
21
289.331529
0
LINE
8
Calque_1
10
235.654000
20
289.332000
11
235.561999
21
291.917380
0
LINE
8
Calque_1
10
235.562000
20
291.917000
11
235.416781
21
293.728250
0
LINE
8
Calque_1
10
235.417000
20
293.728000
11
235.145000
21
295.111000
0
LINE
8
Calque_1
10
235.145000
20
295.111000
11
234.962000
21
296.763000
0
LINE
8
Calque_1
10
234.962000
20
296.763000
11
234.699000
21
298.503000
0
LINE
8
Calque_1
10
234.699000
20
298.503000
11
234.585830
21
299.545310
0
LINE
8
Calque_1
10
234.586000
20
299.545000
11
234.502302
21
300.028689
0
LINE
8
Calque_1
10
235.692000
20
286.308000
11
235.692000
21
286.318000
0
LINE
8
Calque_1
10
234.502000
20
300.039000
11
234.444599
21
301.358820
0
LINE
8
Calque_1
10
234.445000
20
301.359000
11
234.335971
21
303.401250
0
LINE
8
Calque_1
10
234.336000
20
303.401000
11
234.361294
21
306.238040
0
LINE
8
Calque_1
10
234.361000
20
306.238000
11
234.322802
21
307.839450
0
LINE
8
Calque_1
10
234.323000
20
307.840000
11
234.373099
21
309.214590
0
LINE
8
Calque_1
10
234.373000
20
309.214000
11
234.311000
21
310.519350
0
LINE
8
Calque_1
10
234.311000
20
310.520000
11
234.391100
21
311.426919
0
LINE
8
Calque_1
10
234.502000
20
300.029000
11
234.502000
21
300.039000
0
LINE
8
Calque_1
10
234.391000
20
311.470000
11
234.614760
21
312.591890
0
LINE
8
Calque_1
10
234.615000
20
312.592000
11
234.651698
21
313.879780
0
LINE
8
Calque_1
10
234.651000
20
313.880000
11
234.722303
21
314.261370
0
LINE
8
Calque_1
10
234.723000
20
314.261000
11
234.875447
21
315.400980
0
LINE
8
Calque_1
10
234.875000
20
315.401000
11
234.956100
21
317.362640
0
LINE
8
Calque_1
10
234.956000
20
317.363000
11
234.894000
21
319.615060
0
LINE
8
Calque_1
10
234.894000
20
319.615000
11
234.904001
21
320.305909
0
LINE
8
Calque_1
10
234.904000
20
320.306000
11
234.822900
21
320.927669
0
LINE
8
Calque_1
10
234.823000
20
320.927000
11
234.687600
21
323.054520
0
LINE
8
Calque_1
10
234.688000
20
323.055000
11
234.451870
21
325.830536
0
LINE
8
Calque_1
10
234.451870
20
325.830536
11
234.334541
21
328.446390
0
LINE
8
Calque_1
10
234.334000
20
328.446000
11
234.421299
21
333.171800
0
LINE
8
Calque_1
10
234.422000
20
333.172000
11
234.396706
21
334.204500
0
LINE
8
Calque_1
10
234.396000
20
334.204000
11
234.471999
21
335.831290
0
LINE
8
Calque_1
10
234.472000
20
335.832000
11
234.459115
21
336.840200
0
LINE
8
Calque_1
10
234.459000
20
336.840000
11
234.545299
21
339.523560
0
LINE
8
Calque_1
10
234.546000
20
339.524000
11
234.321732
21
343.342890
0
LINE
8
Calque_1
10
234.321000
20
343.342000
11
234.233698
21
347.202740
0
LINE
8
Calque_1
10
234.234000
20
347.203000
11
234.020582
21
351.027040
0
LINE
8
Calque_1
10
234.021000
20
351.027000
11
233.971899
21
353.730710
0
LINE
8
Calque_1
10
233.972000
20
353.731000
11
233.855210
21
355.229100
0
LINE
8
Calque_1
10
233.855000
20
355.229000
11
233.727360
21
357.202010
0
LINE
8
Calque_1
10
233.727000
20
357.202000
11
233.653102
21
357.891879
0
LINE
8
Calque_1
10
233.653000
20
357.892000
11
233.642999
21
358.213939
0
LINE
8
Calque_1
10
233.643000
20
358.214000
11
233.631094
21
358.942119
0
LINE
8
Calque_1
10
233.631000
20
358.942000
11
233.631000
21
359.561090
0
LINE
8
Calque_1
10
233.631000
20
359.561000
11
233.506461
21
362.254370
0
LINE
8
Calque_1
10
233.507000
20
362.254000
11
233.618101
21
364.126240
0
LINE
8
Calque_1
10
233.618000
20
364.127000
11
233.552899
21
366.707210
0
LINE
8
Calque_1
10
233.553000
20
366.707000
11
233.380921
21
369.550750
0
LINE
8
Calque_1
10
233.381000
20
369.551000
11
233.251291
21
370.353017
0
LINE
8
Calque_1
10
233.251000
20
370.353000
11
233.011740
21
373.310440
0
LINE
8
Calque_1
10
233.012000
20
373.310000
11
232.992897
21
373.583370
0
LINE
8
Calque_1
10
234.391000
20
311.427000
11
234.391000
21
311.470000
0
LINE
8
Calque_1
10
235.608000
20
283.388000
11
235.595088
21
283.483600
0
LINE
8
Calque_1
10
235.595000
20
283.484000
11
235.607912
21
283.388400
0
LINE
8
Calque_1
10
232.993000
20
373.583000
11
232.993794
21
373.582471
0
LINE
8
Calque_1
10
240.415000
20
267.156000
11
240.391690
21
267.161001
0
LINE
8
Calque_1
10
240.391000
20
267.161000
11
240.414310
21
267.155999
0
LINE
8
Calque_1
10
241.688000
20
295.110000
11
241.688000
21
295.110000
0
LINE
8
Calque_1
10
70.539500
20
128.885000
11
70.660420
21
131.040960
0
LINE
8
Calque_1
10
240.685000
20
318.062000
11
240.685529
21
318.065000
0
LINE
8
Calque_1
10
240.685529
20
318.065000
11
240.686000
21
318.055000
0
LINE
8
Calque_1
10
240.686000
20
318.055000
11
240.685000
21
318.062000
0
LINE
8
Calque_1
10
70.661000
20
131.045000
11
70.900781
21
133.631400
0
LINE
8
Calque_1
10
70.660400
20
131.041000
11
70.660929
21
131.044995
0
LINE
8
Calque_1
10
70.900700
20
133.634000
11
71.010769
21
136.594020
0
LINE
8
Calque_1
10
70.900700
20
133.631000
11
70.900700
21
133.634000
0
LINE
8
Calque_1
10
71.010800
20
136.599000
11
71.308440
21
138.988530
0
LINE
8
Calque_1
10
71.308400
20
138.989000
11
72.193118
21
145.969430
0
LINE
8
Calque_1
10
72.193200
20
145.969000
11
72.323412
21
146.760688
0
LINE
8
Calque_1
10
72.323400
20
146.761000
11
72.499618
21
147.627610
0
LINE
8
Calque_1
10
72.499600
20
147.628000
11
72.735240
21
150.515690
0
LINE
8
Calque_1
10
72.735200
20
150.515000
11
72.949660
21
151.498900
0
LINE
8
Calque_1
10
72.949700
20
151.499000
11
73.339051
21
154.908417
0
LINE
8
Calque_1
10
73.339051
20
154.908417
11
73.557929
21
158.124950
0
LINE
8
Calque_1
10
73.557900
20
158.125000
11
73.889671
21
160.558970
0
LINE
8
Calque_1
10
73.889700
20
160.559000
11
74.063330
21
161.832810
0
LINE
8
Calque_1
10
74.063300
20
161.833000
11
74.077191
21
161.934280
0
LINE
8
Calque_1
10
71.010800
20
136.594000
11
71.010800
21
136.599000
0
LINE
8
Calque_1
10
74.077200
20
161.939000
11
74.196569
21
164.269100
0
LINE
8
Calque_1
10
74.077200
20
161.934000
11
74.077200
21
161.939000
0
LINE
8
Calque_1
10
74.196600
20
164.289000
11
74.183688
21
166.302820
0
LINE
8
Calque_1
10
74.196600
20
164.269000
11
74.196600
21
164.272000
0
LINE
8
Calque_1
10
74.196600
20
164.272000
11
74.196600
21
164.289000
0
LINE
8
Calque_1
10
74.183700
20
166.314000
11
74.269999
21
168.043070
0
LINE
8
Calque_1
10
74.270000
20
168.044000
11
74.346999
21
169.599990
0
LINE
8
Calque_1
10
74.183700
20
166.302000
11
74.183700
21
166.309000
0
LINE
8
Calque_1
10
74.183700
20
166.309000
11
74.183700
21
166.314000
0
LINE
8
Calque_1
10
74.347000
20
169.604000
11
74.308802
21
172.747480
0
LINE
8
Calque_1
10
74.308800
20
172.747000
11
74.231298
21
173.902480
0
LINE
8
Calque_1
10
74.231300
20
173.903000
11
73.959491
21
174.983030
0
LINE
8
Calque_1
10
73.959500
20
174.983000
11
73.983789
21
175.200069
0
LINE
8
Calque_1
10
73.983800
20
175.200000
11
74.459219
21
177.641170
0
LINE
8
Calque_1
10
74.459200
20
177.641000
11
75.464820
21
182.514610
0
LINE
8
Calque_1
10
75.464800
20
182.514000
11
75.801220
21
184.149040
0
LINE
8
Calque_1
10
75.801200
20
184.149000
11
75.898958
21
185.628785
0
LINE
8
Calque_1
10
75.898958
20
185.628785
11
75.859601
21
186.785020
0
LINE
8
Calque_1
10
75.859600
20
186.785000
11
76.063718
21
189.171400
0
LINE
8
Calque_1
10
76.063800
20
189.172000
11
76.122702
21
189.891351
0
LINE
8
Calque_1
10
76.122700
20
189.891000
11
77.851280
21
189.276030
0
LINE
8
Calque_1
10
77.851200
20
189.276000
11
82.214770
21
187.712790
0
LINE
8
Calque_1
10
82.214800
20
187.713000
11
82.339339
21
187.656702
0
LINE
8
Calque_1
10
82.339300
20
187.657000
11
82.747538
21
187.475099
0
LINE
8
Calque_1
10
82.747600
20
187.475000
11
83.169800
21
187.288472
0
LINE
8
Calque_1
10
83.169800
20
187.288000
11
83.334648
21
187.215600
0
LINE
8
Calque_1
10
83.334600
20
187.216000
11
83.593500
21
187.115750
0
LINE
8
Calque_1
10
74.347000
20
169.600000
11
74.347000
21
169.604000
0
LINE
8
Calque_1
10
83.594100
20
187.116000
11
84.449349
21
186.893801
0
LINE
8
Calque_1
10
84.449300
20
186.893000
11
86.312230
21
186.108030
0
LINE
8
Calque_1
10
86.312200
20
186.108000
11
90.592040
21
184.876030
0
LINE
8
Calque_1
10
90.592100
20
184.876000
11
93.139220
21
184.463621
0
LINE
8
Calque_1
10
93.139200
20
184.464000
11
93.835799
21
184.368898
0
LINE
8
Calque_1
10
93.835800
20
184.369000
11
93.999090
21
184.318401
0
LINE
8
Calque_1
10
93.999100
20
184.318000
11
95.232100
21
184.090109
0
LINE
8
Calque_1
10
95.232100
20
184.091000
11
96.113188
21
183.989191
0
LINE
8
Calque_1
10
96.113200
20
183.989000
11
96.073196
21
183.993182
0
LINE
8
Calque_1
10
96.073196
20
183.993182
11
96.223327
21
183.949104
0
LINE
8
Calque_1
10
96.223327
20
183.949104
11
96.766900
21
183.789531
0
LINE
8
Calque_1
10
96.766900
20
183.789000
11
97.759610
21
183.481020
0
LINE
8
Calque_1
10
97.759600
20
183.481000
11
99.499540
21
183.043311
0
LINE
8
Calque_1
10
99.499500
20
183.044000
11
99.858140
21
182.934428
0
LINE
8
Calque_1
10
99.858200
20
182.934000
11
100.082468
21
182.806871
0
LINE
8
Calque_1
10
100.082000
20
182.807000
11
101.165660
21
182.415811
0
LINE
8
Calque_1
10
101.166000
20
182.416000
11
104.601450
21
181.265170
0
LINE
8
Calque_1
10
104.602000
20
181.265000
11
107.752180
21
179.888850
0
LINE
8
Calque_1
10
107.752000
20
179.889000
11
107.657401
21
179.097320
0
LINE
8
Calque_1
10
83.593500
20
187.116000
11
83.594100
21
187.116000
0
LINE
8
Calque_1
10
107.657000
20
179.080000
11
107.576900
21
176.920950
0
LINE
8
Calque_1
10
107.577000
20
176.921000
11
107.752749
21
175.615230
0
LINE
8
Calque_1
10
107.752749
20
175.615230
11
107.906170
21
174.925780
0
LINE
8
Calque_1
10
107.906000
20
174.925000
11
107.929310
21
174.454230
0
LINE
8
Calque_1
10
107.657000
20
179.097000
11
107.657000
21
179.085000
0
LINE
8
Calque_1
10
107.657000
20
179.085000
11
107.657000
21
179.080000
0
LINE
8
Calque_1
10
107.929000
20
174.442000
11
107.894401
21
172.875170
0
LINE
8
Calque_1
10
107.895000
20
172.875000
11
107.773030
21
171.870400
0
LINE
8
Calque_1
10
107.929000
20
174.455000
11
107.929000
21
174.442000
0
LINE
8
Calque_1
10
107.773000
20
171.853000
11
107.695001
21
169.907890
0
LINE
8
Calque_1
10
107.695000
20
169.908000
11
107.656199
21
168.953541
0
LINE
8
Calque_1
10
107.773000
20
171.870000
11
107.773000
21
171.857000
0
LINE
8
Calque_1
10
107.773000
20
171.857000
11
107.773000
21
171.853000
0
LINE
8
Calque_1
10
107.656000
20
168.937000
11
107.710800
21
165.866380
0
LINE
8
Calque_1
10
107.711000
20
165.866000
11
107.646900
21
161.787190
0
LINE
8
Calque_1
10
107.656000
20
168.954000
11
107.656000
21
168.951000
0
LINE
8
Calque_1
10
107.656000
20
168.951000
11
107.656000
21
168.937000
0
LINE
8
Calque_1
10
107.647000
20
161.775000
11
107.655996
21
160.534760
0
LINE
8
Calque_1
10
107.656000
20
160.535000
11
107.660247
21
159.666493
0
LINE
8
Calque_1
10
107.660247
20
159.666493
11
107.662184
21
159.405590
0
LINE
8
Calque_1
10
107.662184
20
159.405590
11
107.666001
21
159.443600
0
LINE
8
Calque_1
10
107.647000
20
161.787000
11
107.647000
21
161.775000
0
LINE
8
Calque_1
10
107.666000
20
159.426000
11
107.530610
21
156.350220
0
LINE
8
Calque_1
10
107.666000
20
159.444000
11
107.666000
21
159.426000
0
LINE
8
Calque_1
10
107.530000
20
156.332000
11
107.530000
21
154.675770
0
LINE
8
Calque_1
10
107.530000
20
154.676000
11
107.536006
21
153.612510
0
LINE
8
Calque_1
10
107.530000
20
156.350000
11
107.530000
21
156.344000
0
LINE
8
Calque_1
10
107.530000
20
156.344000
11
107.530000
21
156.332000
0
LINE
8
Calque_1
10
107.536000
20
153.231000
11
107.473500
21
148.389430
0
LINE
8
Calque_1
10
107.474000
20
148.389000
11
107.084351
21
143.892630
0
LINE
8
Calque_1
10
107.084000
20
143.893000
11
107.076010
21
142.460550
0
LINE
8
Calque_1
10
107.076000
20
142.460000
11
107.100289
21
141.279690
0
LINE
8
Calque_1
10
107.101000
20
141.280000
11
106.974402
21
138.712200
0
LINE
8
Calque_1
10
106.974000
20
138.712000
11
106.864460
21
135.178890
0
LINE
8
Calque_1
10
106.864000
20
135.179000
11
106.864000
21
126.833770
0
LINE
8
Calque_1
10
106.864000
20
126.834000
11
106.621110
21
122.331960
0
LINE
8
Calque_1
10
107.536000
20
153.612000
11
107.536000
21
153.608000
0
LINE
8
Calque_1
10
107.536000
20
153.608000
11
107.536000
21
153.231000
0
LINE
8
Calque_1
10
106.622000
20
122.314000
11
106.619010
21
122.266499
0
LINE
8
Calque_1
10
106.619000
20
122.266000
11
106.491889
21
119.399510
0
LINE
8
Calque_1
10
106.622000
20
122.332000
11
106.622000
21
122.314000
0
LINE
8
Calque_1
10
106.491000
20
119.380000
11
106.496001
21
119.280202
0
LINE
8
Calque_1
10
106.496000
20
119.280000
11
106.625465
21
116.872211
0
LINE
8
Calque_1
10
106.625465
20
116.872211
11
106.680988
21
114.802260
0
LINE
8
Calque_1
10
106.681000
20
114.803000
11
106.683990
21
114.717698
0
LINE
8
Calque_1
10
106.684000
20
114.717000
11
106.444211
21
111.489800
0
LINE
8
Calque_1
10
106.445000
20
111.490000
11
106.378899
21
110.797531
0
LINE
8
Calque_1
10
106.491000
20
119.400000
11
106.491000
21
119.397000
0
LINE
8
Calque_1
10
106.491000
20
119.397000
11
106.491000
21
119.380000
0
LINE
8
Calque_1
10
106.379000
20
110.777000
11
106.271532
21
108.649480
0
LINE
8
Calque_1
10
106.271000
20
108.650000
11
106.268010
21
108.581801
0
LINE
8
Calque_1
10
106.268000
20
108.581000
11
106.264005
21
108.439930
0
LINE
8
Calque_1
10
106.379000
20
110.798000
11
106.379000
21
110.777000
0
LINE
8
Calque_1
10
106.264000
20
108.420000
11
106.372500
21
106.503830
0
LINE
8
Calque_1
10
106.373000
20
106.504000
11
106.307899
21
101.949240
0
LINE
8
Calque_1
10
106.307000
20
101.950000
11
106.370601
21
99.300060
0
LINE
8
Calque_1
10
106.264000
20
108.440000
11
106.264000
21
108.437000
0
LINE
8
Calque_1
10
106.264000
20
108.437000
11
106.264000
21
108.432000
0
LINE
8
Calque_1
10
106.264000
20
108.432000
11
106.264000
21
108.420000
0
LINE
8
Calque_1
10
106.371000
20
99.043300
11
106.318904
21
96.451261
0
LINE
8
Calque_1
10
106.318904
20
96.451261
11
106.350389
21
93.658620
0
LINE
8
Calque_1
10
106.350000
20
93.658600
11
106.350000
21
93.420870
0
LINE
8
Calque_1
10
106.350000
20
93.420900
11
106.352990
21
93.376500
0
LINE
8
Calque_1
10
106.353000
20
93.376500
11
106.355990
21
93.344999
0
LINE
8
Calque_1
10
106.356000
20
93.345000
11
106.362006
21
93.258701
0
LINE
8
Calque_1
10
106.362000
20
93.258700
11
106.386289
21
92.948130
0
LINE
8
Calque_1
10
106.387000
20
92.948100
11
106.463999
21
91.985891
0
LINE
8
Calque_1
10
106.464000
20
91.985900
11
106.592169
21
90.376710
0
LINE
8
Calque_1
10
106.592000
20
90.376700
11
106.719132
21
89.007770
0
LINE
8
Calque_1
10
106.719000
20
89.007800
11
106.724001
21
88.990311
0
LINE
8
Calque_1
10
106.371000
20
99.299600
11
106.371000
21
99.043300
0
LINE
8
Calque_1
10
106.724000
20
88.987300
11
107.030241
21
87.404674
0
LINE
8
Calque_1
10
107.030241
20
87.404674
11
107.379240
21
86.105300
0
LINE
8
Calque_1
10
107.379000
20
86.105300
11
107.782090
21
83.551970
0
LINE
8
Calque_1
10
107.782000
20
83.551900
11
107.749401
21
80.958770
0
LINE
8
Calque_1
10
107.750000
20
80.958800
11
107.737591
21
80.313350
0
LINE
8
Calque_1
10
107.737000
20
80.313400
11
107.614522
21
73.866260
0
LINE
8
Calque_1
10
107.615000
20
73.866200
11
107.603094
21
73.241951
0
LINE
8
Calque_1
10
107.603000
20
73.242000
11
107.690900
21
71.147560
0
LINE
8
Calque_1
10
107.691000
20
71.147500
11
107.694747
21
71.147892
0
LINE
8
Calque_1
10
107.694747
20
71.147892
11
107.693990
21
71.081399
0
LINE
8
Calque_1
10
107.694000
20
71.081400
11
107.723400
21
69.829290
0
LINE
8
Calque_1
10
107.723000
20
69.829300
11
107.723000
21
64.434810
0
LINE
8
Calque_1
10
107.723000
20
64.434800
11
107.859419
21
60.349240
0
LINE
8
Calque_1
10
107.860000
20
60.349300
11
107.876087
21
59.028450
0
LINE
8
Calque_1
10
107.876000
20
59.028400
11
107.849499
21
57.690510
0
LINE
8
Calque_1
10
107.849000
20
57.690600
11
107.876900
21
55.447330
0
LINE
8
Calque_1
10
107.877000
20
55.447300
11
107.877000
21
51.963770
0
LINE
8
Calque_1
10
107.877000
20
51.963800
11
107.898193
21
50.637290
0
LINE
8
Calque_1
10
107.898000
20
50.637200
11
107.916494
21
50.459429
0
LINE
8
Calque_1
10
107.917000
20
50.459500
11
108.231190
21
47.501540
0
LINE
8
Calque_1
10
108.231000
20
47.501500
11
108.244494
21
47.382120
0
LINE
8
Calque_1
10
108.245000
20
47.382100
11
108.502860
21
43.777150
0
LINE
8
Calque_1
10
108.502000
20
43.777200
11
108.588299
21
42.720940
0
LINE
8
Calque_1
10
108.589000
20
42.720900
11
108.583999
21
42.264071
0
LINE
8
Calque_1
10
108.584000
20
42.264100
11
108.549398
21
38.677750
0
LINE
8
Calque_1
10
108.549000
20
38.677800
11
108.543999
21
38.176550
0
LINE
8
Calque_1
10
108.544000
20
38.176500
11
108.865407
21
34.388630
0
LINE
8
Calque_1
10
108.866000
20
34.388600
11
108.887696
21
34.047521
0
LINE
8
Calque_1
10
108.887000
20
34.047600
11
109.143299
21
30.066450
0
LINE
8
Calque_1
10
109.144000
20
30.066400
11
109.164108
21
29.748080
0
LINE
8
Calque_1
10
109.164000
20
29.748100
11
109.364501
21
28.196770
0
LINE
8
Calque_1
10
109.364000
20
28.196800
11
109.444600
21
26.732280
0
LINE
8
Calque_1
10
109.445000
20
26.732200
11
109.352499
21
21.676730
0
LINE
8
Calque_1
10
109.352000
20
21.676800
11
109.324100
21
16.995960
0
LINE
8
Calque_1
10
109.324000
20
16.995900
11
109.318999
21
16.864640
0
LINE
8
Calque_1
10
109.319000
20
16.864700
11
107.651920
21
16.307620
0
LINE
8
Calque_1
10
107.652000
20
16.307600
11
106.885130
21
16.187188
0
LINE
8
Calque_1
10
106.885000
20
16.187200
11
104.889250
21
15.638402
0
LINE
8
Calque_1
10
104.890000
20
15.638400
11
104.801709
21
15.646632
0
LINE
8
Calque_1
10
104.801709
20
15.646632
11
104.185651
21
15.545902
0
LINE
8
Calque_1
10
104.185000
20
15.545900
11
101.720242
21
14.914228
0
LINE
8
Calque_1
10
101.720242
20
14.914228
11
99.435440
21
14.173380
0
LINE
8
Calque_1
10
99.435800
20
14.173400
11
94.972000
21
12.560050
0
LINE
8
Calque_1
10
94.972000
20
12.560000
11
94.041300
21
12.160030
0
LINE
8
Calque_1
10
94.041300
20
12.160000
11
93.971500
21
12.128488
0
LINE
8
Calque_1
10
93.971500
20
12.128500
11
93.246482
21
11.786447
0
LINE
8
Calque_1
10
93.246500
20
11.786500
11
90.018790
21
10.572590
0
LINE
8
Calque_1
10
90.018800
20
10.572600
11
87.714030
21
9.639866
0
LINE
8
Calque_1
10
87.714000
20
9.639840
11
87.129267
21
9.360344
0
LINE
8
Calque_1
10
87.129267
20
9.360344
11
87.068560
21
9.304984
0
LINE
8
Calque_1
10
87.068600
20
9.304990
11
86.033010
21
9.042471
0
LINE
8
Calque_1
10
86.033000
20
9.042470
11
81.926270
21
8.018240
0
LINE
8
Calque_1
10
81.926200
20
8.018240
11
78.972360
21
7.116488
0
LINE
8
Calque_1
10
78.972400
20
7.116490
11
77.237630
21
6.884980
0
LINE
8
Calque_1
10
77.237600
20
6.884980
11
76.001500
21
6.729432
0
LINE
8
Calque_1
10
106.724000
20
88.990300
11
106.724000
21
88.987300
0
LINE
8
Calque_1
10
76.001000
20
6.729430
11
74.737977
21
6.749204
0
LINE
8
Calque_1
10
74.737977
20
6.749204
11
72.922120
21
6.468445
0
LINE
8
Calque_1
10
72.922100
20
6.468450
11
71.922672
21
6.111369
0
LINE
8
Calque_1
10
71.922700
20
6.111360
11
71.605928
21
7.340740
0
LINE
8
Calque_1
10
71.605900
20
7.340750
11
71.418311
21
7.725216
0
LINE
8
Calque_1
10
71.418300
20
7.725210
11
71.445486
21
8.272067
0
LINE
8
Calque_1
10
71.445486
20
8.272067
11
71.231750
21
9.663100
0
LINE
8
Calque_1
10
71.231800
20
9.663100
11
70.910371
21
10.372077
0
LINE
8
Calque_1
10
70.910400
20
10.372100
11
70.981200
21
10.809800
0
LINE
8
Calque_1
10
70.981200
20
10.809800
11
71.387380
21
15.462730
0
LINE
8
Calque_1
10
76.001500
20
6.729430
11
76.001000
21
6.729430
0
LINE
8
Calque_1
10
71.389300
20
15.471700
11
71.431199
21
15.940409
0
LINE
8
Calque_1
10
71.431200
20
15.940400
11
71.800690
21
17.907230
0
LINE
8
Calque_1
10
71.800700
20
17.907200
11
71.972779
21
20.632590
0
LINE
8
Calque_1
10
71.972800
20
20.632600
11
72.072500
21
21.561233
0
LINE
8
Calque_1
10
72.072500
20
21.561300
11
72.011000
21
22.851140
0
LINE
8
Calque_1
10
72.011000
20
22.851100
11
71.944899
21
23.620560
0
LINE
8
Calque_1
10
71.944900
20
23.620600
11
72.145409
21
25.548140
0
LINE
8
Calque_1
10
72.145400
20
25.548100
11
72.139394
21
27.849760
0
LINE
8
Calque_1
10
72.139400
20
27.849800
11
72.233502
21
29.797470
0
LINE
8
Calque_1
10
72.233500
20
29.797400
11
73.036549
21
32.854570
0
LINE
8
Calque_1
10
73.036600
20
32.854600
11
73.963922
21
36.164183
0
LINE
8
Calque_1
10
73.963922
20
36.164183
11
74.358607
21
37.943492
0
LINE
8
Calque_1
10
74.358607
20
37.943492
11
74.629270
21
39.815930
0
LINE
8
Calque_1
10
74.629200
20
39.815900
11
74.691200
21
41.224590
0
LINE
8
Calque_1
10
74.691200
20
41.224600
11
74.708795
21
42.066929
0
LINE
8
Calque_1
10
74.708800
20
42.067000
11
74.891888
21
42.966167
0
LINE
8
Calque_1
10
74.891888
20
42.966167
11
74.983199
21
44.494260
0
LINE
8
Calque_1
10
74.983200
20
44.494200
11
74.830567
21
45.437823
0
LINE
8
Calque_1
10
74.830567
20
45.437823
11
74.539443
21
46.227346
0
LINE
8
Calque_1
10
74.539443
20
46.227346
11
73.866470
21
47.350870
0
LINE
8
Calque_1
10
73.866500
20
47.350900
11
73.424149
21
48.026830
0
LINE
8
Calque_1
10
73.424200
20
48.026800
11
73.421210
21
48.514620
0
LINE
8
Calque_1
10
73.421200
20
48.514600
11
73.438292
21
49.418408
0
LINE
8
Calque_1
10
73.438300
20
49.418400
11
73.422621
21
51.420991
0
LINE
8
Calque_1
10
73.422621
20
51.420991
11
73.255878
21
53.488450
0
LINE
8
Calque_1
10
73.255800
20
53.488500
11
72.886831
21
55.938990
0
LINE
8
Calque_1
10
72.886900
20
55.939000
11
72.924341
21
57.470339
0
LINE
8
Calque_1
10
72.924341
20
57.470339
11
73.053820
21
59.396680
0
LINE
8
Calque_1
10
73.053800
20
59.396600
11
73.030253
21
62.432424
0
LINE
8
Calque_1
10
73.030253
20
62.432424
11
72.913240
21
65.160050
0
LINE
8
Calque_1
10
72.913200
20
65.160100
11
72.912671
21
65.200399
0
LINE
8
Calque_1
10
72.912700
20
65.200400
11
72.956600
21
66.843730
0
LINE
8
Calque_1
10
72.956600
20
66.843700
11
73.254780
21
69.124690
0
LINE
8
Calque_1
10
73.254800
20
69.124700
11
73.621179
21
71.633580
0
LINE
8
Calque_1
10
73.621200
20
71.633600
11
73.791740
21
73.350300
0
LINE
8
Calque_1
10
73.791700
20
73.350300
11
73.795695
21
73.390101
0
LINE
8
Calque_1
10
73.795700
20
73.390100
11
73.876800
21
74.406070
0
LINE
8
Calque_1
10
73.876800
20
74.406100
11
74.226650
21
76.604420
0
LINE
8
Calque_1
10
74.226600
20
76.604400
11
74.524769
21
79.794900
0
LINE
8
Calque_1
10
74.524800
20
79.794900
11
74.771820
21
81.265080
0
LINE
8
Calque_1
10
74.771800
20
81.265000
11
74.846201
21
82.410670
0
LINE
8
Calque_1
10
74.846200
20
82.410700
11
74.827600
21
83.477820
0
LINE
8
Calque_1
10
74.827600
20
83.477800
11
74.690660
21
85.343820
0
LINE
8
Calque_1
10
74.690700
20
85.343900
11
74.677788
21
88.092570
0
LINE
8
Calque_1
10
71.387300
20
15.462700
11
71.389417
21
15.471696
0
LINE
8
Calque_1
10
74.677800
20
88.095500
11
74.547580
21
89.889720
0
LINE
8
Calque_1
10
74.547600
20
89.889700
11
74.296961
21
91.537120
0
LINE
8
Calque_1
10
74.296900
20
91.537200
11
74.159960
21
92.191940
0
LINE
8
Calque_1
10
74.160000
20
92.191900
11
74.154999
21
93.482800
0
LINE
8
Calque_1
10
74.155000
20
93.482800
11
74.081102
21
95.272870
0
LINE
8
Calque_1
10
74.081100
20
95.272900
11
73.857340
21
96.934800
0
LINE
8
Calque_1
10
73.857300
20
96.934800
11
73.711049
21
98.260310
0
LINE
8
Calque_1
10
73.711100
20
98.260300
11
73.687896
21
98.982209
0
LINE
8
Calque_1
10
73.687900
20
98.982200
11
73.800549
21
100.344910
0
LINE
8
Calque_1
10
73.800500
20
100.345000
11
73.825794
21
102.211550
0
LINE
8
Calque_1
10
73.825800
20
102.211000
11
73.784999
21
103.889460
0
LINE
8
Calque_1
10
74.677800
20
88.092500
11
74.677800
21
88.095500
0
LINE
8
Calque_1
10
73.785000
20
103.893000
11
73.820100
21
105.491350
0
LINE
8
Calque_1
10
73.820100
20
105.491000
11
73.799410
21
107.406130
0
LINE
8
Calque_1
10
73.799400
20
107.406000
11
73.511568
21
109.271520
0
LINE
8
Calque_1
10
73.511600
20
109.272000
11
73.210322
21
110.560280
0
LINE
8
Calque_1
10
73.210300
20
110.560000
11
73.144199
21
112.474610
0
LINE
8
Calque_1
10
73.144200
20
112.475000
11
73.094101
21
113.724540
0
LINE
8
Calque_1
10
73.094100
20
113.724000
11
72.904971
21
115.151820
0
LINE
8
Calque_1
10
72.905000
20
115.152000
11
72.639380
21
116.113709
0
LINE
8
Calque_1
10
72.639400
20
116.114000
11
72.443540
21
117.466360
0
LINE
8
Calque_1
10
72.443500
20
117.466000
11
72.276590
21
119.098450
0
LINE
8
Calque_1
10
72.276600
20
119.099000
11
71.546930
21
123.828440
0
LINE
8
Calque_1
10
71.546900
20
123.828000
11
71.366031
21
124.865640
0
LINE
8
Calque_1
10
71.366100
20
124.866000
11
71.286500
21
125.220520
0
LINE
8
Calque_1
10
71.286500
20
125.220000
11
71.090650
21
125.714029
0
LINE
8
Calque_1
10
73.785000
20
103.890000
11
73.785000
21
103.893000
0
LINE
8
Calque_1
10
71.085600
20
125.720000
11
70.990998
21
126.059521
0
LINE
8
Calque_1
10
70.991000
20
126.060000
11
70.698511
21
127.491950
0
LINE
8
Calque_1
10
70.698500
20
127.492000
11
70.541920
21
128.866580
0
LINE
8
Calque_1
10
71.090600
20
125.714000
11
71.085599
21
125.720006
0
LINE
8
Calque_1
10
70.542000
20
128.866000
11
70.539619
21
128.884627
0
LINE
8
Calque_1
10
81.575500
20
67.998300
11
81.582950
21
67.055035
0
LINE
8
Calque_1
10
81.582950
20
67.055035
11
81.728789
21
66.407848
0
LINE
8
Calque_1
10
81.728789
20
66.407848
11
82.066421
21
65.833060
0
LINE
8
Calque_1
10
82.066400
20
65.833100
11
82.206960
21
65.377300
0
LINE
8
Calque_1
10
82.207000
20
65.377300
11
82.519129
21
64.662111
0
LINE
8
Calque_1
10
82.519100
20
64.662100
11
82.781611
21
63.934491
0
LINE
8
Calque_1
10
82.781600
20
63.934500
11
83.111840
21
63.354765
0
LINE
8
Calque_1
10
83.111840
20
63.354765
11
83.068408
21
63.492652
0
LINE
8
Calque_1
10
83.068400
20
63.492600
11
83.334355
21
62.725678
0
LINE
8
Calque_1
10
83.334355
20
62.725678
11
83.668817
21
62.023673
0
LINE
8
Calque_1
10
83.668817
20
62.023673
11
84.230600
21
61.174930
0
LINE
8
Calque_1
10
84.230600
20
61.175000
11
84.775001
21
60.582593
0
LINE
8
Calque_1
10
84.775001
20
60.582593
11
84.898778
21
60.511481
0
LINE
8
Calque_1
10
84.899400
20
60.511400
11
85.416626
21
59.970427
0
LINE
8
Calque_1
10
85.416626
20
59.970427
11
86.364420
21
59.188990
0
LINE
8
Calque_1
10
84.898800
20
60.511400
11
84.899400
21
60.511400
0
LINE
8
Calque_1
10
86.364900
20
59.189000
11
87.252700
21
58.711002
0
LINE
8
Calque_1
10
87.252700
20
58.711000
11
87.286800
21
58.741999
0
LINE
8
Calque_1
10
87.286800
20
58.742000
11
87.009300
21
58.890331
0
LINE
8
Calque_1
10
87.009300
20
58.890400
11
88.211300
21
58.516251
0
LINE
8
Calque_1
10
88.211300
20
58.516200
11
89.059310
21
58.286762
0
LINE
8
Calque_1
10
89.059300
20
58.286800
11
91.185270
21
58.044968
0
LINE
8
Calque_1
10
91.185300
20
58.044900
11
92.348805
21
58.041813
0
LINE
8
Calque_1
10
92.348805
20
58.041813
11
93.076650
21
58.121902
0
LINE
8
Calque_1
10
86.364400
20
59.189000
11
86.364900
21
59.189000
0
LINE
8
Calque_1
10
93.077200
20
58.122000
11
93.971319
21
58.143856
0
LINE
8
Calque_1
10
93.971319
20
58.143856
11
94.724935
21
58.296904
0
LINE
8
Calque_1
10
94.724935
20
58.296904
11
95.616060
21
58.675457
0
LINE
8
Calque_1
10
93.076600
20
58.122000
11
93.077200
21
58.122000
0
LINE
8
Calque_1
10
95.616500
20
58.675400
11
96.165819
21
59.024721
0
LINE
8
Calque_1
10
96.165900
20
59.024700
11
97.162230
21
59.755928
0
LINE
8
Calque_1
10
97.162200
20
59.756000
11
97.771254
21
60.467538
0
LINE
8
Calque_1
10
97.771254
20
60.467538
11
98.119439
21
61.078152
0
LINE
8
Calque_1
10
98.119439
20
61.078152
11
98.344550
21
61.728500
0
LINE
8
Calque_1
10
98.344500
20
61.728500
11
98.971975
21
63.172726
0
LINE
8
Calque_1
10
98.971975
20
63.172726
11
99.218246
21
64.065531
0
LINE
8
Calque_1
10
99.218246
20
64.065531
11
99.341340
21
65.076080
0
LINE
8
Calque_1
10
99.341400
20
65.076000
11
99.366478
21
64.961113
0
LINE
8
Calque_1
10
99.366478
20
64.961113
11
99.401299
21
65.620671
0
LINE
8
Calque_1
10
99.401300
20
65.620700
11
99.334599
21
66.408758
0
LINE
8
Calque_1
10
99.334600
20
66.408800
11
99.283400
21
67.425270
0
LINE
8
Calque_1
10
99.283400
20
67.425200
11
99.053440
21
68.433420
0
LINE
8
Calque_1
10
99.053400
20
68.433400
11
98.854976
21
69.153207
0
LINE
8
Calque_1
10
98.854976
20
69.153207
11
98.855481
21
68.973419
0
LINE
8
Calque_1
10
98.855500
20
68.973500
11
98.677219
21
69.680939
0
LINE
8
Calque_1
10
98.677200
20
69.680900
11
98.556280
21
70.104659
0
LINE
8
Calque_1
10
98.556300
20
70.104700
11
98.546799
21
70.253509
0
LINE
8
Calque_1
10
98.546799
20
70.253509
11
98.247791
21
70.832830
0
LINE
8
Calque_1
10
98.247800
20
70.832800
11
97.639571
21
71.631708
0
LINE
8
Calque_1
10
97.639600
20
71.631700
11
97.496450
21
71.833230
0
LINE
8
Calque_1
10
97.496400
20
71.833200
11
96.802912
21
72.620760
0
LINE
8
Calque_1
10
96.802900
20
72.620800
11
96.412163
21
73.032533
0
LINE
8
Calque_1
10
96.412163
20
73.032533
11
95.619510
21
73.543737
0
LINE
8
Calque_1
10
95.619500
20
73.543700
11
93.505856
21
74.336344
0
LINE
8
Calque_1
10
93.505856
20
74.336344
11
92.306028
21
74.528428
0
LINE
8
Calque_1
10
92.306028
20
74.528428
11
91.028050
21
74.513140
0
LINE
8
Calque_1
10
95.616000
20
58.675400
11
95.616500
21
58.675400
0
LINE
8
Calque_1
10
90.619400
20
74.435300
11
90.579601
21
74.423896
0
LINE
8
Calque_1
10
90.579600
20
74.423900
11
90.551200
21
74.415910
0
LINE
8
Calque_1
10
90.551200
20
74.415900
11
90.514462
21
74.442412
0
LINE
8
Calque_1
10
90.514462
20
74.442412
11
89.948649
21
74.361600
0
LINE
8
Calque_1
10
89.948700
20
74.361600
11
89.405072
21
74.170391
0
LINE
8
Calque_1
10
89.405000
20
74.170400
11
89.517826
21
74.215237
0
LINE
8
Calque_1
10
89.517826
20
74.215237
11
89.194159
21
74.141500
0
LINE
8
Calque_1
10
91.028100
20
74.513200
11
90.634332
21
74.438299
0
LINE
8
Calque_1
10
90.634332
20
74.438299
11
90.631300
21
74.438300
0
LINE
8
Calque_1
10
90.631300
20
74.438300
11
90.619394
21
74.435310
0
LINE
8
Calque_1
10
89.193700
20
74.141500
11
88.573175
21
73.961902
0
LINE
8
Calque_1
10
88.573175
20
73.961902
11
88.475402
21
73.907921
0
LINE
8
Calque_1
10
88.475400
20
73.907900
11
88.583369
21
73.947054
0
LINE
8
Calque_1
10
88.583369
20
73.947054
11
88.493274
21
73.952936
0
LINE
8
Calque_1
10
88.493274
20
73.952936
11
87.808770
21
73.910890
0
LINE
8
Calque_1
10
87.808700
20
73.910900
11
86.712579
21
73.665943
0
LINE
8
Calque_1
10
86.712579
20
73.665943
11
86.046530
21
73.280420
0
LINE
8
Calque_1
10
86.046600
20
73.280400
11
85.218752
21
72.647390
0
LINE
8
Calque_1
10
85.218700
20
72.647400
11
84.994418
21
72.464441
0
LINE
8
Calque_1
10
84.994400
20
72.464400
11
84.339964
21
72.120205
0
LINE
8
Calque_1
10
84.339964
20
72.120205
11
83.821350
21
71.593152
0
LINE
8
Calque_1
10
83.821400
20
71.593200
11
83.127380
21
70.529180
0
LINE
8
Calque_1
10
83.127400
20
70.529200
11
82.915530
21
70.364341
0
LINE
8
Calque_1
10
89.194200
20
74.141500
11
89.193700
21
74.141500
0
LINE
8
Calque_1
10
82.915000
20
70.364300
11
82.454559
21
69.828411
0
LINE
8
Calque_1
10
82.454500
20
69.828400
11
82.068905
21
69.386618
0
LINE
8
Calque_1
10
82.068905
20
69.386618
11
81.742401
21
68.768540
0
LINE
8
Calque_1
10
81.742400
20
68.768600
11
81.575480
21
67.999140
0
LINE
8
Calque_1
10
82.915500
20
70.364300
11
82.915000
21
70.364300
0
LINE
8
Calque_1
10
81.666400
20
134.848000
11
81.828661
21
133.699240
0
LINE
8
Calque_1
10
81.828700
20
133.699000
11
82.107748
21
132.928513
0
LINE
8
Calque_1
10
82.107700
20
132.929000
11
82.159902
21
132.872699
0
LINE
8
Calque_1
10
82.159900
20
132.872000
11
82.198098
21
132.775901
0
LINE
8
Calque_1
10
81.575500
20
67.999100
11
81.575511
21
67.998306
0
LINE
8
Calque_1
10
82.198700
20
132.773000
11
82.495198
21
132.192009
0
LINE
8
Calque_1
10
82.495198
20
132.192009
11
82.444680
21
132.345651
0
LINE
8
Calque_1
10
82.198100
20
132.776000
11
82.198629
21
132.773010
0
LINE
8
Calque_1
10
82.445200
20
132.346000
11
83.251869
21
131.181730
0
LINE
8
Calque_1
10
83.251800
20
131.182000
11
83.380469
21
131.054339
0
LINE
8
Calque_1
10
83.380500
20
131.054000
11
83.428001
21
130.984301
0
LINE
8
Calque_1
10
83.428000
20
130.984000
11
83.571661
21
130.789690
0
LINE
8
Calque_1
10
83.571700
20
130.790000
11
83.654898
21
130.690800
0
LINE
8
Calque_1
10
83.654900
20
130.691000
11
83.709700
21
130.632599
0
LINE
8
Calque_1
10
83.709700
20
130.632000
11
84.059029
21
130.074920
0
LINE
8
Calque_1
10
82.444600
20
132.346000
11
82.445200
21
132.346000
0
LINE
8
Calque_1
10
84.059500
20
130.075000
11
84.643959
21
129.475561
0
LINE
8
Calque_1
10
84.644000
20
129.476000
11
84.533346
21
129.566278
0
LINE
8
Calque_1
10
84.533346
20
129.566278
11
84.789208
21
129.313731
0
LINE
8
Calque_1
10
84.789200
20
129.314000
11
85.488952
21
128.668030
0
LINE
8
Calque_1
10
85.488952
20
128.668030
11
86.490910
21
127.956980
0
LINE
8
Calque_1
10
86.490900
20
127.957000
11
87.249611
21
127.611337
0
LINE
8
Calque_1
10
87.249611
20
127.611337
11
87.483081
21
127.561160
0
LINE
8
Calque_1
10
87.483100
20
127.561000
11
88.048335
21
127.336182
0
LINE
8
Calque_1
10
88.048335
20
127.336182
11
89.117110
21
127.060250
0
LINE
8
Calque_1
10
84.059000
20
130.075000
11
84.059500
21
130.075000
0
LINE
8
Calque_1
10
89.117600
20
127.060000
11
90.300470
21
126.962300
0
LINE
8
Calque_1
10
90.300500
20
126.962000
11
92.274540
21
126.755289
0
LINE
8
Calque_1
10
92.274500
20
126.756000
11
93.403120
21
126.885720
0
LINE
8
Calque_1
10
89.117100
20
127.060000
11
89.117600
21
127.060000
0
LINE
8
Calque_1
10
93.404100
20
126.885000
11
93.717771
21
126.955800
0
LINE
8
Calque_1
10
93.717800
20
126.956000
11
93.776699
21
126.962006
0
LINE
8
Calque_1
10
93.403100
20
126.885000
11
93.404200
21
126.885000
0
LINE
8
Calque_1
10
93.777800
20
126.962000
11
93.894058
21
126.987934
0
LINE
8
Calque_1
10
93.894058
20
126.987934
11
93.857400
21
126.987400
0
LINE
8
Calque_1
10
93.857400
20
126.987000
11
93.895601
21
126.999409
0
LINE
8
Calque_1
10
93.895600
20
127.000000
11
93.985098
21
127.023453
0
LINE
8
Calque_1
10
93.985098
20
127.023453
11
93.963799
21
127.021696
0
LINE
8
Calque_1
10
93.963800
20
127.022000
11
94.388591
21
127.098502
0
LINE
8
Calque_1
10
93.776700
20
126.962000
11
93.777200
21
126.962000
0
LINE
8
Calque_1
10
93.777200
20
126.962000
11
93.777800
21
126.962000
0
LINE
8
Calque_1
10
94.393900
20
127.098000
11
94.551509
21
127.118108
0
LINE
8
Calque_1
10
94.551500
20
127.118000
11
94.905999
21
127.198100
0
LINE
8
Calque_1
10
94.906000
20
127.198000
11
95.008320
21
127.227398
0
LINE
8
Calque_1
10
95.008300
20
127.228000
11
95.580871
21
127.334460
0
LINE
8
Calque_1
10
94.388600
20
127.098000
11
94.389100
21
127.098000
0
LINE
8
Calque_1
10
94.389100
20
127.098000
11
94.389600
21
127.098000
0
LINE
8
Calque_1
10
94.389600
20
127.098000
11
94.390100
21
127.098000
0
LINE
8
Calque_1
10
94.390100
20
127.098000
11
94.390700
21
127.098000
0
LINE
8
Calque_1
10
94.390700
20
127.098000
11
94.391200
21
127.098000
0
LINE
8
Calque_1
10
94.391200
20
127.098000
11
94.391700
21
127.098000
0
LINE
8
Calque_1
10
94.391700
20
127.098000
11
94.392300
21
127.098000
0
LINE
8
Calque_1
10
94.392300
20
127.098000
11
94.392800
21
127.098000
0
LINE
8
Calque_1
10
94.392800
20
127.098000
11
94.393300
21
127.098000
0
LINE
8
Calque_1
10
94.393300
20
127.098000
11
94.393900
21
127.098000
0
LINE
8
Calque_1
10
95.581900
20
127.334000
11
96.107675
21
127.535473
0
LINE
8
Calque_1
10
96.107675
20
127.535473
11
96.018052
21
127.520031
0
LINE
8
Calque_1
10
96.018100
20
127.520000
11
96.534544
21
127.704806
0
LINE
8
Calque_1
10
96.534544
20
127.704806
11
97.564260
21
128.384020
0
LINE
8
Calque_1
10
97.564200
20
128.384000
11
98.378100
21
129.349836
0
LINE
8
Calque_1
10
98.378100
20
129.350000
11
98.678984
21
129.799182
0
LINE
8
Calque_1
10
98.678984
20
129.799182
11
98.987369
21
130.529770
0
LINE
8
Calque_1
10
98.987400
20
130.530000
11
99.171194
21
131.380991
0
LINE
8
Calque_1
10
99.171194
20
131.380991
11
99.197720
21
131.838970
0
LINE
8
Calque_1
10
99.197700
20
131.839000
11
99.311910
21
133.146420
0
LINE
8
Calque_1
10
99.311900
20
133.146000
11
99.287209
21
133.557313
0
LINE
8
Calque_1
10
99.287209
20
133.557313
11
99.280899
21
133.446749
0
LINE
8
Calque_1
10
99.280900
20
133.447000
11
99.316084
21
133.215340
0
LINE
8
Calque_1
10
99.316084
20
133.215340
11
99.272910
21
133.820110
0
LINE
8
Calque_1
10
99.272900
20
133.820000
11
99.223799
21
134.114028
0
LINE
8
Calque_1
10
99.223800
20
134.114000
11
99.241897
21
134.082001
0
LINE
8
Calque_1
10
99.241900
20
134.082000
11
99.139580
21
134.749149
0
LINE
8
Calque_1
10
99.139600
20
134.749000
11
98.976329
21
135.400692
0
LINE
8
Calque_1
10
98.976329
20
135.400692
11
98.976302
21
135.232679
0
LINE
8
Calque_1
10
98.976300
20
135.233000
11
99.030099
21
135.043321
0
LINE
8
Calque_1
10
99.030099
20
135.043321
11
98.924598
21
135.573550
0
LINE
8
Calque_1
10
95.580800
20
127.334000
11
95.581400
21
127.334000
0
LINE
8
Calque_1
10
95.581400
20
127.334000
11
95.581900
21
127.334000
0
LINE
8
Calque_1
10
98.924100
20
135.573000
11
98.748401
21
136.047919
0
LINE
8
Calque_1
10
98.748400
20
136.048000
11
98.662598
21
136.388550
0
LINE
8
Calque_1
10
98.662600
20
136.389000
11
98.502117
21
136.937532
0
LINE
8
Calque_1
10
98.502117
20
136.937532
11
98.483800
21
136.917129
0
LINE
8
Calque_1
10
98.483800
20
136.917000
11
97.970652
21
138.489500
0
LINE
8
Calque_1
10
97.970600
20
138.490000
11
97.906999
21
138.667271
0
LINE
8
Calque_1
10
97.907000
20
138.667000
11
97.841899
21
138.825110
0
LINE
8
Calque_1
10
97.841900
20
138.825000
11
97.790700
21
138.923700
0
LINE
8
Calque_1
10
97.790700
20
138.924000
11
97.797914
21
138.925566
0
LINE
8
Calque_1
10
97.797914
20
138.925566
11
97.765909
21
139.006698
0
LINE
8
Calque_1
10
98.924600
20
135.573000
11
98.924100
21
135.573000
0
LINE
8
Calque_1
10
97.765400
20
139.009000
11
97.214928
21
139.944372
0
LINE
8
Calque_1
10
97.214928
20
139.944372
11
97.085437
21
140.049352
0
LINE
8
Calque_1
10
97.085437
20
140.049352
11
97.136499
21
139.935570
0
LINE
8
Calque_1
10
97.136500
20
139.936000
11
96.743242
21
140.424838
0
LINE
8
Calque_1
10
97.765900
20
139.006000
11
97.765371
21
139.008990
0
LINE
8
Calque_1
10
96.742700
20
140.425000
11
96.857774
21
140.315710
0
LINE
8
Calque_1
10
96.857774
20
140.315710
11
96.522562
21
140.719560
0
LINE
8
Calque_1
10
96.522600
20
140.719000
11
95.596560
21
141.568579
0
LINE
8
Calque_1
10
95.596500
20
141.569000
11
95.914135
21
141.318444
0
LINE
8
Calque_1
10
95.914135
20
141.318444
11
95.434242
21
141.770001
0
LINE
8
Calque_1
10
95.434300
20
141.770000
11
95.081349
21
142.132270
0
LINE
8
Calque_1
10
95.081300
20
142.132000
11
94.094802
21
142.756249
0
LINE
8
Calque_1
10
96.743200
20
140.425000
11
96.742700
21
140.425000
0
LINE
8
Calque_1
10
94.093800
20
142.756000
11
92.974268
21
143.136595
0
LINE
8
Calque_1
10
92.974268
20
143.136595
11
92.775196
21
143.135859
0
LINE
8
Calque_1
10
92.775196
20
143.135859
11
92.845290
21
143.085700
0
LINE
8
Calque_1
10
92.845300
20
143.086000
11
91.805570
21
143.311819
0
LINE
8
Calque_1
10
94.094800
20
142.756000
11
94.093800
21
142.756000
0
LINE
8
Calque_1
10
91.803600
20
143.312000
11
91.211902
21
143.350801
0
LINE
8
Calque_1
10
91.211900
20
143.351000
11
90.403681
21
143.361001
0
LINE
8
Calque_1
10
91.805600
20
143.312000
11
91.803500
21
143.312000
0
LINE
8
Calque_1
10
90.400700
20
143.361000
11
89.677230
21
143.268002
0
LINE
8
Calque_1
10
90.403700
20
143.361000
11
90.400700
21
143.361000
0
LINE
8
Calque_1
10
89.676700
20
143.268000
11
88.820941
21
143.228199
0
LINE
8
Calque_1
10
88.820900
20
143.228000
11
88.016293
21
143.091581
0
LINE
8
Calque_1
10
88.016300
20
143.091000
11
86.698550
21
142.669310
0
LINE
8
Calque_1
10
89.677200
20
143.268000
11
89.676700
21
143.268000
0
LINE
8
Calque_1
10
86.697500
20
142.670000
11
86.079883
21
142.343052
0
LINE
8
Calque_1
10
86.079883
20
142.343052
11
86.260830
21
142.412140
0
LINE
8
Calque_1
10
86.260800
20
142.412000
11
86.207293
21
142.400092
0
LINE
8
Calque_1
10
86.207293
20
142.400092
11
85.768840
21
142.154140
0
LINE
8
Calque_1
10
85.768900
20
142.154000
11
85.393696
21
141.927571
0
LINE
8
Calque_1
10
85.393696
20
141.927571
11
85.694502
21
142.066701
0
LINE
8
Calque_1
10
85.694500
20
142.067000
11
85.469178
21
141.948149
0
LINE
8
Calque_1
10
85.469100
20
141.948000
11
84.429380
21
141.334091
0
LINE
8
Calque_1
10
84.429400
20
141.334000
11
83.842285
21
140.829604
0
LINE
8
Calque_1
10
83.842285
20
140.829604
11
83.438762
21
140.310800
0
LINE
8
Calque_1
10
83.438800
20
140.311000
11
83.304442
21
140.086710
0
LINE
8
Calque_1
10
83.304400
20
140.087000
11
82.965400
21
139.696851
0
LINE
8
Calque_1
10
82.965400
20
139.696000
11
82.720051
21
139.334827
0
LINE
8
Calque_1
10
82.720051
20
139.334827
11
82.871399
21
139.510998
0
LINE
8
Calque_1
10
82.871400
20
139.511000
11
82.367560
21
138.778743
0
LINE
8
Calque_1
10
82.367600
20
138.779000
11
82.074072
21
138.073119
0
LINE
8
Calque_1
10
82.074100
20
138.073000
11
82.051451
21
137.989264
0
LINE
8
Calque_1
10
82.051451
20
137.989264
11
82.062697
21
138.026002
0
LINE
8
Calque_1
10
82.062700
20
138.026000
11
82.018800
21
137.915928
0
LINE
8
Calque_1
10
86.698500
20
142.670000
11
86.698000
21
142.670000
0
LINE
8
Calque_1
10
86.698000
20
142.670000
11
86.697500
21
142.670000
0
LINE
8
Calque_1
10
82.017800
20
137.913000
11
81.828671
21
137.538350
0
LINE
8
Calque_1
10
81.828600
20
137.538000
11
81.672020
21
136.805232
0
LINE
8
Calque_1
10
81.672000
20
136.806000
11
81.757299
21
135.924412
0
LINE
8
Calque_1
10
82.018800
20
137.916000
11
82.017742
21
137.913010
0
LINE
8
Calque_1
10
81.757900
20
135.921000
11
81.811100
21
135.786639
0
LINE
8
Calque_1
10
81.811100
20
135.787000
11
81.666921
21
134.848551
0
LINE
8
Calque_1
10
81.757300
20
135.924000
11
81.757829
21
135.921010
0
LINE
8
Calque_1
10
81.666900
20
134.848000
11
81.666371
21
134.847471
0
LINE
8
Calque_1
10
81.818900
20
101.863000
11
81.831812
21
101.016022
0
LINE
8
Calque_1
10
81.831800
20
101.016000
11
81.851406
21
100.963798
0
LINE
8
Calque_1
10
81.851400
20
100.964000
11
81.935098
21
100.323722
0
LINE
8
Calque_1
10
81.935100
20
100.323000
11
82.144912
21
99.560260
0
LINE
8
Calque_1
10
82.144900
20
99.560700
11
82.132491
21
99.546095
0
LINE
8
Calque_1
10
82.132500
20
99.546100
11
82.362460
21
98.695521
0
LINE
8
Calque_1
10
82.362400
20
98.695500
11
82.612000
21
98.087282
0
LINE
8
Calque_1
10
82.612000
20
98.087300
11
82.591033
21
98.101629
0
LINE
8
Calque_1
10
82.591033
20
98.101629
11
82.764961
21
97.662509
0
LINE
8
Calque_1
10
82.765000
20
97.662500
11
83.395448
21
96.576780
0
LINE
8
Calque_1
10
83.395400
20
96.576800
11
83.685932
21
96.044576
0
LINE
8
Calque_1
10
83.685932
20
96.044576
11
84.333839
21
95.146380
0
LINE
8
Calque_1
10
84.333900
20
95.146300
11
84.816399
21
94.666579
0
LINE
8
Calque_1
10
84.816399
20
94.666579
11
84.758691
21
94.758741
0
LINE
8
Calque_1
10
84.758700
20
94.758800
11
84.829550
21
94.668183
0
LINE
8
Calque_1
10
84.829550
20
94.668183
11
85.301807
21
94.285958
0
LINE
8
Calque_1
10
85.302300
20
94.285900
11
85.733322
21
94.002097
0
LINE
8
Calque_1
10
85.733322
20
94.002097
11
85.491440
21
94.183562
0
LINE
8
Calque_1
10
85.491400
20
94.183600
11
85.962170
21
93.834800
0
LINE
8
Calque_1
10
85.962200
20
93.834800
11
86.761378
21
93.389684
0
LINE
8
Calque_1
10
86.761378
20
93.389684
11
87.000900
21
93.340771
0
LINE
8
Calque_1
10
87.000900
20
93.340800
11
86.821060
21
93.474650
0
LINE
8
Calque_1
10
86.821100
20
93.474600
11
86.710930
21
93.528709
0
LINE
8
Calque_1
10
86.710930
20
93.528709
11
86.984401
21
93.359350
0
LINE
8
Calque_1
10
85.301800
20
94.285900
11
85.302300
21
94.285900
0
LINE
8
Calque_1
10
86.984900
20
93.359400
11
87.975555
21
92.910377
0
LINE
8
Calque_1
10
87.975555
20
92.910377
11
88.489720
21
92.779069
0
LINE
8
Calque_1
10
88.489700
20
92.779000
11
88.749110
21
92.643110
0
LINE
8
Calque_1
10
88.749100
20
92.643100
11
89.821390
21
92.412093
0
LINE
8
Calque_1
10
89.821400
20
92.412100
11
91.075070
21
92.426599
0
LINE
8
Calque_1
10
86.984400
20
93.359400
11
86.984900
21
93.359400
0
LINE
8
Calque_1
10
91.075600
20
92.426600
11
91.521525
21
92.417477
0
LINE
8
Calque_1
10
91.521525
20
92.417477
11
92.507030
21
92.566638
0
LINE
8
Calque_1
10
91.075100
20
92.426600
11
91.075600
21
92.426600
0
LINE
8
Calque_1
10
92.507600
20
92.566700
11
92.878641
21
92.695372
0
LINE
8
Calque_1
10
92.878600
20
92.695300
11
94.113150
21
93.008458
0
LINE
8
Calque_1
10
92.507000
20
92.566700
11
92.507600
21
92.566700
0
LINE
8
Calque_1
10
94.114200
20
93.008500
11
94.867640
21
93.383681
0
LINE
8
Calque_1
10
94.867700
20
93.383700
11
95.000815
21
93.421072
0
LINE
8
Calque_1
10
95.000815
20
93.421072
11
95.641298
21
93.777479
0
LINE
8
Calque_1
10
95.641300
20
93.777500
11
96.365289
21
94.106160
0
LINE
8
Calque_1
10
96.365200
20
94.106100
11
96.815819
21
94.390818
0
LINE
8
Calque_1
10
96.815900
20
94.390800
11
97.280471
21
94.748940
0
LINE
8
Calque_1
10
97.280400
20
94.749000
11
97.891727
21
95.512251
0
LINE
8
Calque_1
10
97.891800
20
95.512200
11
98.199013
21
95.832669
0
LINE
8
Calque_1
10
98.199013
20
95.832669
11
98.664880
21
96.675970
0
LINE
8
Calque_1
10
98.664800
20
96.676000
11
98.899930
21
97.352959
0
LINE
8
Calque_1
10
98.900000
20
97.353000
11
99.076731
21
98.846440
0
LINE
8
Calque_1
10
99.076700
20
98.846400
11
99.092508
21
98.738863
0
LINE
8
Calque_1
10
99.092508
20
98.738863
11
99.134504
21
98.864568
0
LINE
8
Calque_1
10
99.134504
20
98.864568
11
99.152098
21
99.808109
0
LINE
8
Calque_1
10
99.152100
20
99.808100
11
99.086371
21
100.335683
0
LINE
8
Calque_1
10
99.086371
20
100.335683
11
99.066801
21
100.347079
0
LINE
8
Calque_1
10
94.113200
20
93.008500
11
94.113700
21
93.008500
0
LINE
8
Calque_1
10
94.113700
20
93.008500
11
94.114200
21
93.008500
0
LINE
8
Calque_1
10
99.066800
20
100.350000
11
98.973299
21
101.241391
0
LINE
8
Calque_1
10
99.066800
20
100.347000
11
99.066800
21
100.350000
0
LINE
8
Calque_1
10
98.974300
20
101.241000
11
98.891381
21
101.603624
0
LINE
8
Calque_1
10
98.891381
20
101.603624
11
98.899902
21
101.514899
0
LINE
8
Calque_1
10
98.899900
20
101.515000
11
98.839400
21
102.090651
0
LINE
8
Calque_1
10
98.839400
20
102.091000
11
98.715369
21
102.695128
0
LINE
8
Calque_1
10
98.715400
20
102.695000
11
98.713283
21
102.678887
0
LINE
8
Calque_1
10
98.713400
20
102.679000
11
98.704404
21
102.718801
0
LINE
8
Calque_1
10
98.973300
20
101.241000
11
98.974400
21
101.241000
0
LINE
8
Calque_1
10
98.701500
20
102.732000
11
98.217800
21
104.250760
0
LINE
8
Calque_1
10
98.704400
20
102.719000
11
98.692494
21
102.746898
0
LINE
8
Calque_1
10
98.692494
20
102.746898
11
98.701490
21
102.732399
0
LINE
8
Calque_1
10
98.217200
20
104.251000
11
97.785192
21
104.969819
0
LINE
8
Calque_1
10
97.785200
20
104.970000
11
97.736075
21
105.098879
0
LINE
8
Calque_1
10
97.736075
20
105.098879
11
97.328900
21
105.686247
0
LINE
8
Calque_1
10
97.328900
20
105.686000
11
96.230260
21
106.952590
0
LINE
8
Calque_1
10
96.230300
20
106.953000
11
95.658761
21
107.488878
0
LINE
8
Calque_1
10
95.658800
20
107.489000
11
95.524950
21
107.591320
0
LINE
8
Calque_1
10
95.524900
20
107.591000
11
95.493902
21
107.634900
0
LINE
8
Calque_1
10
95.493900
20
107.635000
11
94.811199
21
108.434486
0
LINE
8
Calque_1
10
94.811199
20
108.434486
11
94.010270
21
108.961010
0
LINE
8
Calque_1
10
98.217800
20
104.251000
11
98.217200
21
104.251000
0
LINE
8
Calque_1
10
94.009800
20
108.961000
11
93.477530
21
109.229210
0
LINE
8
Calque_1
10
93.477500
20
109.229000
11
92.458960
21
109.497200
0
LINE
8
Calque_1
10
92.458900
20
109.497000
11
92.043423
21
109.542000
0
LINE
8
Calque_1
10
92.043500
20
109.542000
11
91.369639
21
109.673260
0
LINE
8
Calque_1
10
91.369600
20
109.673000
11
90.958250
21
109.685409
0
LINE
8
Calque_1
10
90.958300
20
109.686000
11
89.119660
21
109.553711
0
LINE
8
Calque_1
10
89.119600
20
109.554000
11
88.007000
21
109.322490
0
LINE
8
Calque_1
10
88.007000
20
109.322000
11
88.223996
21
109.431741
0
LINE
8
Calque_1
10
88.223996
20
109.431741
11
87.483520
21
109.145761
0
LINE
8
Calque_1
10
94.010300
20
108.961000
11
94.009800
21
108.961000
0
LINE
8
Calque_1
10
87.482500
20
109.146000
11
87.128522
21
108.970320
0
LINE
8
Calque_1
10
87.483500
20
109.146000
11
87.482500
21
109.146000
0
LINE
8
Calque_1
10
87.128000
20
108.970000
11
87.070101
21
108.952511
0
LINE
8
Calque_1
10
87.070100
20
108.953000
11
86.116670
21
108.472912
0
LINE
8
Calque_1
10
86.116700
20
108.473000
11
85.770472
21
108.264749
0
LINE
8
Calque_1
10
85.770500
20
108.264000
11
85.231510
21
107.836640
0
LINE
8
Calque_1
10
85.231500
20
107.837000
11
85.143100
21
107.754799
0
LINE
8
Calque_1
10
85.143100
20
107.755000
11
84.989621
21
107.637710
0
LINE
8
Calque_1
10
84.989600
20
107.637000
11
84.685221
21
107.379140
0
LINE
8
Calque_1
10
84.685200
20
107.380000
11
84.629399
21
107.331401
0
LINE
8
Calque_1
10
84.629400
20
107.331000
11
83.518880
21
105.990490
0
LINE
8
Calque_1
10
83.518900
20
105.990000
11
82.804211
21
104.518790
0
LINE
8
Calque_1
10
87.128600
20
108.970000
11
87.128000
21
108.970000
0
LINE
8
Calque_1
10
82.791300
20
104.510000
11
82.411481
21
103.808220
0
LINE
8
Calque_1
10
82.411500
20
103.808000
11
82.227809
21
103.577393
0
LINE
8
Calque_1
10
82.227809
20
103.577393
11
82.053382
21
103.134163
0
LINE
8
Calque_1
10
82.804200
20
104.519000
11
82.791288
21
104.510004
0
LINE
8
Calque_1
10
82.052400
20
103.131000
11
81.889971
21
102.524170
0
LINE
8
Calque_1
10
81.889971
20
102.524170
11
81.877220
21
102.135192
0
LINE
8
Calque_1
10
81.877200
20
102.135000
11
81.863835
21
102.209814
0
LINE
8
Calque_1
10
81.863835
20
102.209814
11
81.818301
21
101.863699
0
LINE
8
Calque_1
10
82.053400
20
103.135000
11
82.052342
21
103.131005
0
LINE
8
Calque_1
10
81.818300
20
101.864000
11
81.818829
21
101.863206
0
LINE
8
Calque_1
10
81.900100
20
167.899000
11
81.981801
21
167.758948
0
LINE
8
Calque_1
10
81.981800
20
167.759000
11
82.034500
21
167.561600
0
LINE
8
Calque_1
10
82.034500
20
167.562000
11
82.113100
21
167.321700
0
LINE
8
Calque_1
10
82.113100
20
167.321000
11
82.284669
21
166.848172
0
LINE
8
Calque_1
10
82.284600
20
166.848000
11
82.537811
21
166.180851
0
LINE
8
Calque_1
10
82.537800
20
166.181000
11
83.342397
21
164.628640
0
LINE
8
Calque_1
10
83.342400
20
164.629000
11
84.469460
21
163.299870
0
LINE
8
Calque_1
10
84.469500
20
163.300000
11
85.866128
21
162.256119
0
LINE
8
Calque_1
10
85.866128
20
162.256119
11
87.479140
21
161.559540
0
LINE
8
Calque_1
10
87.479100
20
161.559000
11
88.647183
21
161.273694
0
LINE
8
Calque_1
10
88.647183
20
161.273694
11
89.953890
21
161.124930
0
LINE
8
Calque_1
10
89.953900
20
161.125000
11
91.295628
21
161.170603
0
LINE
8
Calque_1
10
91.295628
20
161.170603
11
92.681380
21
161.476919
0
LINE
8
Calque_1
10
92.681400
20
161.477000
11
94.459580
21
162.232490
0
LINE
8
Calque_1
10
94.459600
20
162.233000
11
95.683940
21
162.816978
0
LINE
8
Calque_1
10
95.683940
20
162.816978
11
97.089420
21
163.806030
0
LINE
8
Calque_1
10
97.089400
20
163.806000
11
97.970998
21
164.833850
0
LINE
8
Calque_1
10
97.971000
20
164.834000
11
98.687272
21
166.258186
0
LINE
8
Calque_1
10
98.687272
20
166.258186
11
99.002855
21
167.723930
0
LINE
8
Calque_1
10
99.002855
20
167.723930
11
98.986607
21
169.177951
0
LINE
8
Calque_1
10
98.986607
20
169.177951
11
98.707387
21
170.566970
0
LINE
8
Calque_1
10
98.707400
20
170.567000
11
98.044903
21
172.225830
0
LINE
8
Calque_1
10
98.044900
20
172.225000
11
97.175663
21
173.708371
0
LINE
8
Calque_1
10
97.175663
20
173.708371
11
95.872940
21
175.201560
0
LINE
8
Calque_1
10
95.872400
20
175.202000
11
94.362930
21
176.297000
0
LINE
8
Calque_1
10
94.362900
20
176.297000
11
93.511488
21
176.865547
0
LINE
8
Calque_1
10
93.511488
20
176.865547
11
92.803944
21
177.179793
0
LINE
8
Calque_1
10
92.803944
20
177.179793
11
91.826100
21
177.412700
0
LINE
8
Calque_1
10
91.826100
20
177.413000
11
90.281490
21
177.465700
0
LINE
8
Calque_1
10
90.281500
20
177.465000
11
88.966340
21
177.238120
0
LINE
8
Calque_1
10
88.966400
20
177.238000
11
87.028530
21
176.571380
0
LINE
8
Calque_1
10
87.028500
20
176.572000
11
85.621374
21
175.971368
0
LINE
8
Calque_1
10
85.621374
20
175.971368
11
84.216790
21
174.974690
0
LINE
8
Calque_1
10
84.216800
20
174.975000
11
83.744692
21
174.581574
0
LINE
8
Calque_1
10
83.744692
20
174.581574
11
82.950720
21
173.553900
0
LINE
8
Calque_1
10
82.950700
20
173.553000
11
82.607167
21
172.799876
0
LINE
8
Calque_1
10
82.607167
20
172.799876
11
82.444025
21
172.125917
0
LINE
8
Calque_1
10
82.444025
20
172.125917
11
82.391570
21
171.093200
0
LINE
8
Calque_1
10
82.391600
20
171.094000
11
82.361444
21
170.556633
0
LINE
8
Calque_1
10
82.361444
20
170.556633
11
82.427300
21
170.667143
0
LINE
8
Calque_1
10
82.427300
20
170.667000
11
82.345099
21
170.395699
0
LINE
8
Calque_1
10
82.345100
20
170.396000
11
81.943571
21
168.679840
0
LINE
8
Calque_1
10
81.943600
20
168.679000
11
81.900200
21
167.899721
0
LINE
8
Calque_1
10
95.872900
20
175.202000
11
95.872400
21
175.202000
0
LINE
8
Calque_1
10
81.955900
20
33.970400
11
81.982305
21
33.620568
0
LINE
8
Calque_1
10
81.982300
20
33.620600
11
82.089268
21
32.981873
0
LINE
8
Calque_1
10
81.900200
20
167.900000
11
81.900099
21
167.898942
0
LINE
8
Calque_1
10
82.088700
20
32.981900
11
82.157399
21
32.227418
0
LINE
8
Calque_1
10
82.157400
20
32.227400
11
82.270570
21
31.739588
0
LINE
8
Calque_1
10
82.089200
20
32.981900
11
82.088700
21
32.981900
0
LINE
8
Calque_1
10
82.271100
20
31.739600
11
82.352200
21
31.159793
0
LINE
8
Calque_1
10
82.352200
20
31.159800
11
82.280277
21
31.505746
0
LINE
8
Calque_1
10
82.280277
20
31.505746
11
82.289100
21
30.970650
0
LINE
8
Calque_1
10
82.289100
20
30.970600
11
82.421910
21
30.007888
0
LINE
8
Calque_1
10
82.270600
20
31.739600
11
82.271100
21
31.739600
0
LINE
8
Calque_1
10
82.421900
20
30.004900
11
82.396240
21
30.137860
0
LINE
8
Calque_1
10
82.396240
20
30.137860
11
82.414889
21
30.024479
0
LINE
8
Calque_1
10
82.414900
20
30.024500
11
82.510499
21
29.527375
0
LINE
8
Calque_1
10
82.510500
20
29.527400
11
82.748220
21
28.876288
0
LINE
8
Calque_1
10
82.748200
20
28.876300
11
82.909940
21
28.344012
0
LINE
8
Calque_1
10
82.910000
20
28.344000
11
83.451570
21
27.344591
0
LINE
8
Calque_1
10
82.421900
20
30.007900
11
82.421900
21
30.005000
0
LINE
8
Calque_1
10
83.452100
20
27.344600
11
84.053100
21
26.717750
0
LINE
8
Calque_1
10
84.053100
20
26.717700
11
84.094660
21
26.686489
0
LINE
8
Calque_1
10
84.094660
20
26.686489
11
83.988499
21
26.781306
0
LINE
8
Calque_1
10
83.988500
20
26.781400
11
84.689240
21
26.035699
0
LINE
8
Calque_1
10
83.451500
20
27.344600
11
83.452100
21
27.344600
0
LINE
8
Calque_1
10
84.689700
20
26.035700
11
85.754750
21
25.261583
0
LINE
8
Calque_1
10
84.689200
20
26.035700
11
84.689700
21
26.035700
0
LINE
8
Calque_1
10
85.755800
20
25.261500
11
85.770304
21
25.230170
0
LINE
8
Calque_1
10
85.770304
20
25.230170
11
86.256029
21
24.952996
0
LINE
8
Calque_1
10
85.754800
20
25.261500
11
85.755300
21
25.261500
0
LINE
8
Calque_1
10
85.755300
20
25.261500
11
85.755800
21
25.261500
0
LINE
8
Calque_1
10
86.255100
20
24.953000
11
86.376686
21
24.895612
0
LINE
8
Calque_1
10
86.376686
20
24.895612
11
86.357941
21
24.914186
0
LINE
8
Calque_1
10
86.256100
20
24.953000
11
86.255000
21
24.953000
0
LINE
8
Calque_1
10
86.373900
20
24.902300
11
86.403401
21
24.880075
0
LINE
8
Calque_1
10
86.403400
20
24.880100
11
86.442199
21
24.851684
0
LINE
8
Calque_1
10
86.442200
20
24.851700
11
86.721250
21
24.681176
0
LINE
8
Calque_1
10
86.357900
20
24.914200
11
86.373907
21
24.902294
0
LINE
8
Calque_1
10
86.724300
20
24.677200
11
87.165930
21
24.471735
0
LINE
8
Calque_1
10
87.165930
20
24.471735
11
87.168209
21
24.487547
0
LINE
8
Calque_1
10
86.721300
20
24.681200
11
86.724290
21
24.677231
0
LINE
8
Calque_1
10
87.168700
20
24.487600
11
89.152560
21
23.847336
0
LINE
8
Calque_1
10
87.168200
20
24.487600
11
87.168700
21
24.487600
0
LINE
8
Calque_1
10
89.153600
20
23.847300
11
90.103411
21
23.733609
0
LINE
8
Calque_1
10
89.152500
20
23.847300
11
89.153100
21
23.847300
0
LINE
8
Calque_1
10
89.153100
20
23.847300
11
89.153600
21
23.847300
0
LINE
8
Calque_1
10
90.105000
20
23.733600
11
91.127680
21
23.657612
0
LINE
8
Calque_1
10
91.127700
20
23.657600
11
92.049600
21
23.756289
0
LINE
8
Calque_1
10
92.049600
20
23.756300
11
92.014500
21
23.753390
0
LINE
8
Calque_1
10
92.014500
20
23.753300
11
92.693018
21
23.810106
0
LINE
8
Calque_1
10
90.103400
20
23.733600
11
90.103900
21
23.733600
0
LINE
8
Calque_1
10
90.103900
20
23.733600
11
90.104500
21
23.733600
0
LINE
8
Calque_1
10
90.104500
20
23.733600
11
90.105000
21
23.733600
0
LINE
8
Calque_1
10
92.694000
20
23.810100
11
93.556998
21
23.997160
0
LINE
8
Calque_1
10
92.693000
20
23.810100
11
92.694100
21
23.810100
0
LINE
8
Calque_1
10
93.557500
20
23.997200
11
94.288209
21
24.103139
0
LINE
8
Calque_1
10
94.288200
20
24.103100
11
95.324134
21
24.409854
0
LINE
8
Calque_1
10
95.324134
20
24.409854
11
95.921170
21
24.705635
0
LINE
8
Calque_1
10
93.557000
20
23.997200
11
93.557500
21
23.997200
0
LINE
8
Calque_1
10
95.921700
20
24.705600
11
96.199116
21
24.807961
0
LINE
8
Calque_1
10
96.199116
20
24.807961
11
96.983650
21
25.337080
0
LINE
8
Calque_1
10
96.983700
20
25.337100
11
97.729921
21
26.136127
0
LINE
8
Calque_1
10
97.729921
20
26.136127
11
98.220840
21
27.129230
0
LINE
8
Calque_1
10
98.220800
20
27.129300
11
98.431120
21
27.854840
0
LINE
8
Calque_1
10
98.431100
20
27.854800
11
98.412500
21
27.920919
0
LINE
8
Calque_1
10
98.412500
20
27.920900
11
98.386089
21
27.790143
0
LINE
8
Calque_1
10
98.386089
20
27.790143
11
98.567519
21
28.235092
0
LINE
8
Calque_1
10
98.567600
20
28.235100
11
98.853732
21
29.222133
0
LINE
8
Calque_1
10
98.853732
20
29.222133
11
98.976881
21
30.069110
0
LINE
8
Calque_1
10
98.976800
20
30.069100
11
99.009399
21
31.039061
0
LINE
8
Calque_1
10
99.009400
20
31.039100
11
98.946400
21
31.863858
0
LINE
8
Calque_1
10
98.946400
20
31.863800
11
98.995836
21
31.695766
0
LINE
8
Calque_1
10
98.995836
20
31.695766
11
98.966588
21
32.379525
0
LINE
8
Calque_1
10
98.966600
20
32.379600
11
98.842139
21
33.180718
0
LINE
8
Calque_1
10
98.842139
20
33.180718
11
98.783138
21
33.291160
0
LINE
8
Calque_1
10
98.783200
20
33.291100
11
98.808013
21
33.293591
0
LINE
8
Calque_1
10
98.808013
20
33.293591
11
98.752201
21
33.881250
0
LINE
8
Calque_1
10
98.752200
20
33.881300
11
98.623009
21
34.542757
0
LINE
8
Calque_1
10
98.623000
20
34.542700
11
98.653588
21
34.391298
0
LINE
8
Calque_1
10
98.653588
20
34.391298
11
98.628001
21
34.549711
0
LINE
8
Calque_1
10
98.628000
20
34.549700
11
98.644394
21
34.689023
0
LINE
8
Calque_1
10
98.644394
20
34.689023
11
98.447650
21
35.318128
0
LINE
8
Calque_1
10
98.447600
20
35.318200
11
98.346831
21
35.539370
0
LINE
8
Calque_1
10
98.346900
20
35.539300
11
98.203750
21
35.852990
0
LINE
8
Calque_1
10
98.203700
20
35.853000
11
98.133400
21
35.988379
0
LINE
8
Calque_1
10
98.133400
20
35.988400
11
97.973208
21
36.294340
0
LINE
8
Calque_1
10
97.973200
20
36.294300
11
97.145862
21
37.339190
0
LINE
8
Calque_1
10
97.145900
20
37.339200
11
97.078731
21
37.489517
0
LINE
8
Calque_1
10
97.078731
20
37.489517
11
96.466350
21
38.146898
0
LINE
8
Calque_1
10
95.921200
20
24.705600
11
95.921700
21
24.705600
0
LINE
8
Calque_1
10
96.465800
20
38.146900
11
95.653961
21
38.768562
0
LINE
8
Calque_1
10
95.654000
20
38.768600
11
94.182780
21
39.822800
0
LINE
8
Calque_1
10
94.182800
20
39.822800
11
93.400359
21
40.175271
0
LINE
8
Calque_1
10
93.400359
20
40.175271
11
92.742485
21
40.325333
0
LINE
8
Calque_1
10
92.742485
20
40.325333
11
91.806200
21
40.346809
0
LINE
8
Calque_1
10
91.806200
20
40.346800
11
91.170534
21
40.318651
0
LINE
8
Calque_1
10
91.170534
20
40.318651
11
91.139570
21
40.290502
0
LINE
8
Calque_1
10
91.139500
20
40.290500
11
90.411902
21
40.265100
0
LINE
8
Calque_1
10
96.466300
20
38.146900
11
96.465800
21
38.146900
0
LINE
8
Calque_1
10
90.410900
20
40.265100
11
90.259054
21
40.282675
0
LINE
8
Calque_1
10
90.259054
20
40.282675
11
89.486931
21
40.178298
0
LINE
8
Calque_1
10
89.487000
20
40.178300
11
89.531325
21
40.199538
0
LINE
8
Calque_1
10
89.531325
20
40.199538
11
89.137150
21
40.129201
0
LINE
8
Calque_1
10
89.137100
20
40.129200
11
88.327841
21
39.913729
0
LINE
8
Calque_1
10
88.327800
20
39.913700
11
87.985251
21
39.901370
0
LINE
8
Calque_1
10
87.985251
20
39.901370
11
87.163020
21
39.663561
0
LINE
8
Calque_1
10
87.163100
20
39.663600
11
86.129050
21
39.160810
0
LINE
8
Calque_1
10
86.129000
20
39.160800
11
85.469612
21
38.692102
0
LINE
8
Calque_1
10
90.411900
20
40.265100
11
90.410900
21
40.265100
0
LINE
8
Calque_1
10
85.469100
20
38.692100
11
84.832452
21
38.279189
0
LINE
8
Calque_1
10
84.832500
20
38.279200
11
84.774599
21
38.236801
0
LINE
8
Calque_1
10
84.774600
20
38.236800
11
84.653680
21
38.163902
0
LINE
8
Calque_1
10
84.653600
20
38.163900
11
84.518210
21
38.050709
0
LINE
8
Calque_1
10
84.518200
20
38.050700
11
84.459801
21
38.001601
0
LINE
8
Calque_1
10
84.459800
20
38.001600
11
83.526531
21
37.176321
0
LINE
8
Calque_1
10
83.526600
20
37.176300
11
82.970039
21
36.456441
0
LINE
8
Calque_1
10
82.970000
20
36.456500
11
82.926600
21
36.439011
0
LINE
8
Calque_1
10
82.926600
20
36.439000
11
82.581920
21
35.862291
0
LINE
8
Calque_1
10
82.581900
20
35.862200
11
82.171071
21
34.960983
0
LINE
8
Calque_1
10
82.171100
20
34.961000
11
81.956132
21
33.969311
0
LINE
8
Calque_1
10
85.469600
20
38.692100
11
85.469100
21
38.692100
0
LINE
8
Calque_1
10
81.956100
20
33.969300
11
81.955835
21
33.970358
0
LINE
8
Calque_1
10
76.346500
20
-152.809000
11
76.979352
21
-152.793803
0
LINE
8
Calque_1
10
76.979352
20
-152.793803
11
77.586220
21
-152.613685
0
LINE
8
Calque_1
10
77.586300
20
-152.614000
11
77.435034
21
-152.710017
0
LINE
8
Calque_1
10
77.435034
20
-152.710017
11
77.934600
21
-152.603946
0
LINE
8
Calque_1
10
77.934600
20
-152.604000
11
79.528300
21
-152.487716
0
LINE
8
Calque_1
10
79.528300
20
-152.487000
11
81.319400
21
-152.379500
0
LINE
8
Calque_1
10
81.319400
20
-152.380000
11
82.123425
21
-152.313834
0
LINE
8
Calque_1
10
82.123425
20
-152.313834
11
83.065550
21
-152.090705
0
LINE
8
Calque_1
10
83.065500
20
-152.090000
11
82.809466
21
-152.178210
0
LINE
8
Calque_1
10
82.809466
20
-152.178210
11
82.849462
21
-152.175904
0
LINE
8
Calque_1
10
82.849462
20
-152.175904
11
83.335250
21
-152.090000
0
LINE
8
Calque_1
10
83.335300
20
-152.090000
11
84.590520
21
-151.991998
0
LINE
8
Calque_1
10
84.590500
20
-151.992000
11
86.515450
21
-151.882886
0
LINE
8
Calque_1
10
86.515400
20
-151.883000
11
92.439060
21
-151.702713
0
LINE
8
Calque_1
10
92.439100
20
-151.703000
11
95.217220
21
-151.599601
0
LINE
8
Calque_1
10
95.217200
20
-151.600000
11
99.916865
21
-150.962689
0
LINE
8
Calque_1
10
99.916865
20
-150.962689
11
104.341700
21
-150.083300
0
LINE
8
Calque_1
10
104.342000
20
-150.083000
11
104.164229
21
-152.219300
0
LINE
8
Calque_1
10
104.164000
20
-152.219000
11
103.298943
21
-156.527280
0
LINE
8
Calque_1
10
103.299000
20
-156.528000
11
102.725911
21
-159.907100
0
LINE
8
Calque_1
10
102.726000
20
-159.907000
11
102.503696
21
-162.409865
0
LINE
8
Calque_1
10
102.503696
20
-162.409865
11
102.279000
21
-164.482380
0
LINE
8
Calque_1
10
102.279000
20
-164.482000
11
101.619818
21
-167.582075
0
LINE
8
Calque_1
10
101.619818
20
-167.582075
11
101.234100
21
-168.781500
0
LINE
8
Calque_1
10
101.234000
20
-168.782000
11
100.749798
21
-169.973360
0
LINE
8
Calque_1
10
100.749798
20
-169.973360
11
99.980850
21
-172.513600
0
LINE
8
Calque_1
10
99.980700
20
-172.513000
11
99.829436
21
-173.432425
0
LINE
8
Calque_1
10
99.829436
20
-173.432425
11
99.817921
21
-173.874090
0
LINE
8
Calque_1
10
99.818000
20
-173.874000
11
99.658832
21
-177.436610
0
LINE
8
Calque_1
10
99.658800
20
-177.437000
11
99.669701
21
-179.132500
0
LINE
8
Calque_1
10
99.669700
20
-179.132000
11
99.478502
21
-179.783086
0
LINE
8
Calque_1
10
99.478500
20
-179.783000
11
99.273350
21
-180.501290
0
LINE
8
Calque_1
10
99.273300
20
-180.502000
11
99.030929
21
-180.568014
0
LINE
8
Calque_1
10
99.031000
20
-180.568000
11
97.587883
21
-180.802759
0
LINE
8
Calque_1
10
97.587883
20
-180.802759
11
96.022783
21
-180.830850
0
LINE
8
Calque_1
10
96.022783
20
-180.830850
11
92.348730
21
-180.664996
0
LINE
8
Calque_1
10
92.348700
20
-180.665000
11
87.028110
21
-180.649919
0
LINE
8
Calque_1
10
87.028100
20
-180.650000
11
85.980100
21
-180.697016
0
LINE
8
Calque_1
10
85.980100
20
-180.697000
11
85.669011
21
-180.747985
0
LINE
8
Calque_1
10
85.669000
20
-180.748000
11
84.986871
21
-180.710006
0
LINE
8
Calque_1
10
84.986900
20
-180.710000
11
82.406180
21
-180.460392
0
LINE
8
Calque_1
10
82.406200
20
-180.460000
11
80.681240
21
-180.460000
0
LINE
8
Calque_1
10
80.681200
20
-180.460000
11
79.646498
21
-180.283351
0
LINE
8
Calque_1
10
79.646498
20
-180.283351
11
78.227090
21
-180.146310
0
LINE
8
Calque_1
10
78.227100
20
-180.146000
11
77.724279
21
-180.146000
0
LINE
8
Calque_1
10
77.724300
20
-180.146000
11
77.196171
21
-179.947589
0
LINE
8
Calque_1
10
77.196200
20
-179.948000
11
76.586931
21
-179.890003
0
LINE
8
Calque_1
10
76.586900
20
-179.890000
11
76.400350
21
-179.839994
0
LINE
8
Calque_1
10
76.400300
20
-179.840000
11
76.010151
21
-179.774013
0
LINE
8
Calque_1
10
76.010200
20
-179.774000
11
75.302750
21
-179.688989
0
LINE
8
Calque_1
10
75.302700
20
-179.689000
11
74.764739
21
-179.621002
0
LINE
8
Calque_1
10
74.764800
20
-179.621000
11
74.799902
21
-179.632113
0
LINE
8
Calque_1
10
74.799900
20
-179.632000
11
75.150269
21
-179.764794
0
LINE
8
Calque_1
10
75.150200
20
-179.765000
11
75.305230
21
-179.842999
0
LINE
8
Calque_1
10
75.305300
20
-179.843000
11
74.254200
21
-179.688510
0
LINE
8
Calque_1
10
74.254200
20
-179.695000
11
76.346580
21
-152.809300
0
LINE
8
Calque_1
10
120.119000
20
-17.805000
11
119.740731
21
-19.785770
0
LINE
8
Calque_1
10
119.741000
20
-19.785800
11
119.673799
21
-20.926810
0
LINE
8
Calque_1
10
74.254200
20
-179.688000
11
74.254189
21
-179.694085
0
LINE
8
Calque_1
10
119.673000
20
-20.927300
11
119.315024
21
-23.443334
0
LINE
8
Calque_1
10
119.315024
20
-23.443334
11
119.034791
21
-26.380200
0
LINE
8
Calque_1
10
119.035000
20
-26.380200
11
119.021612
21
-26.597237
0
LINE
8
Calque_1
10
119.022000
20
-26.597300
11
118.531443
21
-26.994951
0
LINE
8
Calque_1
10
118.531443
20
-26.994951
11
118.161589
21
-27.506804
0
LINE
8
Calque_1
10
118.161000
20
-27.506800
11
118.027161
21
-28.530500
0
LINE
8
Calque_1
10
118.027000
20
-28.530500
11
117.054962
21
-28.734123
0
LINE
8
Calque_1
10
117.055000
20
-28.734100
11
112.269250
21
-29.472551
0
LINE
8
Calque_1
10
112.270000
20
-29.472500
11
109.737850
21
-30.104509
0
LINE
8
Calque_1
10
109.738000
20
-30.104500
11
107.021414
21
-30.791410
0
LINE
8
Calque_1
10
107.021414
20
-30.791410
11
104.538850
21
-31.244480
0
LINE
8
Calque_1
10
104.538000
20
-31.244500
11
96.705410
21
-32.142627
0
LINE
8
Calque_1
10
96.705800
20
-32.142700
11
91.009000
21
-32.628977
0
LINE
8
Calque_1
10
91.009000
20
-32.628900
11
86.187849
21
-33.365887
0
LINE
8
Calque_1
10
86.187849
20
-33.365887
11
81.571860
21
-34.097020
0
LINE
8
Calque_1
10
81.571900
20
-34.097000
11
75.418280
21
-34.716600
0
LINE
8
Calque_1
10
75.418200
20
-34.716700
11
72.426477
21
-34.815134
0
LINE
8
Calque_1
10
72.426477
20
-34.815134
11
68.746308
21
-34.748047
0
LINE
8
Calque_1
10
68.746308
20
-34.748047
11
61.464500
21
-34.667593
0
LINE
8
Calque_1
10
61.464600
20
-34.667500
11
61.077552
21
-35.084536
0
LINE
8
Calque_1
10
61.077500
20
-35.084600
11
61.117379
21
-34.502654
0
LINE
8
Calque_1
10
61.117379
20
-34.502654
11
60.949860
21
-33.949780
0
LINE
8
Calque_1
10
60.949900
20
-33.949800
11
60.349406
21
-32.171048
0
LINE
8
Calque_1
10
60.349406
20
-32.171048
11
60.012490
21
-30.318000
0
LINE
8
Calque_1
10
60.012500
20
-30.318000
11
59.882791
21
-29.333566
0
LINE
8
Calque_1
10
59.882800
20
-29.333500
11
60.837259
21
-28.873046
0
LINE
8
Calque_1
10
60.837200
20
-28.873100
11
61.919310
21
-28.785814
0
LINE
8
Calque_1
10
61.919300
20
-28.785800
11
63.068580
21
-28.612181
0
LINE
8
Calque_1
10
63.068600
20
-28.612200
11
63.780699
21
-28.638658
0
LINE
8
Calque_1
10
63.780700
20
-28.638500
11
64.204959
21
-28.595108
0
LINE
8
Calque_1
10
64.205000
20
-28.595200
11
64.428760
21
-28.598110
0
LINE
8
Calque_1
10
64.428700
20
-28.598100
11
65.257588
21
-28.525710
0
LINE
8
Calque_1
10
65.257600
20
-28.525800
11
66.604529
21
-28.252823
0
LINE
8
Calque_1
10
66.604529
20
-28.252823
11
67.368580
21
-28.014731
0
LINE
8
Calque_1
10
67.368600
20
-28.014700
11
70.600440
21
-27.396131
0
LINE
8
Calque_1
10
70.600400
20
-27.396100
11
77.307990
21
-25.706790
0
LINE
8
Calque_1
10
77.308000
20
-25.706800
11
77.883161
21
-25.574508
0
LINE
8
Calque_1
10
77.883200
20
-25.574500
11
78.350869
21
-25.521292
0
LINE
8
Calque_1
10
78.350900
20
-25.521300
11
80.834990
21
-25.088786
0
LINE
8
Calque_1
10
80.835000
20
-25.088800
11
84.128330
21
-24.401493
0
LINE
8
Calque_1
10
84.128300
20
-24.401500
11
86.162800
21
-24.155014
0
LINE
8
Calque_1
10
86.162800
20
-24.155000
11
89.492365
21
-23.529820
0
LINE
8
Calque_1
10
89.492365
20
-23.529820
11
92.803210
21
-22.821240
0
LINE
8
Calque_1
10
92.803200
20
-22.821200
11
97.713913
21
-22.016762
0
LINE
8
Calque_1
10
97.713913
20
-22.016762
11
102.859900
21
-21.154620
0
LINE
8
Calque_1
10
102.860000
20
-21.154700
11
107.880350
21
-19.979580
0
LINE
8
Calque_1
10
107.880000
20
-19.979500
11
113.970251
21
-18.783134
0
LINE
8
Calque_1
10
113.970251
20
-18.783134
11
120.118500
21
-17.804970
0
LINE
8
Calque_1
10
119.673000
20
-20.926800
11
119.673000
21
-20.926800
0
LINE
8
Calque_1
10
80.504200
20
-87.875600
11
81.750120
21
-87.894121
0
LINE
8
Calque_1
10
81.750100
20
-87.894200
11
84.765410
21
-88.055437
0
LINE
8
Calque_1
10
84.765400
20
-88.055400
11
89.030260
21
-88.198037
0
LINE
8
Calque_1
10
89.030300
20
-88.198100
11
95.984380
21
-88.610479
0
LINE
8
Calque_1
10
95.984400
20
-88.610500
11
103.004640
21
-88.555705
0
LINE
8
Calque_1
10
103.005000
20
-88.555700
11
108.614980
21
-88.733976
0
LINE
8
Calque_1
10
108.615000
20
-88.733900
11
112.329500
21
-89.087356
0
LINE
8
Calque_1
10
112.329000
20
-89.087400
11
113.624010
21
-89.174210
0
LINE
8
Calque_1
10
113.624000
20
-89.174200
11
113.318081
21
-90.631470
0
LINE
8
Calque_1
10
113.318000
20
-90.631500
11
113.231855
21
-92.785548
0
LINE
8
Calque_1
10
113.231855
20
-92.785548
11
113.399701
21
-94.576460
0
LINE
8
Calque_1
10
113.400000
20
-94.576400
11
113.796869
21
-98.430950
0
LINE
8
Calque_1
10
113.797000
20
-98.431000
11
113.620790
21
-98.467698
0
LINE
8
Calque_1
10
113.621000
20
-98.467700
11
112.813647
21
-98.800718
0
LINE
8
Calque_1
10
112.813647
20
-98.800718
11
112.204670
21
-99.192239
0
LINE
8
Calque_1
10
112.204670
20
-99.192239
11
111.501230
21
-99.820510
0
LINE
8
Calque_1
10
111.501000
20
-99.820500
11
111.468401
21
-99.863521
0
LINE
8
Calque_1
10
111.468000
20
-99.863500
11
107.416570
21
-99.706496
0
LINE
8
Calque_1
10
107.417000
20
-99.706500
11
99.814890
21
-99.481684
0
LINE
8
Calque_1
10
99.814600
20
-99.481700
11
94.627850
21
-99.551709
0
LINE
8
Calque_1
10
94.627900
20
-99.551700
11
91.982535
21
-99.758773
0
LINE
8
Calque_1
10
91.982535
20
-99.758773
11
89.579120
21
-99.838508
0
LINE
8
Calque_1
10
89.579100
20
-99.838500
11
86.831544
21
-99.623831
0
LINE
8
Calque_1
10
86.831544
20
-99.623831
11
83.932420
21
-99.268985
0
LINE
8
Calque_1
10
83.932400
20
-99.269000
11
82.393326
21
-99.162307
0
LINE
8
Calque_1
10
82.393326
20
-99.162307
11
80.857140
21
-99.219999
0
LINE
8
Calque_1
10
80.857200
20
-99.220000
11
79.680530
21
-99.411717
0
LINE
8
Calque_1
10
79.680500
20
-99.411700
11
78.361710
21
-99.507691
0
LINE
8
Calque_1
10
78.361700
20
-99.507700
11
78.166880
21
-99.525692
0
LINE
8
Calque_1
10
73.039600
20
-100.208000
11
72.992599
21
-100.269992
0
LINE
8
Calque_1
10
78.166900
20
-99.525700
11
73.039580
21
-100.207821
0
LINE
8
Calque_1
10
71.131700
20
-88.347100
11
74.799690
21
-88.459733
0
LINE
8
Calque_1
10
74.799700
20
-88.459700
11
76.705010
21
-88.247319
0
LINE
8
Calque_1
10
76.705000
20
-88.247300
11
77.926120
21
-88.070056
0
LINE
8
Calque_1
10
77.926100
20
-88.070100
11
80.037080
21
-87.903704
0
LINE
8
Calque_1
10
80.037100
20
-87.903700
11
80.504250
21
-87.875787
0
LINE
8
Calque_1
10
72.992600
20
-100.270000
11
71.131730
21
-88.347300
0
LINE
8
Calque_1
10
81.237500
20
-113.139000
11
81.574428
21
-113.139000
0
LINE
8
Calque_1
10
81.574400
20
-113.139000
11
84.091560
21
-113.249014
0
LINE
8
Calque_1
10
84.091600
20
-113.249000
11
92.332950
21
-113.265933
0
LINE
8
Calque_1
10
92.332900
20
-113.266000
11
95.908329
21
-113.164619
0
LINE
8
Calque_1
10
95.908329
20
-113.164619
11
99.227040
21
-113.234012
0
LINE
8
Calque_1
10
99.227100
20
-113.234000
11
99.651877
21
-113.271994
0
LINE
8
Calque_1
10
99.651900
20
-113.272000
11
99.782641
21
-113.333013
0
LINE
8
Calque_1
10
99.782600
20
-113.333000
11
100.520030
21
-113.503100
0
LINE
8
Calque_1
10
100.520000
20
-113.503000
11
101.987096
21
-113.623680
0
LINE
8
Calque_1
10
101.987096
20
-113.623680
11
102.696610
21
-113.613490
0
LINE
8
Calque_1
10
102.697000
20
-113.614000
11
103.632341
21
-113.761293
0
LINE
8
Calque_1
10
80.504200
20
-87.875800
11
80.504171
21
-87.875615
0
LINE
8
Calque_1
10
103.635000
20
-113.761000
11
104.108871
21
-113.802010
0
LINE
8
Calque_1
10
104.109000
20
-113.802000
11
104.181898
21
-113.812054
0
LINE
8
Calque_1
10
104.182000
20
-113.812000
11
104.168612
21
-118.708400
0
LINE
8
Calque_1
10
104.168000
20
-118.708000
11
104.382979
21
-120.016390
0
LINE
8
Calque_1
10
104.383000
20
-120.017000
11
104.607790
21
-121.814290
0
LINE
8
Calque_1
10
104.608000
20
-121.814000
11
101.943050
21
-121.891999
0
LINE
8
Calque_1
10
101.943000
20
-121.892000
11
100.255240
21
-121.860012
0
LINE
8
Calque_1
10
100.256000
20
-121.860000
11
100.144902
21
-121.839892
0
LINE
8
Calque_1
10
100.144000
20
-121.840000
11
99.845310
21
-121.769991
0
LINE
8
Calque_1
10
99.845700
20
-121.770000
11
99.579572
21
-121.735022
0
LINE
8
Calque_1
10
99.579600
20
-121.735000
11
95.917290
21
-121.595485
0
LINE
8
Calque_1
10
95.917300
20
-121.596000
11
93.575330
21
-121.650001
0
LINE
8
Calque_1
10
93.575300
20
-121.650000
11
89.828770
21
-121.897994
0
LINE
8
Calque_1
10
89.828800
20
-121.898000
11
86.850170
21
-122.354803
0
LINE
8
Calque_1
10
86.850100
20
-122.354000
11
86.473381
21
-122.382019
0
LINE
8
Calque_1
10
86.473400
20
-122.382000
11
85.144800
21
-122.393906
0
LINE
8
Calque_1
10
85.144800
20
-122.394000
11
83.930920
21
-122.565106
0
LINE
8
Calque_1
10
83.930900
20
-122.566000
11
83.660113
21
-122.598994
0
LINE
8
Calque_1
10
83.660200
20
-122.599000
11
79.904880
21
-122.989101
0
LINE
8
Calque_1
10
79.904800
20
-122.989000
11
77.759190
21
-123.171509
0
LINE
8
Calque_1
10
77.759200
20
-123.171000
11
76.967394
21
-123.169859
0
LINE
8
Calque_1
10
76.967394
20
-123.169859
11
76.815451
21
-123.171406
0
LINE
8
Calque_1
10
76.815451
20
-123.171406
11
76.974751
21
-123.212989
0
LINE
8
Calque_1
10
76.974800
20
-123.213000
11
76.250300
21
-123.692504
0
LINE
8
Calque_1
10
103.632000
20
-113.761000
11
103.632000
21
-113.761000
0
LINE
8
Calque_1
10
103.632000
20
-113.761000
11
103.633000
21
-113.761000
0
LINE
8
Calque_1
10
103.633000
20
-113.761000
11
103.634000
21
-113.761000
0
LINE
8
Calque_1
10
103.634000
20
-113.761000
11
103.634000
21
-113.761000
0
LINE
8
Calque_1
10
103.634000
20
-113.761000
11
103.635000
21
-113.761000
0
LINE
8
Calque_1
10
103.635000
20
-113.761000
11
103.635000
21
-113.761000
0
LINE
8
Calque_1
10
74.941300
20
-113.822000
11
78.253524
21
-113.403975
0
LINE
8
Calque_1
10
78.253524
20
-113.403975
11
81.237540
21
-113.139402
0
LINE
8
Calque_1
10
76.250300
20
-123.693000
11
74.941340
21
-113.822810
0
LINE
8
Calque_1
10
183.831000
20
-171.761000
11
183.916000
21
-171.045303
0
LINE
8
Calque_1
10
183.916000
20
-171.046000
11
184.943400
21
-167.859100
0
LINE
8
Calque_1
10
184.943000
20
-167.859000
11
185.305562
21
-167.151284
0
LINE
8
Calque_1
10
185.305562
20
-167.151284
11
185.868998
21
-166.603290
0
LINE
8
Calque_1
10
185.869000
20
-166.603000
11
187.356975
21
-165.477627
0
LINE
8
Calque_1
10
187.356975
20
-165.477627
11
189.332900
21
-164.232020
0
LINE
8
Calque_1
10
189.333000
20
-164.232000
11
190.155062
21
-163.988265
0
LINE
8
Calque_1
10
190.155062
20
-163.988265
11
190.897700
21
-164.016143
0
LINE
8
Calque_1
10
190.897700
20
-164.016143
11
191.874400
21
-164.374187
0
LINE
8
Calque_1
10
191.874000
20
-164.374000
11
192.176737
21
-164.551426
0
LINE
8
Calque_1
10
192.176737
20
-164.551426
11
191.972999
21
-164.461021
0
LINE
8
Calque_1
10
191.973000
20
-164.461000
11
193.178300
21
-165.105164
0
LINE
8
Calque_1
10
193.178300
20
-165.105164
11
194.417800
21
-166.068080
0
LINE
8
Calque_1
10
194.418000
20
-166.068000
11
195.014516
21
-166.723524
0
LINE
8
Calque_1
10
195.014516
20
-166.723524
11
195.544912
21
-167.524860
0
LINE
8
Calque_1
10
195.544912
20
-167.524860
11
195.945651
21
-168.465916
0
LINE
8
Calque_1
10
195.945651
20
-168.465916
11
196.153200
21
-169.540600
0
LINE
8
Calque_1
10
196.153000
20
-169.541000
11
196.105411
21
-170.854021
0
LINE
8
Calque_1
10
196.105411
20
-170.854021
11
195.790299
21
-172.028790
0
LINE
8
Calque_1
10
195.791000
20
-172.029000
11
195.062902
21
-173.361200
0
LINE
8
Calque_1
10
195.063000
20
-173.361000
11
195.063000
21
-173.371054
0
LINE
8
Calque_1
10
195.063000
20
-173.371000
11
194.532299
21
-174.302200
0
LINE
8
Calque_1
10
194.532000
20
-174.302000
11
194.105701
21
-174.745309
0
LINE
8
Calque_1
10
194.106000
20
-174.745000
11
193.495700
21
-175.245803
0
LINE
8
Calque_1
10
193.495000
20
-175.246000
11
193.254200
21
-175.526088
0
LINE
8
Calque_1
10
193.254000
20
-175.526000
11
192.763801
21
-176.008457
0
LINE
8
Calque_1
10
192.763801
20
-176.008457
11
192.052500
21
-176.509905
0
LINE
8
Calque_1
10
192.053000
20
-176.510000
11
191.311501
21
-176.825502
0
LINE
8
Calque_1
10
191.311501
20
-176.825502
11
190.871200
21
-176.886687
0
LINE
8
Calque_1
10
190.871000
20
-176.887000
11
189.993500
21
-176.987303
0
LINE
8
Calque_1
10
189.994000
20
-176.987000
11
189.232264
21
-177.048095
0
LINE
8
Calque_1
10
189.232264
20
-177.048095
11
188.267500
21
-176.966098
0
LINE
8
Calque_1
10
188.267000
20
-176.966000
11
187.522495
21
-176.738268
0
LINE
8
Calque_1
10
187.522495
20
-176.738268
11
186.830613
21
-176.363458
0
LINE
8
Calque_1
10
186.830613
20
-176.363458
11
185.832000
21
-175.460600
0
LINE
8
Calque_1
10
185.832000
20
-175.461000
11
185.410800
21
-174.799622
0
LINE
8
Calque_1
10
185.411000
20
-174.799000
11
184.893701
21
-174.258880
0
LINE
8
Calque_1
10
184.894000
20
-174.259000
11
184.141600
21
-172.909310
0
LINE
8
Calque_1
10
184.141000
20
-172.910000
11
183.954402
21
-172.532321
0
LINE
8
Calque_1
10
183.954402
20
-172.532321
11
183.833502
21
-171.765310
0
LINE
8
Calque_1
10
81.237600
20
-113.140000
11
81.237500
21
-113.140000
0
LINE
8
Calque_1
10
159.650000
20
-100.182000
11
160.377090
21
-96.437070
0
LINE
8
Calque_1
10
160.377000
20
-96.437300
11
160.411100
21
-96.208356
0
LINE
8
Calque_1
10
160.411000
20
-96.208300
11
160.907101
21
-91.225670
0
LINE
8
Calque_1
10
160.908000
20
-91.225700
11
161.292468
21
-90.281059
0
LINE
8
Calque_1
10
161.292000
20
-90.281100
11
162.063008
21
-88.291040
0
LINE
8
Calque_1
10
162.063000
20
-88.291000
11
163.102587
21
-85.593861
0
LINE
8
Calque_1
10
163.102587
20
-85.593861
11
164.231340
21
-83.079430
0
LINE
8
Calque_1
10
164.231000
20
-83.079400
11
165.431960
21
-80.814440
0
LINE
8
Calque_1
10
165.432000
20
-80.814500
11
166.640197
21
-78.385870
0
LINE
8
Calque_1
10
166.640197
20
-78.385870
11
167.810670
21
-76.386360
0
LINE
8
Calque_1
10
167.811000
20
-76.386300
11
169.397470
21
-74.463420
0
LINE
8
Calque_1
10
169.397000
20
-74.463400
11
170.866680
21
-73.384380
0
LINE
8
Calque_1
10
170.867000
20
-73.384400
11
171.760478
21
-72.461984
0
LINE
8
Calque_1
10
171.761000
20
-72.462000
11
173.405340
21
-71.268280
0
LINE
8
Calque_1
10
173.405000
20
-71.268300
11
173.971898
21
-70.807873
0
LINE
8
Calque_1
10
173.972000
20
-70.807900
11
174.766781
21
-70.419280
0
LINE
8
Calque_1
10
174.767000
20
-70.419200
11
177.798340
21
-68.585220
0
LINE
8
Calque_1
10
177.798000
20
-68.585300
11
178.748329
21
-67.944004
0
LINE
8
Calque_1
10
178.748000
20
-67.944000
11
178.724690
21
-68.586328
0
LINE
8
Calque_1
10
183.834000
20
-171.765000
11
183.830904
21
-171.761296
0
LINE
8
Calque_1
10
178.725000
20
-68.588300
11
178.771044
21
-69.789376
0
LINE
8
Calque_1
10
178.771044
20
-69.789376
11
179.027310
21
-71.276520
0
LINE
8
Calque_1
10
179.027000
20
-71.276500
11
179.865191
21
-73.403480
0
LINE
8
Calque_1
10
179.865000
20
-73.403500
11
180.765375
21
-74.818344
0
LINE
8
Calque_1
10
180.765375
20
-74.818344
11
182.011120
21
-76.103090
0
LINE
8
Calque_1
10
182.012000
20
-76.103100
11
182.680178
21
-76.600225
0
LINE
8
Calque_1
10
182.680000
20
-76.600200
11
182.711055
21
-76.643396
0
LINE
8
Calque_1
10
182.711055
20
-76.643396
11
183.063439
21
-76.937120
0
LINE
8
Calque_1
10
183.063000
20
-76.937100
11
184.972960
21
-78.177330
0
LINE
8
Calque_1
10
184.973000
20
-78.177300
11
185.666499
21
-78.736443
0
LINE
8
Calque_1
10
185.667000
20
-78.736500
11
185.522821
21
-80.584450
0
LINE
8
Calque_1
10
185.522000
20
-80.584400
11
185.322531
21
-82.051490
0
LINE
8
Calque_1
10
185.323000
20
-82.051500
11
184.847213
21
-83.807308
0
LINE
8
Calque_1
10
184.847213
20
-83.807308
11
184.182500
21
-85.574290
0
LINE
8
Calque_1
10
184.183000
20
-85.574300
11
182.959820
21
-88.136920
0
LINE
8
Calque_1
10
182.959000
20
-88.136900
11
182.125463
21
-89.938340
0
LINE
8
Calque_1
10
182.126000
20
-89.938400
11
181.660387
21
-91.669840
0
LINE
8
Calque_1
10
181.660387
20
-91.669840
11
181.435600
21
-93.177480
0
LINE
8
Calque_1
10
181.435000
20
-93.177500
11
181.316319
21
-94.641590
0
LINE
8
Calque_1
10
181.316319
20
-94.641590
11
181.347376
21
-96.064451
0
LINE
8
Calque_1
10
181.347376
20
-96.064451
11
181.814309
21
-98.847460
0
LINE
8
Calque_1
10
181.815000
20
-98.847400
11
182.474100
21
-100.884187
0
LINE
8
Calque_1
10
182.474100
20
-100.884187
11
183.405600
21
-102.843500
0
LINE
8
Calque_1
10
183.405000
20
-102.844000
11
185.700980
21
-106.468070
0
LINE
8
Calque_1
10
185.701000
20
-106.468000
11
185.753953
21
-106.625670
0
LINE
8
Calque_1
10
185.753953
20
-106.625670
11
186.038772
21
-107.294405
0
LINE
8
Calque_1
10
186.038772
20
-107.294405
11
186.504568
21
-108.365010
0
LINE
8
Calque_1
10
186.505000
20
-108.365000
11
186.824703
21
-109.342081
0
LINE
8
Calque_1
10
186.824703
20
-109.342081
11
186.912730
21
-110.128210
0
LINE
8
Calque_1
10
186.913000
20
-110.128000
11
186.796270
21
-110.609796
0
LINE
8
Calque_1
10
186.796270
20
-110.609796
11
186.596741
21
-111.526900
0
LINE
8
Calque_1
10
186.596000
20
-111.527000
11
185.965961
21
-113.102516
0
LINE
8
Calque_1
10
185.965961
20
-113.102516
11
184.976980
21
-114.672490
0
LINE
8
Calque_1
10
184.977000
20
-114.672000
11
183.922474
21
-115.893894
0
LINE
8
Calque_1
10
183.922474
20
-115.893894
11
182.542000
21
-117.665680
0
LINE
8
Calque_1
10
182.542000
20
-117.666000
11
181.858038
21
-118.846808
0
LINE
8
Calque_1
10
181.858038
20
-118.846808
11
181.299700
21
-120.109210
0
LINE
8
Calque_1
10
181.300000
20
-120.109000
11
180.959823
21
-121.267409
0
LINE
8
Calque_1
10
180.959823
20
-121.267409
11
180.793570
21
-122.105780
0
LINE
8
Calque_1
10
180.794000
20
-122.106000
11
180.543892
21
-123.171610
0
LINE
8
Calque_1
10
180.543000
20
-123.171000
11
180.263428
21
-124.519690
0
LINE
8
Calque_1
10
180.264000
20
-124.520000
11
180.170124
21
-125.930178
0
LINE
8
Calque_1
10
180.170124
20
-125.930178
11
180.309000
21
-127.383400
0
LINE
8
Calque_1
10
180.309000
20
-127.384000
11
180.229400
21
-127.346006
0
LINE
8
Calque_1
10
180.229000
20
-127.346000
11
177.069000
21
-125.932700
0
LINE
8
Calque_1
10
177.069000
20
-125.932000
11
175.195210
21
-124.879300
0
LINE
8
Calque_1
10
175.196000
20
-124.880000
11
174.388300
21
-124.544615
0
LINE
8
Calque_1
10
174.388000
20
-124.544000
11
173.994232
21
-124.214277
0
LINE
8
Calque_1
10
173.994000
20
-124.214000
11
173.079839
21
-123.500420
0
LINE
8
Calque_1
10
173.080000
20
-123.501000
11
172.786990
21
-123.328889
0
LINE
8
Calque_1
10
172.787000
20
-123.329000
11
172.415451
21
-123.017401
0
LINE
8
Calque_1
10
172.415000
20
-123.017000
11
171.917362
21
-122.591207
0
LINE
8
Calque_1
10
171.918000
20
-122.591000
11
171.504589
21
-122.066491
0
LINE
8
Calque_1
10
171.504000
20
-122.067000
11
170.858042
21
-121.403399
0
LINE
8
Calque_1
10
170.858000
20
-121.403000
11
170.213123
21
-120.839471
0
LINE
8
Calque_1
10
170.213123
20
-120.839471
11
170.109527
21
-120.787954
0
LINE
8
Calque_1
10
170.109527
20
-120.787954
11
170.169671
21
-120.868198
0
LINE
8
Calque_1
10
170.170000
20
-120.868000
11
169.668221
21
-120.328515
0
LINE
8
Calque_1
10
169.668000
20
-120.329000
11
169.926897
21
-119.137290
0
LINE
8
Calque_1
10
169.927000
20
-119.137000
11
169.937001
21
-119.264714
0
LINE
8
Calque_1
10
169.937000
20
-119.265000
11
170.065669
21
-119.038094
0
LINE
8
Calque_1
10
170.066000
20
-119.038000
11
171.531030
21
-117.821000
0
LINE
8
Calque_1
10
171.531000
20
-117.821000
11
172.978027
21
-116.101289
0
LINE
8
Calque_1
10
172.978027
20
-116.101289
11
173.550569
21
-115.100937
0
LINE
8
Calque_1
10
173.550569
20
-115.100937
11
173.999580
21
-114.001110
0
LINE
8
Calque_1
10
173.999000
20
-114.001000
11
174.290019
21
-112.834139
0
LINE
8
Calque_1
10
174.290019
20
-112.834139
11
174.406893
21
-111.613729
0
LINE
8
Calque_1
10
174.406893
20
-111.613729
11
174.341020
21
-110.364554
0
LINE
8
Calque_1
10
174.341020
20
-110.364554
11
174.083799
21
-109.111400
0
LINE
8
Calque_1
10
174.084000
20
-109.112000
11
173.301112
21
-107.026790
0
LINE
8
Calque_1
10
173.301000
20
-107.026000
11
173.093771
21
-106.386820
0
LINE
8
Calque_1
10
173.094000
20
-106.387000
11
172.669220
21
-105.227890
0
LINE
8
Calque_1
10
172.669000
20
-105.228000
11
171.876801
21
-103.418810
0
LINE
8
Calque_1
10
171.877000
20
-103.419000
11
171.596717
21
-102.150345
0
LINE
8
Calque_1
10
171.596717
20
-102.150345
11
171.572110
21
-101.245500
0
LINE
8
Calque_1
10
171.572000
20
-101.245000
11
171.975300
21
-100.117900
0
LINE
8
Calque_1
10
171.975300
20
-100.117900
11
172.721800
21
-98.970700
0
LINE
8
Calque_1
10
172.722000
20
-98.971100
11
173.786911
21
-97.710217
0
LINE
8
Calque_1
10
173.786911
20
-97.710217
11
175.012215
21
-96.082009
0
LINE
8
Calque_1
10
175.012215
20
-96.082009
11
175.557431
21
-95.109679
0
LINE
8
Calque_1
10
175.557431
20
-95.109679
11
175.989644
21
-94.020944
0
LINE
8
Calque_1
10
175.989644
20
-94.020944
11
176.257822
21
-92.807611
0
LINE
8
Calque_1
10
176.257822
20
-92.807611
11
176.310930
21
-91.461490
0
LINE
8
Calque_1
10
176.311000
20
-91.461500
11
176.171499
21
-90.319619
0
LINE
8
Calque_1
10
176.171499
20
-90.319619
11
175.859057
21
-89.168639
0
LINE
8
Calque_1
10
175.859057
20
-89.168639
11
175.361758
21
-88.037165
0
LINE
8
Calque_1
10
175.361758
20
-88.037165
11
174.667690
21
-86.953800
0
LINE
8
Calque_1
10
174.668000
20
-86.953800
11
173.355940
21
-85.490310
0
LINE
8
Calque_1
10
173.356000
20
-85.490300
11
172.593291
21
-84.928328
0
LINE
8
Calque_1
10
172.593291
20
-84.928328
11
171.712832
21
-84.720881
0
LINE
8
Calque_1
10
171.712832
20
-84.720881
11
170.821708
21
-84.871401
0
LINE
8
Calque_1
10
170.821708
20
-84.871401
11
170.027000
21
-85.383329
0
LINE
8
Calque_1
10
170.027000
20
-85.383300
11
169.485741
21
-86.175120
0
LINE
8
Calque_1
10
169.485741
20
-86.175120
11
169.285782
21
-87.089276
0
LINE
8
Calque_1
10
169.285782
20
-87.089276
11
169.430465
21
-88.014604
0
LINE
8
Calque_1
10
169.430465
20
-88.014604
11
169.923130
21
-88.839940
0
LINE
8
Calque_1
10
169.923000
20
-88.840000
11
170.967900
21
-89.980990
0
LINE
8
Calque_1
10
170.968000
20
-89.981000
11
171.435436
21
-90.854342
0
LINE
8
Calque_1
10
171.435436
20
-90.854342
11
171.607748
21
-91.717330
0
LINE
8
Calque_1
10
171.607000
20
-91.717300
11
171.440304
21
-92.519824
0
LINE
8
Calque_1
10
171.440304
20
-92.519824
11
170.911638
21
-93.456599
0
LINE
8
Calque_1
10
170.911638
20
-93.456599
11
169.046950
21
-95.911360
0
LINE
8
Calque_1
10
169.047000
20
-95.911400
11
167.806378
21
-97.852683
0
LINE
8
Calque_1
10
167.806378
20
-97.852683
11
167.322640
21
-98.968306
0
LINE
8
Calque_1
10
167.322640
20
-98.968306
11
166.973230
21
-100.187640
0
LINE
8
Calque_1
10
166.974000
20
-100.188000
11
166.812229
21
-101.520649
0
LINE
8
Calque_1
10
166.812229
20
-101.520649
11
166.874727
21
-102.793256
0
LINE
8
Calque_1
10
166.874727
20
-102.793256
11
167.111789
21
-104.004508
0
LINE
8
Calque_1
10
167.111789
20
-104.004508
11
167.473710
21
-105.153090
0
LINE
8
Calque_1
10
167.473000
20
-105.153000
11
168.355109
21
-107.192110
0
LINE
8
Calque_1
10
168.355000
20
-107.192000
11
168.560158
21
-107.714499
0
LINE
8
Calque_1
10
168.561000
20
-107.714000
11
168.900000
21
-108.766590
0
LINE
8
Calque_1
10
168.900000
20
-108.767000
11
169.568691
21
-110.500200
0
LINE
8
Calque_1
10
169.568000
20
-110.500000
11
169.708883
21
-111.503847
0
LINE
8
Calque_1
10
169.708883
20
-111.503847
11
169.545299
21
-112.408990
0
LINE
8
Calque_1
10
169.545000
20
-112.409000
11
169.060561
21
-113.309353
0
LINE
8
Calque_1
10
169.060561
20
-113.309353
11
168.341970
21
-114.220200
0
LINE
8
Calque_1
10
168.342000
20
-114.220000
11
167.624676
21
-114.737462
0
LINE
8
Calque_1
10
167.624676
20
-114.737462
11
166.388120
21
-115.989400
0
LINE
8
Calque_1
10
166.389000
20
-115.990000
11
166.184882
21
-115.677898
0
LINE
8
Calque_1
10
166.184000
20
-115.678000
11
166.000549
21
-115.099701
0
LINE
8
Calque_1
10
166.001000
20
-115.099000
11
165.925001
21
-114.945595
0
LINE
8
Calque_1
10
165.925000
20
-114.946000
11
165.243389
21
-113.790010
0
LINE
8
Calque_1
10
165.243000
20
-113.790000
11
164.763441
21
-113.090284
0
LINE
8
Calque_1
10
164.764000
20
-113.090000
11
164.520610
21
-112.718420
0
LINE
8
Calque_1
10
164.520000
20
-112.719000
11
164.051812
21
-111.659580
0
LINE
8
Calque_1
10
164.052000
20
-111.659000
11
163.790507
21
-110.603069
0
LINE
8
Calque_1
10
163.790507
20
-110.603069
11
163.068590
21
-108.951710
0
LINE
8
Calque_1
10
163.069000
20
-108.952000
11
162.516582
21
-108.213496
0
LINE
8
Calque_1
10
162.516000
20
-108.213000
11
162.117229
21
-107.384172
0
LINE
8
Calque_1
10
162.117229
20
-107.384172
11
161.329510
21
-106.068500
0
LINE
8
Calque_1
10
161.330000
20
-106.069000
11
160.935202
21
-105.601826
0
LINE
8
Calque_1
10
160.935000
20
-105.602000
11
160.312809
21
-103.902400
0
LINE
8
Calque_1
10
160.313000
20
-103.902000
11
160.263843
21
-103.144428
0
LINE
8
Calque_1
10
160.263843
20
-103.144428
11
160.072711
21
-101.766680
0
LINE
8
Calque_1
10
160.073000
20
-101.767000
11
159.699369
21
-100.451810
0
LINE
8
Calque_1
10
159.699000
20
-100.452000
11
159.651002
21
-100.182813
0
LINE
8
Calque_1
10
178.725000
20
-68.586300
11
178.725000
21
-68.588900
0
LINE
8
Calque_1
10
159.651000
20
-100.182000
11
159.650206
21
-100.181788
0
LINE
8
Calque_1
10
169.933000
20
-119.274000
11
169.940000
21
-119.274000
0
LINE
8
Calque_1
10
169.940000
20
-119.274000
11
169.940000
21
-119.264000
0
LINE
8
Calque_1
10
169.940000
20
-119.264000
11
169.933000
21
-119.274000
0
LINE
8
Calque_1
10
183.434000
20
-68.498500
11
183.471198
21
-67.559548
0
LINE
8
Calque_1
10
183.471000
20
-67.559500
11
183.521602
21
-66.877352
0
LINE
8
Calque_1
10
183.522000
20
-66.877400
11
183.573199
21
-65.825290
0
LINE
8
Calque_1
10
183.573000
20
-65.825300
11
183.635000
21
-65.473907
0
LINE
8
Calque_1
10
183.635000
20
-65.473900
11
183.793649
21
-65.382989
0
LINE
8
Calque_1
10
183.794000
20
-65.383000
11
186.929979
21
-64.234353
0
LINE
8
Calque_1
10
186.929979
20
-64.234353
11
190.005500
21
-63.546950
0
LINE
8
Calque_1
10
190.005000
20
-63.546900
11
190.734667
21
-63.456492
0
LINE
8
Calque_1
10
190.735000
20
-63.456500
11
191.335990
21
-63.500897
0
LINE
8
Calque_1
10
191.336000
20
-63.500900
11
192.142669
21
-63.477088
0
LINE
8
Calque_1
10
192.143000
20
-63.477100
11
193.262310
21
-63.324647
0
LINE
8
Calque_1
10
193.262000
20
-63.324700
11
193.582907
21
-63.395000
0
LINE
8
Calque_1
10
193.583000
20
-63.395000
11
194.716856
21
-63.832402
0
LINE
8
Calque_1
10
194.716856
20
-63.832402
11
196.448460
21
-64.589250
0
LINE
8
Calque_1
10
196.448000
20
-64.589200
11
197.764200
21
-65.033091
0
LINE
8
Calque_1
10
197.765000
20
-65.033100
11
198.113821
21
-65.150416
0
LINE
8
Calque_1
10
198.113000
20
-65.150400
11
197.315675
21
-66.041696
0
LINE
8
Calque_1
10
197.315675
20
-66.041696
11
196.169450
21
-67.626210
0
LINE
8
Calque_1
10
196.170000
20
-67.626300
11
195.667189
21
-68.699610
0
LINE
8
Calque_1
10
195.667000
20
-68.699600
11
195.259074
21
-69.799871
0
LINE
8
Calque_1
10
195.259074
20
-69.799871
11
194.918722
21
-71.139240
0
LINE
8
Calque_1
10
194.919000
20
-71.139200
11
194.775623
21
-72.557686
0
LINE
8
Calque_1
10
194.775623
20
-72.557686
11
194.770169
21
-73.745240
0
LINE
8
Calque_1
10
194.770000
20
-73.745200
11
194.750332
21
-75.205124
0
LINE
8
Calque_1
10
194.750332
20
-75.205124
11
194.882659
21
-77.011160
0
LINE
8
Calque_1
10
194.883000
20
-77.011200
11
195.168089
21
-78.252436
0
LINE
8
Calque_1
10
195.168089
20
-78.252436
11
195.526763
21
-79.220409
0
LINE
8
Calque_1
10
195.526763
20
-79.220409
11
196.063800
21
-80.436310
0
LINE
8
Calque_1
10
196.063000
20
-80.436300
11
196.300199
21
-82.551930
0
LINE
8
Calque_1
10
196.301000
20
-82.551900
11
196.395001
21
-84.232930
0
LINE
8
Calque_1
10
196.395000
20
-84.233000
11
196.118810
21
-85.560605
0
LINE
8
Calque_1
10
196.118810
20
-85.560605
11
195.548020
21
-87.109310
0
LINE
8
Calque_1
10
195.548000
20
-87.109300
11
194.944588
21
-88.506564
0
LINE
8
Calque_1
10
194.944588
20
-88.506564
11
194.657788
21
-89.464192
0
LINE
8
Calque_1
10
194.657788
20
-89.464192
11
194.498450
21
-90.616060
0
LINE
8
Calque_1
10
194.498000
20
-90.616000
11
194.487999
21
-91.212873
0
LINE
8
Calque_1
10
194.488000
20
-91.212900
11
194.753020
21
-93.164525
0
LINE
8
Calque_1
10
194.753020
20
-93.164525
11
195.328768
21
-94.886560
0
LINE
8
Calque_1
10
195.329000
20
-94.886600
11
195.999239
21
-96.321670
0
LINE
8
Calque_1
10
195.999000
20
-96.321600
11
196.174191
21
-96.865741
0
LINE
8
Calque_1
10
196.174000
20
-96.865800
11
196.415329
21
-97.562394
0
LINE
8
Calque_1
10
196.416000
20
-97.562400
11
196.750340
21
-98.730240
0
LINE
8
Calque_1
10
196.750000
20
-98.730200
11
197.273582
21
-99.534834
0
LINE
8
Calque_1
10
197.273582
20
-99.534834
11
198.027472
21
-100.050639
0
LINE
8
Calque_1
10
198.027472
20
-100.050639
11
198.912606
21
-100.235271
0
LINE
8
Calque_1
10
198.912606
20
-100.235271
11
199.829920
21
-100.046390
0
LINE
8
Calque_1
10
199.830000
20
-100.046000
11
200.604871
21
-99.502336
0
LINE
8
Calque_1
10
200.604871
20
-99.502336
11
201.101614
21
-98.719503
0
LINE
8
Calque_1
10
201.101614
20
-98.719503
11
201.279454
21
-97.800368
0
LINE
8
Calque_1
10
201.279454
20
-97.800368
11
201.097620
21
-96.847800
0
LINE
8
Calque_1
10
201.097000
20
-96.848200
11
200.916652
21
-96.123692
0
LINE
8
Calque_1
10
200.917000
20
-96.123700
11
200.644670
21
-95.325824
0
LINE
8
Calque_1
10
200.645000
20
-95.325800
11
200.343209
21
-94.431801
0
LINE
8
Calque_1
10
200.343000
20
-94.431800
11
199.654671
21
-92.952810
0
LINE
8
Calque_1
10
199.655000
20
-92.952800
11
199.298805
21
-91.826980
0
LINE
8
Calque_1
10
199.298805
20
-91.826980
11
199.200761
21
-90.883680
0
LINE
8
Calque_1
10
199.200000
20
-90.883700
11
199.875928
21
-89.034210
0
LINE
8
Calque_1
10
199.876000
20
-89.034200
11
200.617370
21
-87.026543
0
LINE
8
Calque_1
10
200.617370
20
-87.026543
11
201.085740
21
-84.662890
0
LINE
8
Calque_1
10
201.086000
20
-84.662900
11
201.090925
21
-83.231146
0
LINE
8
Calque_1
10
201.090925
20
-83.231146
11
200.996100
21
-82.180370
0
LINE
8
Calque_1
10
200.996000
20
-82.180400
11
200.899355
21
-80.802983
0
LINE
8
Calque_1
10
200.899355
20
-80.802983
11
200.590341
21
-79.092210
0
LINE
8
Calque_1
10
200.591000
20
-79.092200
11
199.915737
21
-77.191866
0
LINE
8
Calque_1
10
199.915737
20
-77.191866
11
199.532150
21
-76.233990
0
LINE
8
Calque_1
10
199.532000
20
-76.234000
11
199.479800
21
-73.765940
0
LINE
8
Calque_1
10
199.479000
20
-73.765900
11
199.549800
21
-72.020260
0
LINE
8
Calque_1
10
199.550000
20
-72.020300
11
200.013541
21
-70.580070
0
LINE
8
Calque_1
10
200.014000
20
-70.580100
11
200.208299
21
-70.140337
0
LINE
8
Calque_1
10
200.208000
20
-70.140300
11
200.850159
21
-69.378168
0
LINE
8
Calque_1
10
200.850159
20
-69.378168
11
201.971720
21
-67.966270
0
LINE
8
Calque_1
10
201.972000
20
-67.966300
11
202.014399
21
-67.851577
0
LINE
8
Calque_1
10
202.014000
20
-67.851500
11
204.245910
21
-69.396640
0
LINE
8
Calque_1
10
204.246000
20
-69.396700
11
206.761610
21
-71.202800
0
LINE
8
Calque_1
10
206.762000
20
-71.202800
11
211.072320
21
-75.040290
0
LINE
8
Calque_1
10
211.072000
20
-75.040300
11
210.277732
21
-75.945147
0
LINE
8
Calque_1
10
210.278000
20
-75.945100
11
207.983685
21
-78.383612
0
LINE
8
Calque_1
10
207.983685
20
-78.383612
11
206.850662
21
-79.908163
0
LINE
8
Calque_1
10
206.850662
20
-79.908163
11
205.909270
21
-81.740080
0
LINE
8
Calque_1
10
205.909000
20
-81.740100
11
205.614186
21
-82.716625
0
LINE
8
Calque_1
10
205.614186
20
-82.716625
11
205.488871
21
-83.433540
0
LINE
8
Calque_1
10
205.489000
20
-83.433500
11
205.377642
21
-84.142507
0
LINE
8
Calque_1
10
205.377642
20
-84.142507
11
205.350509
21
-85.189990
0
LINE
8
Calque_1
10
205.350000
20
-85.190000
11
205.559250
21
-86.545457
0
LINE
8
Calque_1
10
205.559250
20
-86.545457
11
205.947293
21
-87.725836
0
LINE
8
Calque_1
10
205.947293
20
-87.725836
11
206.965410
21
-89.686880
0
LINE
8
Calque_1
10
206.966000
20
-89.686900
11
208.052240
21
-91.645950
0
LINE
8
Calque_1
10
208.052000
20
-91.645900
11
208.680740
21
-93.203002
0
LINE
8
Calque_1
10
208.680740
20
-93.203002
11
209.212130
21
-94.929930
0
LINE
8
Calque_1
10
209.212000
20
-94.930000
11
209.584204
21
-96.598239
0
LINE
8
Calque_1
10
209.584204
20
-96.598239
11
209.680709
21
-98.112750
0
LINE
8
Calque_1
10
209.681000
20
-98.112700
11
209.625457
21
-98.387434
0
LINE
8
Calque_1
10
209.625457
20
-98.387434
11
209.491617
21
-99.353921
0
LINE
8
Calque_1
10
209.491617
20
-99.353921
11
209.366944
21
-100.330895
0
LINE
8
Calque_1
10
209.366944
20
-100.330895
11
209.338899
21
-100.637090
0
LINE
8
Calque_1
10
209.339000
20
-100.637000
11
208.786109
21
-102.252526
0
LINE
8
Calque_1
10
208.786109
20
-102.252526
11
207.780440
21
-103.584110
0
LINE
8
Calque_1
10
207.780000
20
-103.584000
11
207.244111
21
-104.062498
0
LINE
8
Calque_1
10
207.244000
20
-104.063000
11
206.807340
21
-104.312078
0
LINE
8
Calque_1
10
206.808000
20
-104.312000
11
205.922261
21
-105.069104
0
LINE
8
Calque_1
10
205.922000
20
-105.069000
11
204.990818
21
-106.011074
0
LINE
8
Calque_1
10
204.990818
20
-106.011074
11
204.117460
21
-107.169600
0
LINE
8
Calque_1
10
204.117000
20
-107.170000
11
203.631490
21
-108.078754
0
LINE
8
Calque_1
10
203.631490
20
-108.078754
11
203.299533
21
-109.000392
0
LINE
8
Calque_1
10
203.299533
20
-109.000392
11
203.015850
21
-110.836492
0
LINE
8
Calque_1
10
203.015850
20
-110.836492
11
203.105106
21
-112.586647
0
LINE
8
Calque_1
10
203.105106
20
-112.586647
11
203.406452
21
-114.159200
0
LINE
8
Calque_1
10
203.407000
20
-114.159000
11
203.960460
21
-116.206000
0
LINE
8
Calque_1
10
203.960000
20
-116.206000
11
203.845354
21
-117.141046
0
LINE
8
Calque_1
10
203.845354
20
-117.141046
11
203.584311
21
-117.748490
0
LINE
8
Calque_1
10
203.585000
20
-117.748000
11
203.115781
21
-118.096297
0
LINE
8
Calque_1
10
203.115000
20
-118.096000
11
202.403931
21
-118.647391
0
LINE
8
Calque_1
10
202.404000
20
-118.648000
11
201.012870
21
-119.769910
0
LINE
8
Calque_1
10
201.013000
20
-119.770000
11
200.078039
21
-120.559218
0
LINE
8
Calque_1
10
200.078039
20
-120.559218
11
199.094250
21
-121.798290
0
LINE
8
Calque_1
10
199.095000
20
-121.798000
11
198.708455
21
-122.621709
0
LINE
8
Calque_1
10
198.708455
20
-122.621709
11
198.510946
21
-123.353747
0
LINE
8
Calque_1
10
198.510946
20
-123.353747
11
198.397890
21
-124.329580
0
LINE
8
Calque_1
10
198.397000
20
-124.330000
11
198.297005
21
-124.593514
0
LINE
8
Calque_1
10
198.297005
20
-124.593514
11
198.197010
21
-125.448310
0
LINE
8
Calque_1
10
198.197000
20
-125.448000
11
198.278600
21
-126.330596
0
LINE
8
Calque_1
10
198.279000
20
-126.331000
11
198.389069
21
-126.755312
0
LINE
8
Calque_1
10
198.389000
20
-126.755000
11
198.412204
21
-126.820987
0
LINE
8
Calque_1
10
183.432000
20
-68.500500
11
183.434117
21
-68.497854
0
LINE
8
Calque_1
10
198.412000
20
-127.091000
11
198.473000
21
-127.866599
0
LINE
8
Calque_1
10
198.473000
20
-127.867000
11
198.707942
21
-128.641798
0
LINE
8
Calque_1
10
198.707942
20
-128.641798
11
198.975808
21
-128.999200
0
LINE
8
Calque_1
10
198.976000
20
-128.999000
11
199.042201
21
-129.145791
0
LINE
8
Calque_1
10
199.042000
20
-129.146000
11
199.246120
21
-129.341897
0
LINE
8
Calque_1
10
199.246000
20
-129.342000
11
198.982156
21
-129.090527
0
LINE
8
Calque_1
10
198.982156
20
-129.090527
11
199.161299
21
-129.266012
0
LINE
8
Calque_1
10
199.162000
20
-129.266000
11
199.400749
21
-129.508808
0
LINE
8
Calque_1
10
199.400000
20
-129.508000
11
198.434682
21
-129.721995
0
LINE
8
Calque_1
10
198.435000
20
-129.722000
11
197.525570
21
-129.975057
0
LINE
8
Calque_1
10
197.525570
20
-129.975057
11
197.289340
21
-130.058391
0
LINE
8
Calque_1
10
197.290000
20
-130.059000
11
197.213477
21
-130.063270
0
LINE
8
Calque_1
10
197.213477
20
-130.063270
11
196.359819
21
-130.186106
0
LINE
8
Calque_1
10
196.359000
20
-130.186000
11
194.333518
21
-130.291439
0
LINE
8
Calque_1
10
194.333518
20
-130.291439
11
192.034210
21
-130.251008
0
LINE
8
Calque_1
10
192.035000
20
-130.251000
11
189.838118
21
-130.252240
0
LINE
8
Calque_1
10
189.838118
20
-130.252240
11
188.108110
21
-130.125985
0
LINE
8
Calque_1
10
188.108000
20
-130.126000
11
186.144290
21
-129.463008
0
LINE
8
Calque_1
10
186.144000
20
-129.463000
11
186.044805
21
-128.766168
0
LINE
8
Calque_1
10
186.044805
20
-128.766168
11
185.758500
21
-128.127600
0
LINE
8
Calque_1
10
185.758000
20
-128.128000
11
185.244774
21
-127.211045
0
LINE
8
Calque_1
10
185.244774
20
-127.211045
11
185.051771
21
-126.852861
0
LINE
8
Calque_1
10
185.051771
20
-126.852861
11
185.005071
21
-126.819610
0
LINE
8
Calque_1
10
185.006000
20
-126.819000
11
184.814525
21
-126.041196
0
LINE
8
Calque_1
10
184.814525
20
-126.041196
11
184.920701
21
-125.251110
0
LINE
8
Calque_1
10
184.920000
20
-125.251000
11
185.121538
21
-124.318292
0
LINE
8
Calque_1
10
185.122000
20
-124.319000
11
185.382450
21
-123.205900
0
LINE
8
Calque_1
10
185.382000
20
-123.205000
11
185.683281
21
-121.897010
0
LINE
8
Calque_1
10
185.683000
20
-121.897000
11
186.442118
21
-120.406680
0
LINE
8
Calque_1
10
186.443000
20
-120.407000
11
187.408135
21
-119.246828
0
LINE
8
Calque_1
10
187.408135
20
-119.246828
11
188.763270
21
-117.581810
0
LINE
8
Calque_1
10
188.763000
20
-117.582000
11
190.107015
21
-115.418711
0
LINE
8
Calque_1
10
190.107015
20
-115.418711
11
191.109630
21
-112.922400
0
LINE
8
Calque_1
10
191.109000
20
-112.922000
11
191.412839
21
-111.866177
0
LINE
8
Calque_1
10
191.412839
20
-111.866177
11
191.620079
21
-110.225500
0
LINE
8
Calque_1
10
191.621000
20
-110.226000
11
191.405758
21
-108.227182
0
LINE
8
Calque_1
10
191.405758
20
-108.227182
11
190.871690
21
-106.535310
0
LINE
8
Calque_1
10
190.871000
20
-106.535000
11
189.839020
21
-104.134120
0
LINE
8
Calque_1
10
189.839000
20
-104.134000
11
188.552343
21
-102.030895
0
LINE
8
Calque_1
10
188.552343
20
-102.030895
11
187.471710
21
-100.378090
0
LINE
8
Calque_1
10
187.472000
20
-100.378000
11
186.828148
21
-99.029142
0
LINE
8
Calque_1
10
186.828148
20
-99.029142
11
186.363020
21
-97.582340
0
LINE
8
Calque_1
10
186.363000
20
-97.582700
11
186.026803
21
-95.704583
0
LINE
8
Calque_1
10
186.026803
20
-95.704583
11
186.100481
21
-93.844960
0
LINE
8
Calque_1
10
186.100000
20
-93.845000
11
186.528918
21
-91.670970
0
LINE
8
Calque_1
10
186.529000
20
-91.671000
11
187.128450
21
-90.411140
0
LINE
8
Calque_1
10
187.129000
20
-90.411100
11
188.494290
21
-87.540480
0
LINE
8
Calque_1
10
188.494000
20
-87.540500
11
189.305698
21
-85.383602
0
LINE
8
Calque_1
10
189.305698
20
-85.383602
11
189.923370
21
-83.095800
0
LINE
8
Calque_1
10
189.924000
20
-83.095800
11
190.202021
21
-81.136770
0
LINE
8
Calque_1
10
190.202000
20
-81.136800
11
190.415116
21
-79.612887
0
LINE
8
Calque_1
10
190.415116
20
-79.612887
11
190.427244
21
-78.548861
0
LINE
8
Calque_1
10
190.427244
20
-78.548861
11
190.229400
21
-77.310670
0
LINE
8
Calque_1
10
190.229000
20
-77.310600
11
189.662361
21
-75.957851
0
LINE
8
Calque_1
10
189.662361
20
-75.957851
11
188.895357
21
-75.028750
0
LINE
8
Calque_1
10
188.895357
20
-75.028750
11
188.090310
21
-74.411424
0
LINE
8
Calque_1
10
188.090310
20
-74.411424
11
187.409540
21
-73.994000
0
LINE
8
Calque_1
10
187.409000
20
-73.994000
11
185.886090
21
-73.025071
0
LINE
8
Calque_1
10
185.887000
20
-73.025100
11
185.871640
21
-72.995725
0
LINE
8
Calque_1
10
185.871640
20
-72.995725
11
185.536121
21
-72.713501
0
LINE
8
Calque_1
10
185.536000
20
-72.713500
11
184.918979
21
-72.257729
0
LINE
8
Calque_1
10
184.919000
20
-72.257700
11
184.000201
21
-71.064990
0
LINE
8
Calque_1
10
184.000000
20
-71.065000
11
183.552482
21
-69.928140
0
LINE
8
Calque_1
10
183.552000
20
-69.928100
11
183.432110
21
-68.502340
0
LINE
8
Calque_1
10
198.412000
20
-126.821000
11
198.412000
21
-127.091000
0
LINE
8
Calque_1
10
183.432000
20
-68.502400
11
183.432000
21
-68.499700
0
LINE
8
Calque_1
10
183.432000
20
-68.499700
11
183.431762
21
-68.499832
0
LINE
8
Calque_1
10
202.995000
20
-125.643000
11
203.069898
21
-124.957280
0
LINE
8
Calque_1
10
203.070000
20
-124.957000
11
203.151100
21
-124.312608
0
LINE
8
Calque_1
10
203.151000
20
-124.313000
11
203.850179
21
-123.675805
0
LINE
8
Calque_1
10
203.850000
20
-123.675000
11
205.268520
21
-122.530890
0
LINE
8
Calque_1
10
205.268000
20
-122.531000
11
205.933588
21
-122.015222
0
LINE
8
Calque_1
10
205.934000
20
-122.015000
11
206.768572
21
-121.353093
0
LINE
8
Calque_1
10
206.769000
20
-121.354000
11
207.809431
21
-120.043756
0
LINE
8
Calque_1
10
207.809431
20
-120.043756
11
208.413183
21
-118.619284
0
LINE
8
Calque_1
10
208.413183
20
-118.619284
11
208.665615
21
-117.164172
0
LINE
8
Calque_1
10
208.665615
20
-117.164172
11
208.652090
21
-115.762010
0
LINE
8
Calque_1
10
208.652000
20
-115.762000
11
208.314270
21
-114.031170
0
LINE
8
Calque_1
10
208.314270
20
-114.031170
11
207.975041
21
-112.959590
0
LINE
8
Calque_1
10
207.975000
20
-112.959000
11
207.624352
21
-111.140594
0
LINE
8
Calque_1
10
207.624352
20
-111.140594
11
207.719261
21
-110.519183
0
LINE
8
Calque_1
10
207.719261
20
-110.519183
11
208.054100
21
-109.856420
0
LINE
8
Calque_1
10
208.054000
20
-109.857000
11
209.039468
21
-108.736600
0
LINE
8
Calque_1
10
209.039000
20
-108.736000
11
209.515969
21
-108.318488
0
LINE
8
Calque_1
10
209.516000
20
-108.319000
11
210.034310
21
-108.006422
0
LINE
8
Calque_1
10
210.035000
20
-108.006000
11
210.926938
21
-107.225083
0
LINE
8
Calque_1
10
210.927000
20
-107.225000
11
212.049206
21
-105.976990
0
LINE
8
Calque_1
10
212.049206
20
-105.976990
11
212.921055
21
-104.593185
0
LINE
8
Calque_1
10
212.921055
20
-104.593185
11
213.553841
21
-103.118143
0
LINE
8
Calque_1
10
213.553841
20
-103.118143
11
213.958860
21
-101.596420
0
LINE
8
Calque_1
10
213.958000
20
-101.597000
11
214.216062
21
-100.109066
0
LINE
8
Calque_1
10
214.216062
20
-100.109066
11
214.386908
21
-98.335720
0
LINE
8
Calque_1
10
214.387000
20
-98.335300
11
214.241141
21
-95.833993
0
LINE
8
Calque_1
10
214.241141
20
-95.833993
11
213.735882
21
-93.560400
0
LINE
8
Calque_1
10
213.736000
20
-93.560400
11
213.116888
21
-91.549127
0
LINE
8
Calque_1
10
213.116888
20
-91.549127
11
212.270450
21
-89.467640
0
LINE
8
Calque_1
10
212.271000
20
-89.467700
11
210.988390
21
-87.139160
0
LINE
8
Calque_1
10
210.988000
20
-87.139100
11
210.270144
21
-85.889054
0
LINE
8
Calque_1
10
210.270144
20
-85.889054
11
210.051112
21
-84.857070
0
LINE
8
Calque_1
10
210.051000
20
-84.857100
11
210.133701
21
-84.254539
0
LINE
8
Calque_1
10
210.134000
20
-84.254600
11
210.264738
21
-83.607615
0
LINE
8
Calque_1
10
210.265000
20
-83.607600
11
210.789255
21
-82.645509
0
LINE
8
Calque_1
10
210.789255
20
-82.645509
11
211.571650
21
-81.628816
0
LINE
8
Calque_1
10
211.571650
20
-81.628816
11
213.663250
21
-79.348450
0
LINE
8
Calque_1
10
213.663000
20
-79.348400
11
214.632959
21
-78.298850
0
LINE
8
Calque_1
10
214.633000
20
-78.298900
11
216.274250
21
-80.278090
0
LINE
8
Calque_1
10
216.274000
20
-80.278100
11
216.956542
21
-81.589220
0
LINE
8
Calque_1
10
216.956542
20
-81.589220
11
217.595360
21
-83.237090
0
LINE
8
Calque_1
10
217.595000
20
-83.237000
11
218.552568
21
-85.592930
0
LINE
8
Calque_1
10
218.553000
20
-85.593000
11
219.533820
21
-89.783970
0
LINE
8
Calque_1
10
219.534000
20
-89.783900
11
220.013038
21
-91.489750
0
LINE
8
Calque_1
10
220.013000
20
-91.489800
11
220.212469
21
-92.646290
0
LINE
8
Calque_1
10
220.212000
20
-92.646300
11
220.347085
21
-95.448607
0
LINE
8
Calque_1
10
220.347085
20
-95.448607
11
220.342220
21
-98.536920
0
LINE
8
Calque_1
10
220.342000
20
-98.536900
11
220.270228
21
-101.502878
0
LINE
8
Calque_1
10
220.270228
20
-101.502878
11
220.032485
21
-104.277766
0
LINE
8
Calque_1
10
220.032485
20
-104.277766
11
219.595129
21
-107.011121
0
LINE
8
Calque_1
10
219.595129
20
-107.011121
11
218.924520
21
-109.852500
0
LINE
8
Calque_1
10
218.925000
20
-109.853000
11
217.898700
21
-112.497190
0
LINE
8
Calque_1
10
217.899000
20
-112.497000
11
217.546570
21
-113.558000
0
LINE
8
Calque_1
10
217.546000
20
-113.558000
11
216.595671
21
-115.204900
0
LINE
8
Calque_1
10
216.596000
20
-115.205000
11
215.339230
21
-117.866280
0
LINE
8
Calque_1
10
215.339000
20
-117.866000
11
214.415021
21
-118.974500
0
LINE
8
Calque_1
10
214.415000
20
-118.974000
11
213.938812
21
-119.834812
0
LINE
8
Calque_1
10
213.938812
20
-119.834812
11
213.913740
21
-120.002300
0
LINE
8
Calque_1
10
213.914000
20
-120.003000
11
212.402470
21
-122.456610
0
LINE
8
Calque_1
10
212.402000
20
-122.456000
11
211.904359
21
-122.990058
0
LINE
8
Calque_1
10
211.904359
20
-122.990058
11
211.137990
21
-123.643000
0
LINE
8
Calque_1
10
211.138000
20
-123.643000
11
209.646994
21
-124.931143
0
LINE
8
Calque_1
10
209.646994
20
-124.931143
11
208.211570
21
-126.007790
0
LINE
8
Calque_1
10
208.212000
20
-126.008000
11
208.148900
21
-126.039009
0
LINE
8
Calque_1
10
208.149000
20
-126.039000
11
207.691660
21
-126.261700
0
LINE
8
Calque_1
10
207.692000
20
-126.262000
11
206.885342
21
-126.654191
0
LINE
8
Calque_1
10
206.885000
20
-126.654000
11
204.256730
21
-127.916990
0
LINE
8
Calque_1
10
204.257000
20
-127.917000
11
203.082910
21
-128.404812
0
LINE
8
Calque_1
10
203.083000
20
-128.405000
11
203.251471
21
-127.404000
0
LINE
8
Calque_1
10
203.251000
20
-127.404000
11
203.152800
21
-126.856287
0
LINE
8
Calque_1
10
203.153000
20
-126.856000
11
203.142999
21
-126.525218
0
LINE
8
Calque_1
10
203.143000
20
-126.525000
11
202.992108
21
-125.641901
0
LINE
8
Calque_1
10
202.992000
20
-125.643000
11
202.995000
21
-125.643000
0
LINE
8
Calque_1
10
202.992000
20
-125.642000
11
202.992000
21
-125.642000
0
LINE
8
Calque_1
10
183.594000
20
-22.964100
11
183.620525
21
-22.395938
0
LINE
8
Calque_1
10
183.620525
20
-22.395938
11
183.926200
21
-21.524900
0
LINE
8
Calque_1
10
183.927000
20
-21.524900
11
185.035000
21
-19.555000
0
LINE
8
Calque_1
10
185.035000
20
-19.555000
11
185.781698
21
-18.741116
0
LINE
8
Calque_1
10
185.781000
20
-18.741200
11
187.456900
21
-17.447230
0
LINE
8
Calque_1
10
187.457000
20
-17.447200
11
188.723237
21
-16.851214
0
LINE
8
Calque_1
10
188.723237
20
-16.851214
11
190.244400
21
-16.596063
0
LINE
8
Calque_1
10
190.245000
20
-16.596000
11
191.522879
21
-16.720052
0
LINE
8
Calque_1
10
191.522879
20
-16.720052
11
192.707469
21
-17.113123
0
LINE
8
Calque_1
10
192.707469
20
-17.113123
11
193.772819
21
-17.741458
0
LINE
8
Calque_1
10
193.772819
20
-17.741458
11
194.692982
21
-18.571305
0
LINE
8
Calque_1
10
194.692982
20
-18.571305
11
195.442010
21
-19.568907
0
LINE
8
Calque_1
10
195.442010
20
-19.568907
11
195.993953
21
-20.700512
0
LINE
8
Calque_1
10
195.993953
20
-20.700512
11
196.322862
21
-21.932364
0
LINE
8
Calque_1
10
196.322862
20
-21.932364
11
196.402790
21
-23.230710
0
LINE
8
Calque_1
10
196.402000
20
-23.230800
11
196.263688
21
-24.242815
0
LINE
8
Calque_1
10
196.263688
20
-24.242815
11
196.002976
21
-25.055677
0
LINE
8
Calque_1
10
196.002976
20
-25.055677
11
195.499701
21
-26.093190
0
LINE
8
Calque_1
10
195.500000
20
-26.093100
11
195.623237
21
-25.913934
0
LINE
8
Calque_1
10
195.623237
20
-25.913934
11
195.296401
21
-26.607793
0
LINE
8
Calque_1
10
195.296000
20
-26.607800
11
194.417963
21
-27.784383
0
LINE
8
Calque_1
10
194.417963
20
-27.784383
11
193.545700
21
-28.452630
0
LINE
8
Calque_1
10
193.546000
20
-28.452700
11
192.740022
21
-28.908541
0
LINE
8
Calque_1
10
192.740022
20
-28.908541
11
191.961775
21
-29.195398
0
LINE
8
Calque_1
10
191.961775
20
-29.195398
11
190.603000
21
-29.454700
0
LINE
8
Calque_1
10
190.603000
20
-29.454700
11
189.354651
21
-29.612034
0
LINE
8
Calque_1
10
189.354651
20
-29.612034
11
188.453097
21
-29.566261
0
LINE
8
Calque_1
10
188.453097
20
-29.566261
11
187.417200
21
-29.288833
0
LINE
8
Calque_1
10
187.417000
20
-29.288800
11
186.747801
21
-28.956510
0
LINE
8
Calque_1
10
186.748000
20
-28.956500
11
186.464301
21
-28.663501
0
LINE
8
Calque_1
10
186.465000
20
-28.663500
11
186.407876
21
-28.670978
0
LINE
8
Calque_1
10
186.407876
20
-28.670978
11
185.879002
21
-28.319860
0
LINE
8
Calque_1
10
185.879000
20
-28.319900
11
185.101838
21
-27.578209
0
LINE
8
Calque_1
10
185.101838
20
-27.578209
11
184.570000
21
-26.786140
0
LINE
8
Calque_1
10
184.570000
20
-26.786100
11
184.206698
21
-25.953590
0
LINE
8
Calque_1
10
184.206000
20
-25.953600
11
184.315352
21
-26.270484
0
LINE
8
Calque_1
10
184.315352
20
-26.270484
11
183.960001
21
-25.533469
0
LINE
8
Calque_1
10
183.960000
20
-25.533500
11
183.723800
21
-24.721276
0
LINE
8
Calque_1
10
183.723800
20
-24.721276
11
183.743500
21
-24.370260
0
LINE
8
Calque_1
10
183.744000
20
-24.370200
11
183.594101
21
-22.964630
0
LINE
8
Calque_1
10
185.716000
20
-27.632000
11
185.681219
21
-27.532417
0
LINE
8
Calque_1
10
185.681219
20
-27.532417
11
185.736850
21
-27.670960
0
LINE
8
Calque_1
10
185.736850
20
-27.670960
11
186.019900
21
-28.204584
0
LINE
8
Calque_1
10
186.020000
20
-28.204600
11
186.155900
21
-28.342051
0
LINE
8
Calque_1
10
186.156000
20
-28.342100
11
185.716200
21
-27.632065
0
LINE
8
Calque_1
10
183.594000
20
-22.964700
11
183.594000
21
-22.964700
0
LINE
8
Calque_1
10
178.482000
20
26.476700
11
178.621599
21
28.226470
0
LINE
8
Calque_1
10
178.622000
20
28.229500
11
178.592293
21
28.071554
0
LINE
8
Calque_1
10
178.592293
20
28.071554
11
178.573863
21
28.138973
0
LINE
8
Calque_1
10
178.573863
20
28.138973
11
178.689000
21
28.926094
0
LINE
8
Calque_1
10
178.622000
20
28.226500
11
178.622000
21
28.229400
0
LINE
8
Calque_1
10
178.689000
20
28.928100
11
178.786001
21
29.309470
0
LINE
8
Calque_1
10
178.786000
20
29.309400
11
178.786000
21
29.332154
0
LINE
8
Calque_1
10
178.786000
20
29.332200
11
178.867298
21
29.893745
0
LINE
8
Calque_1
10
178.867298
20
29.893745
11
179.415398
21
30.880940
0
LINE
8
Calque_1
10
179.415000
20
30.881000
11
179.501000
21
30.958496
0
LINE
8
Calque_1
10
179.501000
20
30.958500
11
179.513991
21
30.983371
0
LINE
8
Calque_1
10
178.689000
20
28.926100
11
178.689000
21
28.928700
0
LINE
8
Calque_1
10
179.514000
20
30.984700
11
180.070101
21
31.601205
0
LINE
8
Calque_1
10
180.070000
20
31.601200
11
180.364499
21
32.256969
0
LINE
8
Calque_1
10
180.365000
20
32.257000
11
180.403999
21
32.338703
0
LINE
8
Calque_1
10
180.404000
20
32.338700
11
181.003712
21
33.593214
0
LINE
8
Calque_1
10
181.003712
20
33.593214
11
181.867500
21
34.976250
0
LINE
8
Calque_1
10
181.867000
20
34.976200
11
183.043925
21
36.209430
0
LINE
8
Calque_1
10
183.043925
20
36.209430
11
184.316400
21
37.113020
0
LINE
8
Calque_1
10
184.317000
20
37.113100
11
185.627000
21
37.829339
0
LINE
8
Calque_1
10
185.627000
20
37.829300
11
186.886864
21
38.266373
0
LINE
8
Calque_1
10
186.886864
20
38.266373
11
188.134370
21
38.490849
0
LINE
8
Calque_1
10
188.134370
20
38.490849
11
190.499090
21
38.482489
0
LINE
8
Calque_1
10
190.499000
20
38.482500
11
192.957074
21
38.054824
0
LINE
8
Calque_1
10
192.957074
20
38.054824
11
194.244008
21
37.629793
0
LINE
8
Calque_1
10
194.244008
20
37.629793
11
195.515190
21
37.008170
0
LINE
8
Calque_1
10
195.515000
20
37.008200
11
196.916300
21
35.930390
0
LINE
8
Calque_1
10
196.916300
20
35.930390
11
197.843600
21
34.911170
0
LINE
8
Calque_1
10
197.843000
20
34.911100
11
198.857587
21
33.711498
0
LINE
8
Calque_1
10
198.857587
20
33.711498
11
199.909000
21
32.113340
0
LINE
8
Calque_1
10
199.909000
20
32.113400
11
200.647661
21
30.169238
0
LINE
8
Calque_1
10
200.647661
20
30.169238
11
200.984400
21
28.497610
0
LINE
8
Calque_1
10
200.985000
20
28.497600
11
201.381800
21
25.907600
0
LINE
8
Calque_1
10
201.382000
20
25.907600
11
201.516900
21
24.638920
0
LINE
8
Calque_1
10
201.516000
20
24.638900
11
201.353650
21
22.195788
0
LINE
8
Calque_1
10
201.353650
20
22.195788
11
201.035710
21
20.924251
0
LINE
8
Calque_1
10
201.035710
20
20.924251
11
200.488700
21
19.615950
0
LINE
8
Calque_1
10
200.489000
20
19.615900
11
199.753602
21
18.426860
0
LINE
8
Calque_1
10
199.754000
20
18.426900
11
199.231287
21
17.646182
0
LINE
8
Calque_1
10
199.231287
20
17.646182
11
198.437300
21
16.717430
0
LINE
8
Calque_1
10
198.437000
20
16.717400
11
197.540000
21
15.937562
0
LINE
8
Calque_1
10
197.540000
20
15.937562
11
196.807700
21
15.432720
0
LINE
8
Calque_1
10
196.808000
20
15.432800
11
196.147000
21
14.956868
0
LINE
8
Calque_1
10
196.147000
20
14.956800
11
194.716605
21
14.259653
0
LINE
8
Calque_1
10
194.716605
20
14.259653
11
193.227549
21
13.791691
0
LINE
8
Calque_1
10
193.227549
20
13.791691
11
191.703552
21
13.548987
0
LINE
8
Calque_1
10
191.703552
20
13.548987
11
190.168332
21
13.527615
0
LINE
8
Calque_1
10
190.168332
20
13.527615
11
188.645609
21
13.723648
0
LINE
8
Calque_1
10
188.645609
20
13.723648
11
187.159099
21
14.133158
0
LINE
8
Calque_1
10
187.159099
20
14.133158
11
185.732524
21
14.752219
0
LINE
8
Calque_1
10
185.732524
20
14.752219
11
184.389600
21
15.576903
0
LINE
8
Calque_1
10
184.389000
20
15.576900
11
183.273113
21
16.558591
0
LINE
8
Calque_1
10
183.273113
20
16.558591
11
182.513700
21
17.424350
0
LINE
8
Calque_1
10
182.514000
20
17.424400
11
182.053614
21
17.846155
0
LINE
8
Calque_1
10
182.053614
20
17.846155
11
181.210200
21
18.875980
0
LINE
8
Calque_1
10
181.210000
20
18.876000
11
180.853438
21
19.510440
0
LINE
8
Calque_1
10
180.853438
20
19.510440
11
180.832774
21
19.596383
0
LINE
8
Calque_1
10
180.832774
20
19.596383
11
180.890101
21
19.510576
0
LINE
8
Calque_1
10
180.890000
20
19.510500
11
180.290500
21
20.765210
0
LINE
8
Calque_1
10
180.291000
20
20.765200
11
180.167001
21
20.963135
0
LINE
8
Calque_1
10
180.167000
20
20.963200
11
180.028499
21
21.183862
0
LINE
8
Calque_1
10
180.028000
20
21.183800
11
179.791902
21
21.615811
0
LINE
8
Calque_1
10
179.792000
20
21.615800
11
179.508798
21
22.293265
0
LINE
8
Calque_1
10
179.509000
20
22.293300
11
179.244288
21
22.773221
0
LINE
8
Calque_1
10
179.244288
20
22.773221
11
178.846003
21
23.762450
0
LINE
8
Calque_1
10
178.846000
20
23.762500
11
178.722501
21
24.331486
0
LINE
8
Calque_1
10
178.723000
20
24.331400
11
178.687998
21
24.621304
0
LINE
8
Calque_1
10
178.688000
20
24.621400
11
178.664002
21
24.850291
0
LINE
8
Calque_1
10
178.664000
20
24.850200
11
178.643500
21
24.985776
0
LINE
8
Calque_1
10
178.643500
20
24.985776
11
178.674001
21
24.823318
0
LINE
8
Calque_1
10
178.674000
20
24.823400
11
178.557062
21
25.369053
0
LINE
8
Calque_1
10
178.557062
20
25.369053
11
178.484299
21
26.477020
0
LINE
8
Calque_1
10
179.514000
20
30.983300
11
179.514000
21
30.983300
0
LINE
8
Calque_1
10
179.514000
20
30.983300
11
179.514000
21
30.983300
0
LINE
8
Calque_1
10
179.779000
20
31.204600
11
179.866998
21
31.283684
0
LINE
8
Calque_1
10
179.867000
20
31.283700
11
179.819002
21
31.249595
0
LINE
8
Calque_1
10
179.819000
20
31.249600
11
179.779000
21
31.204621
0
LINE
8
Calque_1
10
178.484000
20
26.477000
11
178.482148
21
26.476735
0
LINE
8
Calque_1
10
185.045000
20
75.403800
11
185.276372
21
76.186801
0
LINE
8
Calque_1
10
185.276372
20
76.186801
11
185.743698
21
76.846590
0
LINE
8
Calque_1
10
185.743000
20
76.846500
11
188.193000
21
79.299590
0
LINE
8
Calque_1
10
188.193000
20
79.299600
11
188.988623
21
79.804218
0
LINE
8
Calque_1
10
188.988623
20
79.804218
11
189.756338
21
79.980459
0
LINE
8
Calque_1
10
189.756338
20
79.980459
11
190.949400
21
79.817908
0
LINE
8
Calque_1
10
190.950000
20
79.817900
11
192.198500
21
79.192111
0
LINE
8
Calque_1
10
192.198000
20
79.192200
11
193.528700
21
78.159170
0
LINE
8
Calque_1
10
193.529000
20
78.159100
11
193.853163
21
77.946362
0
LINE
8
Calque_1
10
193.853163
20
77.946362
11
194.210342
21
77.550533
0
LINE
8
Calque_1
10
194.210342
20
77.550533
11
194.604900
21
76.890460
0
LINE
8
Calque_1
10
194.605000
20
76.890500
11
194.970799
21
75.698009
0
LINE
8
Calque_1
10
194.970799
20
75.698009
11
194.936650
21
75.548762
0
LINE
8
Calque_1
10
194.936650
20
75.548762
11
194.873700
21
75.741720
0
LINE
8
Calque_1
10
194.873000
20
75.741700
11
194.961801
21
74.919865
0
LINE
8
Calque_1
10
194.961801
20
74.919865
11
194.939161
21
73.901412
0
LINE
8
Calque_1
10
194.939161
20
73.901412
11
194.640167
21
72.764283
0
LINE
8
Calque_1
10
194.640167
20
72.764283
11
193.899901
21
71.586420
0
LINE
8
Calque_1
10
193.900000
20
71.586400
11
193.128550
21
70.923721
0
LINE
8
Calque_1
10
193.128550
20
70.923721
11
192.701200
21
70.802991
0
LINE
8
Calque_1
10
192.702000
20
70.803000
11
192.081802
21
70.638660
0
LINE
8
Calque_1
10
192.081000
20
70.638700
11
190.882100
21
70.457320
0
LINE
8
Calque_1
10
190.882000
20
70.457300
11
189.685700
21
70.364299
0
LINE
8
Calque_1
10
189.686000
20
70.364300
11
188.497500
21
70.409800
0
LINE
8
Calque_1
10
188.498000
20
70.409800
11
187.754134
21
70.597167
0
LINE
8
Calque_1
10
187.754134
20
70.597167
11
187.253850
21
70.865803
0
LINE
8
Calque_1
10
187.253850
20
70.865803
11
186.533200
21
71.811280
0
LINE
8
Calque_1
10
186.533000
20
71.811300
11
185.363600
21
73.824610
0
LINE
8
Calque_1
10
185.363000
20
73.824600
11
185.074532
21
74.586123
0
LINE
8
Calque_1
10
185.074532
20
74.586123
11
185.044101
21
75.403830
0
LINE
8
Calque_1
10
183.077000
20
125.396000
11
183.074163
21
126.016148
0
LINE
8
Calque_1
10
183.074163
20
126.016148
11
183.218342
21
126.608232
0
LINE
8
Calque_1
10
183.218342
20
126.608232
11
183.499202
21
127.144812
0
LINE
8
Calque_1
10
183.499202
20
127.144812
11
183.906409
21
127.598450
0
LINE
8
Calque_1
10
183.907000
20
127.599000
11
185.298743
21
128.837597
0
LINE
8
Calque_1
10
185.298743
20
128.837597
11
186.678410
21
129.933740
0
LINE
8
Calque_1
10
186.678000
20
129.934000
11
188.393582
21
130.809337
0
LINE
8
Calque_1
10
188.393582
20
130.809337
11
190.452440
21
131.261570
0
LINE
8
Calque_1
10
190.453000
20
131.261000
11
191.436786
21
131.248208
0
LINE
8
Calque_1
10
191.436786
20
131.248208
11
192.381787
21
131.066884
0
LINE
8
Calque_1
10
192.381787
20
131.066884
11
193.997480
21
130.394390
0
LINE
8
Calque_1
10
193.997000
20
130.395000
11
194.390260
21
130.212581
0
LINE
8
Calque_1
10
194.390000
20
130.212000
11
195.034871
21
129.756738
0
LINE
8
Calque_1
10
195.034871
20
129.756738
11
195.629200
21
129.129890
0
LINE
8
Calque_1
10
195.630000
20
129.130000
11
195.998450
21
128.548650
0
LINE
8
Calque_1
10
195.998000
20
128.549000
11
196.056899
21
128.456499
0
LINE
8
Calque_1
10
196.057000
20
128.456000
11
196.419770
21
127.857071
0
LINE
8
Calque_1
10
196.420000
20
127.857000
11
196.722117
21
126.843784
0
LINE
8
Calque_1
10
196.722117
20
126.843784
11
196.787940
21
126.108780
0
LINE
8
Calque_1
10
196.788000
20
126.109000
11
196.829899
21
125.399481
0
LINE
8
Calque_1
10
196.830000
20
125.400000
11
196.935003
21
124.416575
0
LINE
8
Calque_1
10
196.935003
20
124.416575
11
196.901555
21
123.325795
0
LINE
8
Calque_1
10
196.901555
20
123.325795
11
196.627433
21
122.167538
0
LINE
8
Calque_1
10
196.627433
20
122.167538
11
196.010412
21
120.981680
0
LINE
8
Calque_1
10
196.010000
20
120.981000
11
195.087785
21
119.920836
0
LINE
8
Calque_1
10
195.087785
20
119.920836
11
194.087630
21
119.106700
0
LINE
8
Calque_1
10
194.088000
20
119.107000
11
193.048524
21
118.368243
0
LINE
8
Calque_1
10
193.048524
20
118.368243
11
191.876770
21
117.777880
0
LINE
8
Calque_1
10
191.876000
20
117.778000
11
190.648612
21
117.451826
0
LINE
8
Calque_1
10
190.648612
20
117.451826
11
189.438420
21
117.357350
0
LINE
8
Calque_1
10
189.439000
20
117.357000
11
188.145680
21
117.337133
0
LINE
8
Calque_1
10
188.145680
20
117.337133
11
187.407048
21
117.496065
0
LINE
8
Calque_1
10
187.407048
20
117.496065
11
186.527040
21
117.900120
0
LINE
8
Calque_1
10
186.527000
20
117.900000
11
185.882250
21
118.400090
0
LINE
8
Calque_1
10
185.882250
20
118.400090
11
185.607672
21
118.744909
0
LINE
8
Calque_1
10
185.607000
20
118.745000
11
184.918486
21
119.530168
0
LINE
8
Calque_1
10
184.918486
20
119.530168
11
184.481490
21
120.263250
0
LINE
8
Calque_1
10
184.482000
20
120.263000
11
184.078583
21
120.721495
0
LINE
8
Calque_1
10
184.078583
20
120.721495
11
183.614872
21
121.627780
0
LINE
8
Calque_1
10
183.615000
20
121.628000
11
183.321704
21
122.791734
0
LINE
8
Calque_1
10
183.321704
20
122.791734
11
183.186062
21
123.820839
0
LINE
8
Calque_1
10
183.186062
20
123.820839
11
183.077560
21
125.396240
0
LINE
8
Calque_1
10
182.560000
20
173.287000
11
182.637858
21
173.952613
0
LINE
8
Calque_1
10
182.637858
20
173.952613
11
182.779620
21
174.391330
0
LINE
8
Calque_1
10
182.780000
20
174.391000
11
183.144320
21
175.459140
0
LINE
8
Calque_1
10
183.144000
20
175.459000
11
184.501030
21
177.411340
0
LINE
8
Calque_1
10
184.501000
20
177.412000
11
185.111290
21
178.019697
0
LINE
8
Calque_1
10
185.112000
20
178.019000
11
186.481345
21
179.021205
0
LINE
8
Calque_1
10
186.481345
20
179.021205
11
187.749050
21
179.802370
0
LINE
8
Calque_1
10
187.749000
20
179.803000
11
188.536398
21
180.088673
0
LINE
8
Calque_1
10
188.536398
20
180.088673
11
189.375706
21
180.228049
0
LINE
8
Calque_1
10
189.375706
20
180.228049
11
191.148790
21
180.182819
0
LINE
8
Calque_1
10
191.148000
20
180.182000
11
193.449660
21
179.666780
0
LINE
8
Calque_1
10
193.450000
20
179.667000
11
194.767775
21
179.122983
0
LINE
8
Calque_1
10
194.767775
20
179.122983
11
195.439291
21
178.672646
0
LINE
8
Calque_1
10
195.439291
20
178.672646
11
196.103590
21
178.019030
0
LINE
8
Calque_1
10
196.104000
20
178.019000
11
196.688295
21
177.175943
0
LINE
8
Calque_1
10
196.688295
20
177.175943
11
197.051933
21
176.344583
0
LINE
8
Calque_1
10
197.051933
20
176.344583
11
197.354050
21
174.771160
0
LINE
8
Calque_1
10
197.354000
20
174.771000
11
197.421699
21
173.105480
0
LINE
8
Calque_1
10
197.421000
20
173.106000
11
197.033808
21
171.284765
0
LINE
8
Calque_1
10
197.033808
20
171.284765
11
196.198241
21
169.764900
0
LINE
8
Calque_1
10
196.198241
20
169.764900
11
195.037934
21
168.559338
0
LINE
8
Calque_1
10
195.037934
20
168.559338
11
193.676520
21
167.681010
0
LINE
8
Calque_1
10
193.677000
20
167.681000
11
192.368461
21
167.119371
0
LINE
8
Calque_1
10
192.368461
20
167.119371
11
190.910806
21
166.729909
0
LINE
8
Calque_1
10
190.910806
20
166.729909
11
189.333888
21
166.619618
0
LINE
8
Calque_1
10
189.333888
20
166.619618
11
187.667560
21
166.895501
0
LINE
8
Calque_1
10
187.668000
20
166.895000
11
186.726971
21
167.265009
0
LINE
8
Calque_1
10
186.727000
20
167.265000
11
185.950692
21
167.472383
0
LINE
8
Calque_1
10
185.950692
20
167.472383
11
185.268419
21
167.792904
0
LINE
8
Calque_1
10
185.268419
20
167.792904
11
184.443950
21
168.391560
0
LINE
8
Calque_1
10
184.443000
20
168.392000
11
183.862865
21
169.012157
0
LINE
8
Calque_1
10
183.862865
20
169.012157
11
183.813581
21
169.136640
0
LINE
8
Calque_1
10
183.814000
20
169.137000
11
183.194577
21
170.168395
0
LINE
8
Calque_1
10
183.194577
20
170.168395
11
182.810702
21
171.255796
0
LINE
8
Calque_1
10
182.810702
20
171.255796
11
182.560330
21
173.286610
0
LINE
8
Calque_1
10
182.718000
20
173.398000
11
182.746531
21
173.284158
0
LINE
8
Calque_1
10
182.746531
20
173.284158
11
182.730885
21
173.428999
0
LINE
8
Calque_1
10
182.731000
20
173.429000
11
182.776500
21
174.325590
0
LINE
8
Calque_1
10
182.776000
20
174.325000
11
182.740900
21
174.191661
0
LINE
8
Calque_1
10
182.741000
20
174.192000
11
182.717796
21
173.397751
0
LINE
8
Calque_1
10
182.560000
20
173.286000
11
182.560000
21
173.287000
0
LINE
8
Calque_1
10
182.718000
20
173.398000
11
182.718000
21
173.398000
 0 
ENDSEC
 0 
EOF