  0
SECTION
  2
HEADER
  9
$ACADVER
  1
AC1014
  9
$HANDSEED
  5
FFFF
  9
$INSUNITS
 70
     4
  9
$MEASUREMENT
 70
     1
  0
ENDSEC
  0
SECTION
  2
TABLES
  0
TABLE
  2
VPORT
  5
8
330
0
100
AcDbSymbolTable
 70
     4
  0
VPORT
  5
2E
330
8
100
AcDbSymbolTableRecord
100
AcDbViewportTableRecord
  2
*ACTIVE
 70
     0
 10
0.0
 20
0.0
 11
1.0
 21
1.0
 12
210.0
 22
148.5
 13
0.0
 23
0.0
 14
10.0
 24
10.0
 15
10.0
 25
10.0
 16
0.0
 26
0.0
 36
1.0
 17
0.0
 27
0.0
 37
0.0
 40
341.0
 41
1.24
 42
50.0
 43
0.0
 44
0.0
 50
0.0
 51
0.0
 71
     0
 72
   100
 73
     1
 74
     3
 75
     0
 76
     0
 77
     0
 78
     0
  0
ENDTAB
  0
TABLE
  2
LTYPE
  5
5
330
0
100
AcDbSymbolTable
 70
     1
  0
LTYPE
  5
14
330
5
100
AcDbSymbolTableRecord
100
AcDbLinetypeTableRecord
  2
BYBLOCK
 70
     0
  3

 72
    65
 73
     0
 40
0.0
  0
LTYPE
  5
15
330
5
100
AcDbSymbolTableRecord
100
AcDbLinetypeTableRecord
  2
BYLAYER
 70
     0
  3

 72
    65
 73
     0
 40
0.0
  0
LTYPE
  5
16
330
5
100
AcDbSymbolTableRecord
100
AcDbLinetypeTableRecord
  2
CONTINUOUS
 70
     0
  3
Solid line
 72
    65
 73
     0
 40
0.0
  0
ENDTAB
  0
TABLE
  2
LAYER
  5
2
100
AcDbSymbolTable
 70
1
  0
LAYER
  5
50
100
AcDbSymbolTableRecord
100
AcDbLayerTableRecord
  2
0
 70
0
  6
CONTINUOUS
  0
ENDTAB
  0
TABLE
  2
STYLE
  5
3
330
0
100
AcDbSymbolTable
 70
     1
  0
STYLE
  5
11
330
3
100
AcDbSymbolTableRecord
100
AcDbTextStyleTableRecord
  2
STANDARD
 70
     0
 40
0.0
 41
1.0
 50
0.0
 71
     0
 42
2.5
  3
txt
  4

  0
ENDTAB
  0
TABLE
  2
VIEW
  5
6
330
0
100
AcDbSymbolTable
 70
     0
  0
ENDTAB
  0
TABLE
  2
UCS
  5
7
330
0
100
AcDbSymbolTable
 70
     0
  0
ENDTAB
  0
TABLE
  2
APPID
  5
9
330
0
100
AcDbSymbolTable
 70
     2
  0
APPID
  5
12
330
9
100
AcDbSymbolTableRecord
100
AcDbRegAppTableRecord
  2
ACAD
 70
     0
  0
ENDTAB
  0
TABLE
  2
DIMSTYLE
  5
A
330
0
100
AcDbSymbolTable
 70
     1
  0
DIMSTYLE
105
27
330
A
100
AcDbSymbolTableRecord
100
AcDbDimStyleTableRecord
  2
ISO-25
 70
     0
  3

  4

  5

  6

  7

 40
1.0
 41
2.5
 42
0.625
 43
3.75
 44
1.25
 45
0.0
 46
0.0
 47
0.0
 48
0.0
140
2.5
141
2.5
142
0.0
143
0.03937007874016
144
1.0
145
0.0
146
1.0
147
0.625
 71
     0
 72
     0
 73
     0
 74
     0
 75
     0
 76
     0
 77
     1
 78
     8
170
     0
171
     3
172
     1
173
     0
174
     0
175
     0
176
     0
177
     0
178
     0
270
     2
271
     2
272
     2
273
     2
274
     3
340
11
275
     0
280
     0
281
     0
282
     0
283
     0
284
     8
285
     0
286
     0
287
     3
288
     0
  0
ENDTAB
  0
TABLE
  2
BLOCK_RECORD
  5
1
330
0
100
AcDbSymbolTable
 70
     1
  0
BLOCK_RECORD
  5
1F
330
1
100
AcDbSymbolTableRecord
100
AcDbBlockTableRecord
  2
*MODEL_SPACE
  0
BLOCK_RECORD
  5
1B
330
1
100
AcDbSymbolTableRecord
100
AcDbBlockTableRecord
  2
*PAPER_SPACE
  0
ENDTAB
  0
ENDSEC
  0
SECTION
  2
BLOCKS
  0
BLOCK
  5
20
330
1F
100
AcDbEntity
  8
0
100
AcDbBlockBegin
  2
*MODEL_SPACE
 70
     0
 10
0.0
 20
0.0
 30
0.0
  3
*MODEL_SPACE
  1

  0
ENDBLK
  5
21
330
1F
100
AcDbEntity
  8
0
100
AcDbBlockEnd
  0
BLOCK
  5
1C
330
1B
100
AcDbEntity
 67
     1
  8
0
100
AcDbBlockBegin
  2
*PAPER_SPACE
  1

  0
ENDBLK
  5
1D
330
1B
100
AcDbEntity
 67
     1
  8
0
100
AcDbBlockEnd
  0
ENDSEC
  0
SECTION
  2
ENTITIES
  0
SPLINE
  5
100
100
AcDbEntity
  8
0
 62
7
100
AcDbSpline
 70
8
 71
3
 72
8
 73
4
 74
0
 40
0
 40
0
 40
0
 40
0
 40
1
 40
1
 40
1
 40
1
 10
-9.999914
 20
422.832467
 30
0.0
 10
-14.154926
 20
422.832467
 30
0.0
 10
-17.499784
 20
419.487345
 30
0.0
 10
-17.499784
 20
415.332333
 30
0.0
  0
SPLINE
  5
101
100
AcDbEntity
  8
0
 62
7
100
AcDbSpline
 70
8
 71
3
 72
8
 73
4
 74
0
 40
0
 40
0
 40
0
 40
0
 40
1
 40
1
 40
1
 40
1
 10
-17.499784
 20
286.727270
 30
0.0
 10
-18.990180
 20
285.863671
 30
0.0
 10
-19.999829
 20
284.269823
 30
0.0
 10
-19.999829
 20
282.416419
 30
0.0
  0
LWPOLYLINE
  5
102
100
AcDbEntity
  8
0
 62
7
100
AcDbPolyline
 90
2
 70
0
 10
-17.499784
 20
415.332333
 30
0.0
 10
-17.499784
 20
286.727270
 30
0.0
  0
SPLINE
  5
103
100
AcDbEntity
  8
0
 62
7
100
AcDbSpline
 70
8
 71
3
 72
8
 73
4
 74
0
 40
0
 40
0
 40
0
 40
0
 40
1
 40
1
 40
1
 40
1
 10
-19.999829
 20
192.416926
 30
0.0
 10
-19.999829
 20
189.646742
 30
0.0
 10
-17.769394
 20
187.416042
 30
0.0
 10
-14.999475
 20
187.416042
 30
0.0
  0
LWPOLYLINE
  5
104
100
AcDbEntity
  8
0
 62
7
100
AcDbPolyline
 90
2
 70
0
 10
-19.999829
 20
282.416419
 30
0.0
 10
-19.999829
 20
192.416926
 30
0.0
  0
SPLINE
  5
105
100
AcDbEntity
  8
0
 62
7
100
AcDbSpline
 70
8
 71
3
 72
8
 73
4
 74
0
 40
0
 40
0
 40
0
 40
0
 40
1
 40
1
 40
1
 40
1
 10
-4.999560
 20
187.416042
 30
0.0
 10
-2.229376
 20
187.416042
 30
0.0
 10
0.000000
 20
189.646742
 30
0.0
 10
0.000000
 20
192.416926
 30
0.0
  0
LWPOLYLINE
  5
106
100
AcDbEntity
  8
0
 62
7
100
AcDbPolyline
 90
2
 70
0
 10
-14.999475
 20
187.416042
 30
0.0
 10
-4.999560
 20
187.416042
 30
0.0
  0
SPLINE
  5
107
100
AcDbEntity
  8
0
 62
7
100
AcDbSpline
 70
8
 71
3
 72
8
 73
4
 74
0
 40
0
 40
0
 40
0
 40
0
 40
1
 40
1
 40
1
 40
1
 10
0.000000
 20
282.416419
 30
0.0
 10
0.000000
 20
284.269823
 30
0.0
 10
-1.009913
 20
285.863671
 30
0.0
 10
-2.500309
 20
286.727270
 30
0.0
  0
LWPOLYLINE
  5
108
100
AcDbEntity
  8
0
 62
7
100
AcDbPolyline
 90
2
 70
0
 10
0.000000
 20
192.416926
 30
0.0
 10
0.000000
 20
282.416419
 30
0.0
  0
SPLINE
  5
109
100
AcDbEntity
  8
0
 62
7
100
AcDbSpline
 70
8
 71
3
 72
8
 73
4
 74
0
 40
0
 40
0
 40
0
 40
0
 40
1
 40
1
 40
1
 40
1
 10
-2.500309
 20
415.332333
 30
0.0
 10
-2.500309
 20
419.487345
 30
0.0
 10
-5.844903
 20
422.832467
 30
0.0
 10
-9.999914
 20
422.832467
 30
0.0
  0
LWPOLYLINE
  5
10a
100
AcDbEntity
  8
0
 62
7
100
AcDbPolyline
 90
2
 70
0
 10
-2.500309
 20
286.727270
 30
0.0
 10
-2.500309
 20
415.332333
 30
0.0
  0
SPLINE
  5
10b
100
AcDbEntity
  8
0
 62
7
100
AcDbSpline
 70
8
 71
3
 72
8
 73
4
 74
0
 40
0
 40
0
 40
0
 40
0
 40
1
 40
1
 40
1
 40
1
 10
-9.999914
 20
417.332052
 30
0.0
 10
-8.895545
 20
417.332052
 30
0.0
 10
-8.000196
 20
416.436703
 30
0.0
 10
-7.999931
 20
415.332333
 30
0.0
  0
SPLINE
  5
10c
100
AcDbEntity
  8
0
 62
7
100
AcDbSpline
 70
8
 71
3
 72
8
 73
4
 74
0
 40
0
 40
0
 40
0
 40
0
 40
1
 40
1
 40
1
 40
1
 10
-7.999931
 20
415.332333
 30
0.0
 10
-7.999931
 20
414.227699
 30
0.0
 10
-8.895280
 20
413.331821
 30
0.0
 10
-9.999914
 20
413.331821
 30
0.0
  0
SPLINE
  5
10d
100
AcDbEntity
  8
0
 62
7
100
AcDbSpline
 70
8
 71
3
 72
8
 73
4
 74
0
 40
0
 40
0
 40
0
 40
0
 40
1
 40
1
 40
1
 40
1
 10
-9.999914
 20
413.331821
 30
0.0
 10
-11.104813
 20
413.331821
 30
0.0
 10
-12.000426
 20
414.227435
 30
0.0
 10
-12.000162
 20
415.332333
 30
0.0
  0
SPLINE
  5
10e
100
AcDbEntity
  8
0
 62
7
100
AcDbSpline
 70
8
 71
3
 72
8
 73
4
 74
0
 40
0
 40
0
 40
0
 40
0
 40
1
 40
1
 40
1
 40
1
 10
-12.000162
 20
415.332333
 30
0.0
 10
-12.000162
 20
416.436967
 30
0.0
 10
-11.104548
 20
417.332316
 30
0.0
 10
-9.999914
 20
417.332052
 30
0.0
  0
LWPOLYLINE
  5
10f
100
AcDbEntity
  8
0
 62
7
100
AcDbPolyline
 90
1
 70
1
 10
-9.999914
 20
422.832467
 30
0.0
  0
SPLINE
  5
110
100
AcDbEntity
  8
0
 62
7
100
AcDbSpline
 70
8
 71
3
 72
8
 73
4
 74
0
 40
0
 40
0
 40
0
 40
0
 40
1
 40
1
 40
1
 40
1
 10
-9.999914
 20
403.331907
 30
0.0
 10
-8.895545
 20
403.331907
 30
0.0
 10
-8.000196
 20
402.436558
 30
0.0
 10
-7.999931
 20
401.332189
 30
0.0
  0
SPLINE
  5
111
100
AcDbEntity
  8
0
 62
7
100
AcDbSpline
 70
8
 71
3
 72
8
 73
4
 74
0
 40
0
 40
0
 40
0
 40
0
 40
1
 40
1
 40
1
 40
1
 10
-7.999931
 20
401.332189
 30
0.0
 10
-7.999931
 20
400.227290
 30
0.0
 10
-8.895280
 20
399.331677
 30
0.0
 10
-9.999914
 20
399.331677
 30
0.0
  0
SPLINE
  5
112
100
AcDbEntity
  8
0
 62
7
100
AcDbSpline
 70
8
 71
3
 72
8
 73
4
 74
0
 40
0
 40
0
 40
0
 40
0
 40
1
 40
1
 40
1
 40
1
 10
-9.999914
 20
399.331677
 30
0.0
 10
-11.104813
 20
399.331677
 30
0.0
 10
-12.000426
 20
400.227290
 30
0.0
 10
-12.000162
 20
401.332189
 30
0.0
  0
SPLINE
  5
113
100
AcDbEntity
  8
0
 62
7
100
AcDbSpline
 70
8
 71
3
 72
8
 73
4
 74
0
 40
0
 40
0
 40
0
 40
0
 40
1
 40
1
 40
1
 40
1
 10
-12.000162
 20
401.332189
 30
0.0
 10
-12.000162
 20
402.436558
 30
0.0
 10
-11.104548
 20
403.331907
 30
0.0
 10
-9.999914
 20
403.331907
 30
0.0
  0
LWPOLYLINE
  5
114
100
AcDbEntity
  8
0
 62
7
100
AcDbPolyline
 90
1
 70
1
 10
-9.999914
 20
417.332052
 30
0.0
  0
SPLINE
  5
115
100
AcDbEntity
  8
0
 62
7
100
AcDbSpline
 70
8
 71
3
 72
8
 73
4
 74
0
 40
0
 40
0
 40
0
 40
0
 40
1
 40
1
 40
1
 40
1
 10
-9.999914
 20
185.416060
 30
0.0
 10
-14.154926
 20
185.416060
 30
0.0
 10
-17.499784
 20
182.070937
 30
0.0
 10
-17.499784
 20
177.915925
 30
0.0
  0
LWPOLYLINE
  5
116
100
AcDbEntity
  8
0
 62
7
100
AcDbPolyline
 90
1
 70
1
 10
-9.999914
 20
403.331907
 30
0.0
  0
SPLINE
  5
117
100
AcDbEntity
  8
0
 62
7
100
AcDbSpline
 70
8
 71
3
 72
8
 73
4
 74
0
 40
0
 40
0
 40
0
 40
0
 40
1
 40
1
 40
1
 40
1
 10
-17.499784
 20
49.310598
 30
0.0
 10
-18.990180
 20
48.446999
 30
0.0
 10
-19.999829
 20
46.853151
 30
0.0
 10
-19.999829
 20
44.999747
 30
0.0
  0
LWPOLYLINE
  5
118
100
AcDbEntity
  8
0
 62
7
100
AcDbPolyline
 90
2
 70
0
 10
-17.499784
 20
177.915925
 30
0.0
 10
-17.499784
 20
49.310598
 30
0.0
  0
SPLINE
  5
119
100
AcDbEntity
  8
0
 62
7
100
AcDbSpline
 70
8
 71
3
 72
8
 73
4
 74
0
 40
0
 40
0
 40
0
 40
0
 40
1
 40
1
 40
1
 40
1
 10
-19.999829
 20
-44.999747
 30
0.0
 10
-19.999829
 20
-47.769931
 30
0.0
 10
-17.769394
 20
-50.000630
 30
0.0
 10
-14.999475
 20
-50.000630
 30
0.0
  0
LWPOLYLINE
  5
11a
100
AcDbEntity
  8
0
 62
7
100
AcDbPolyline
 90
2
 70
0
 10
-19.999829
 20
44.999747
 30
0.0
 10
-19.999829
 20
-44.999747
 30
0.0
  0
SPLINE
  5
11b
100
AcDbEntity
  8
0
 62
7
100
AcDbSpline
 70
8
 71
3
 72
8
 73
4
 74
0
 40
0
 40
0
 40
0
 40
0
 40
1
 40
1
 40
1
 40
1
 10
-4.999560
 20
-50.000630
 30
0.0
 10
-2.229376
 20
-50.000630
 30
0.0
 10
0.000000
 20
-47.769931
 30
0.0
 10
0.000000
 20
-44.999747
 30
0.0
  0
LWPOLYLINE
  5
11c
100
AcDbEntity
  8
0
 62
7
100
AcDbPolyline
 90
2
 70
0
 10
-14.999475
 20
-50.000630
 30
0.0
 10
-4.999560
 20
-50.000630
 30
0.0
  0
SPLINE
  5
11d
100
AcDbEntity
  8
0
 62
7
100
AcDbSpline
 70
8
 71
3
 72
8
 73
4
 74
0
 40
0
 40
0
 40
0
 40
0
 40
1
 40
1
 40
1
 40
1
 10
0.000000
 20
44.999747
 30
0.0
 10
0.000000
 20
46.853151
 30
0.0
 10
-1.009913
 20
48.446999
 30
0.0
 10
-2.500309
 20
49.310598
 30
0.0
  0
LWPOLYLINE
  5
11e
100
AcDbEntity
  8
0
 62
7
100
AcDbPolyline
 90
2
 70
0
 10
0.000000
 20
-44.999747
 30
0.0
 10
0.000000
 20
44.999747
 30
0.0
  0
SPLINE
  5
11f
100
AcDbEntity
  8
0
 62
7
100
AcDbSpline
 70
8
 71
3
 72
8
 73
4
 74
0
 40
0
 40
0
 40
0
 40
0
 40
1
 40
1
 40
1
 40
1
 10
-2.500309
 20
177.915925
 30
0.0
 10
-2.500309
 20
182.070937
 30
0.0
 10
-5.844903
 20
185.416060
 30
0.0
 10
-9.999914
 20
185.416060
 30
0.0
  0
LWPOLYLINE
  5
120
100
AcDbEntity
  8
0
 62
7
100
AcDbPolyline
 90
2
 70
0
 10
-2.500309
 20
49.310598
 30
0.0
 10
-2.500309
 20
177.915925
 30
0.0
  0
SPLINE
  5
121
100
AcDbEntity
  8
0
 62
7
100
AcDbSpline
 70
8
 71
3
 72
8
 73
4
 74
0
 40
0
 40
0
 40
0
 40
0
 40
1
 40
1
 40
1
 40
1
 10
-9.999914
 20
179.915644
 30
0.0
 10
-8.895545
 20
179.915644
 30
0.0
 10
-8.000196
 20
179.020295
 30
0.0
 10
-7.999931
 20
177.915925
 30
0.0
  0
SPLINE
  5
122
100
AcDbEntity
  8
0
 62
7
100
AcDbSpline
 70
8
 71
3
 72
8
 73
4
 74
0
 40
0
 40
0
 40
0
 40
0
 40
1
 40
1
 40
1
 40
1
 10
-7.999931
 20
177.915925
 30
0.0
 10
-7.999931
 20
176.811027
 30
0.0
 10
-8.895280
 20
175.915413
 30
0.0
 10
-9.999914
 20
175.915413
 30
0.0
  0
SPLINE
  5
123
100
AcDbEntity
  8
0
 62
7
100
AcDbSpline
 70
8
 71
3
 72
8
 73
4
 74
0
 40
0
 40
0
 40
0
 40
0
 40
1
 40
1
 40
1
 40
1
 10
-9.999914
 20
175.915413
 30
0.0
 10
-11.104813
 20
175.915413
 30
0.0
 10
-12.000426
 20
176.811027
 30
0.0
 10
-12.000162
 20
177.915925
 30
0.0
  0
SPLINE
  5
124
100
AcDbEntity
  8
0
 62
7
100
AcDbSpline
 70
8
 71
3
 72
8
 73
4
 74
0
 40
0
 40
0
 40
0
 40
0
 40
1
 40
1
 40
1
 40
1
 10
-12.000162
 20
177.915925
 30
0.0
 10
-12.000162
 20
179.020559
 30
0.0
 10
-11.104548
 20
179.915644
 30
0.0
 10
-9.999914
 20
179.915644
 30
0.0
  0
LWPOLYLINE
  5
125
100
AcDbEntity
  8
0
 62
7
100
AcDbPolyline
 90
1
 70
1
 10
-9.999914
 20
185.416060
 30
0.0
  0
SPLINE
  5
126
100
AcDbEntity
  8
0
 62
7
100
AcDbSpline
 70
8
 71
3
 72
8
 73
4
 74
0
 40
0
 40
0
 40
0
 40
0
 40
1
 40
1
 40
1
 40
1
 10
-9.999914
 20
165.915234
 30
0.0
 10
-8.895545
 20
165.915234
 30
0.0
 10
-8.000196
 20
165.020150
 30
0.0
 10
-7.999931
 20
163.915516
 30
0.0
  0
SPLINE
  5
127
100
AcDbEntity
  8
0
 62
7
100
AcDbSpline
 70
8
 71
3
 72
8
 73
4
 74
0
 40
0
 40
0
 40
0
 40
0
 40
1
 40
1
 40
1
 40
1
 10
-7.999931
 20
163.915516
 30
0.0
 10
-7.999931
 20
162.810882
 30
0.0
 10
-8.895280
 20
161.915004
 30
0.0
 10
-9.999914
 20
161.915004
 30
0.0
  0
SPLINE
  5
128
100
AcDbEntity
  8
0
 62
7
100
AcDbSpline
 70
8
 71
3
 72
8
 73
4
 74
0
 40
0
 40
0
 40
0
 40
0
 40
1
 40
1
 40
1
 40
1
 10
-9.999914
 20
161.915004
 30
0.0
 10
-11.104813
 20
161.915004
 30
0.0
 10
-12.000426
 20
162.810618
 30
0.0
 10
-12.000162
 20
163.915516
 30
0.0
  0
SPLINE
  5
129
100
AcDbEntity
  8
0
 62
7
100
AcDbSpline
 70
8
 71
3
 72
8
 73
4
 74
0
 40
0
 40
0
 40
0
 40
0
 40
1
 40
1
 40
1
 40
1
 10
-12.000162
 20
163.915516
 30
0.0
 10
-12.000162
 20
165.020150
 30
0.0
 10
-11.104548
 20
165.915499
 30
0.0
 10
-9.999914
 20
165.915234
 30
0.0
  0
LWPOLYLINE
  5
12a
100
AcDbEntity
  8
0
 62
7
100
AcDbPolyline
 90
1
 70
1
 10
-9.999914
 20
179.915644
 30
0.0
  0
LWPOLYLINE
  5
12b
100
AcDbEntity
  8
0
 62
7
100
AcDbPolyline
 90
1
 70
1
 10
-9.999914
 20
165.915234
 30
0.0
  0
SPLINE
  5
12c
100
AcDbEntity
  8
0
 62
7
100
AcDbSpline
 70
8
 71
3
 72
8
 73
4
 74
0
 40
0
 40
0
 40
0
 40
0
 40
1
 40
1
 40
1
 40
1
 10
753.999558
 20
595.029050
 30
0.0
 10
755.325640
 20
595.029050
 30
0.0
 10
756.597410
 20
594.502266
 30
0.0
 10
757.535091
 20
593.564584
 30
0.0
  0
SPLINE
  5
12d
100
AcDbEntity
  8
0
 62
7
100
AcDbSpline
 70
8
 71
3
 72
8
 73
4
 74
0
 40
0
 40
0
 40
0
 40
0
 40
1
 40
1
 40
1
 40
1
 10
757.535091
 20
593.564584
 30
0.0
 10
758.472773
 20
592.626903
 30
0.0
 10
758.999557
 20
591.355133
 30
0.0
 10
758.999557
 20
590.029051
 30
0.0
  0
LWPOLYLINE
  5
12e
100
AcDbEntity
  8
0
 62
7
100
AcDbPolyline
 90
2
 70
0
 10
313.999549
 20
595.029050
 30
0.0
 10
753.999558
 20
595.029050
 30
0.0
  0
SPLINE
  5
12f
100
AcDbEntity
  8
0
 62
7
100
AcDbSpline
 70
8
 71
3
 72
8
 73
4
 74
0
 40
0
 40
0
 40
0
 40
0
 40
1
 40
1
 40
1
 40
1
 10
758.999557
 20
-49.970938
 30
0.0
 10
758.999557
 20
-51.297021
 30
0.0
 10
758.472773
 20
-52.568790
 30
0.0
 10
757.535091
 20
-53.506472
 30
0.0
  0
SPLINE
  5
130
100
AcDbEntity
  8
0
 62
7
100
AcDbSpline
 70
8
 71
3
 72
8
 73
4
 74
0
 40
0
 40
0
 40
0
 40
0
 40
1
 40
1
 40
1
 40
1
 10
757.535091
 20
-53.506472
 30
0.0
 10
756.597410
 20
-54.444154
 30
0.0
 10
755.325640
 20
-54.970938
 30
0.0
 10
753.999558
 20
-54.970938
 30
0.0
  0
LWPOLYLINE
  5
131
100
AcDbEntity
  8
0
 62
7
100
AcDbPolyline
 90
2
 70
0
 10
758.999557
 20
590.029051
 30
0.0
 10
758.999557
 20
-49.970938
 30
0.0
  0
SPLINE
  5
132
100
AcDbEntity
  8
0
 62
7
100
AcDbSpline
 70
8
 71
3
 72
8
 73
4
 74
0
 40
0
 40
0
 40
0
 40
0
 40
1
 40
1
 40
1
 40
1
 10
313.999549
 20
-54.970938
 30
0.0
 10
312.673467
 20
-54.970938
 30
0.0
 10
311.401697
 20
-54.444154
 30
0.0
 10
310.464015
 20
-53.506472
 30
0.0
  0
SPLINE
  5
133
100
AcDbEntity
  8
0
 62
7
100
AcDbSpline
 70
8
 71
3
 72
8
 73
4
 74
0
 40
0
 40
0
 40
0
 40
0
 40
1
 40
1
 40
1
 40
1
 10
310.464015
 20
-53.506472
 30
0.0
 10
309.526333
 20
-52.568790
 30
0.0
 10
308.999549
 20
-51.297021
 30
0.0
 10
308.999549
 20
-49.970938
 30
0.0
  0
LWPOLYLINE
  5
134
100
AcDbEntity
  8
0
 62
7
100
AcDbPolyline
 90
2
 70
0
 10
753.999558
 20
-54.970938
 30
0.0
 10
313.999549
 20
-54.970938
 30
0.0
  0
SPLINE
  5
135
100
AcDbEntity
  8
0
 62
7
100
AcDbSpline
 70
8
 71
3
 72
8
 73
4
 74
0
 40
0
 40
0
 40
0
 40
0
 40
1
 40
1
 40
1
 40
1
 10
308.999549
 20
590.029051
 30
0.0
 10
308.999549
 20
591.355133
 30
0.0
 10
309.526333
 20
592.626903
 30
0.0
 10
310.464015
 20
593.564584
 30
0.0
  0
SPLINE
  5
136
100
AcDbEntity
  8
0
 62
7
100
AcDbSpline
 70
8
 71
3
 72
8
 73
4
 74
0
 40
0
 40
0
 40
0
 40
0
 40
1
 40
1
 40
1
 40
1
 10
310.464015
 20
593.564584
 30
0.0
 10
311.401697
 20
594.502266
 30
0.0
 10
312.673467
 20
595.029050
 30
0.0
 10
313.999549
 20
595.029050
 30
0.0
  0
LWPOLYLINE
  5
137
100
AcDbEntity
  8
0
 62
7
100
AcDbPolyline
 90
2
 70
0
 10
308.999549
 20
-49.970938
 30
0.0
 10
308.999549
 20
590.029051
 30
0.0
  0
SPLINE
  5
138
100
AcDbEntity
  8
0
 62
7
100
AcDbSpline
 70
8
 71
3
 72
8
 73
4
 74
0
 40
0
 40
0
 40
0
 40
0
 40
1
 40
1
 40
1
 40
1
 10
1.999745
 20
-44.971172
 30
0.0
 10
1.999745
 20
-47.741356
 30
0.0
 10
4.229968
 20
-49.970997
 30
0.0
 10
6.999993
 20
-49.970997
 30
0.0
  0
LWPOLYLINE
  5
139
100
AcDbEntity
  8
0
 62
7
100
AcDbPolyline
 90
1
 70
1
 10
313.999549
 20
595.029050
 30
0.0
  0
SPLINE
  5
13a
100
AcDbEntity
  8
0
 62
7
100
AcDbSpline
 70
8
 71
3
 72
8
 73
4
 74
0
 40
0
 40
0
 40
0
 40
0
 40
1
 40
1
 40
1
 40
1
 10
291.999615
 20
-49.970997
 30
0.0
 10
294.769614
 20
-49.970997
 30
0.0
 10
296.999837
 20
-47.741356
 30
0.0
 10
296.999837
 20
-44.971172
 30
0.0
  0
LWPOLYLINE
  5
13b
100
AcDbEntity
  8
0
 62
7
100
AcDbPolyline
 90
2
 70
0
 10
6.999993
 20
-49.970997
 30
0.0
 10
291.999615
 20
-49.970997
 30
0.0
  0
SPLINE
  5
13c
100
AcDbEntity
  8
0
 62
7
100
AcDbSpline
 70
8
 71
3
 72
8
 73
4
 74
0
 40
0
 40
0
 40
0
 40
0
 40
1
 40
1
 40
1
 40
1
 10
301.999530
 20
240.028900
 30
0.0
 10
304.769529
 20
240.028900
 30
0.0
 10
306.999752
 20
242.258806
 30
0.0
 10
306.999752
 20
245.028461
 30
0.0
  0
LWPOLYLINE
  5
13d
100
AcDbEntity
  8
0
 62
7
100
AcDbPolyline
 90
3
 70
0
 10
296.999837
 20
-44.971172
 30
0.0
 10
296.999837
 20
240.028900
 30
0.0
 10
301.999530
 20
240.028900
 30
0.0
  0
SPLINE
  5
13e
100
AcDbEntity
  8
0
 62
7
100
AcDbSpline
 70
8
 71
3
 72
8
 73
4
 74
0
 40
0
 40
0
 40
0
 40
0
 40
1
 40
1
 40
1
 40
1
 10
306.999752
 20
345.028662
 30
0.0
 10
306.999752
 20
347.798846
 30
0.0
 10
304.769529
 20
350.029016
 30
0.0
 10
301.999530
 20
350.029016
 30
0.0
  0
LWPOLYLINE
  5
13f
100
AcDbEntity
  8
0
 62
7
100
AcDbPolyline
 90
2
 70
0
 10
306.999752
 20
245.028461
 30
0.0
 10
306.999752
 20
345.028662
 30
0.0
  0
SPLINE
  5
140
100
AcDbEntity
  8
0
 62
7
100
AcDbSpline
 70
8
 71
3
 72
8
 73
4
 74
0
 40
0
 40
0
 40
0
 40
0
 40
1
 40
1
 40
1
 40
1
 10
296.999837
 20
585.028993
 30
0.0
 10
296.999837
 20
587.799177
 30
0.0
 10
294.769614
 20
590.029347
 30
0.0
 10
291.999615
 20
590.029347
 30
0.0
  0
LWPOLYLINE
  5
141
100
AcDbEntity
  8
0
 62
7
100
AcDbPolyline
 90
3
 70
0
 10
301.999530
 20
350.029016
 30
0.0
 10
296.999837
 20
350.029016
 30
0.0
 10
296.999837
 20
585.028993
 30
0.0
  0
SPLINE
  5
142
100
AcDbEntity
  8
0
 62
7
100
AcDbSpline
 70
8
 71
3
 72
8
 73
4
 74
0
 40
0
 40
0
 40
0
 40
0
 40
1
 40
1
 40
1
 40
1
 10
6.999993
 20
590.029347
 30
0.0
 10
4.229968
 20
590.029347
 30
0.0
 10
1.999745
 20
587.799177
 30
0.0
 10
1.999745
 20
585.028993
 30
0.0
  0
LWPOLYLINE
  5
143
100
AcDbEntity
  8
0
 62
7
100
AcDbPolyline
 90
2
 70
0
 10
291.999615
 20
590.029347
 30
0.0
 10
6.999993
 20
590.029347
 30
0.0
  0
LWPOLYLINE
  5
144
100
AcDbEntity
  8
0
 62
7
100
AcDbPolyline
 90
2
 70
0
 10
1.999745
 20
585.028993
 30
0.0
 10
1.999745
 20
-44.971172
 30
0.0
  0
ENDSEC
  0
SECTION
  2
OBJECTS
  0
DICTIONARY
  5
C
330
0
100
AcDbDictionary
  3
ACAD_GROUP
350
D
  3
ACAD_MLINESTYLE
350
17
  0
DICTIONARY
  5
D
330
C
100
AcDbDictionary
  0
DICTIONARY
  5
1A
330
C
100
AcDbDictionary
  0
DICTIONARY
  5
17
330
C
100
AcDbDictionary
  3
STANDARD
350
18
  0
DICTIONARY
  5
19
330
C
100
AcDbDictionary
  0
ENDSEC
  0
EOF
