999
"DXF R12 Output" (www.mydxf.blogspot.com)
 0 
SECTION
 2 
HEADER
 9 
$ACADVER
 1 
AC1009
 9 
$EXTMIN
 10 
 0 
 20 
 0 
 9 
$EXTMAX
 10 
 8.5 
 20 
 11 
 0 
ENDSEC
 0 
SECTION
 2 
ENTITIES
0
LINE
8
Layer 1
10
0.793749
20
297.794000
11
-0.793749
21
296.206000
0
LINE
8
Layer 1
10
0.000000
20
298.323000
11
0.000000
21
295.677000
0
LINE
8
Layer 1
10
2.116660
20
295.942000
11
1.058330
21
294.883670
0
LINE
8
Layer 1
10
1.587500
20
296.471000
11
0.529170
21
295.412670
0
LINE
8
Layer 1
10
1.058330
20
297.000000
11
0.000000
21
295.941670
0
LINE
8
0
10
794.999000
20
799.999000
11
795.979000
21
799.902156
0
LINE
8
0
10
795.979000
20
799.902156
11
796.912500
21
799.618750
0
LINE
8
0
10
796.912500
20
799.618750
11
797.773250
21
799.159469
0
LINE
8
0
10
797.773250
20
799.159469
11
798.535000
21
798.535000
0
LINE
8
0
10
798.535000
20
798.535000
11
799.159047
21
797.773250
0
LINE
8
0
10
799.159047
20
797.773250
11
799.618375
21
796.912500
0
LINE
8
0
10
799.618375
20
796.912500
11
799.902016
21
795.979000
0
LINE
8
0
10
799.902016
20
795.979000
11
799.999000
21
794.999000
0
LINE
8
0
10
4.999970
20
799.999000
11
794.999000
21
799.999000
0
LINE
8
0
10
799.999000
20
155.000000
11
799.902016
21
154.020016
0
LINE
8
0
10
799.902016
20
154.020016
11
799.618375
21
153.086625
0
LINE
8
0
10
799.618375
20
153.086625
11
799.159047
21
152.226172
0
LINE
8
0
10
799.159047
20
152.226172
11
798.535000
21
151.465000
0
LINE
8
0
10
798.535000
20
151.465000
11
797.773250
21
150.840375
0
LINE
8
0
10
797.773250
20
150.840375
11
796.912500
21
150.380750
0
LINE
8
0
10
796.912500
20
150.380750
11
795.979000
21
150.097000
0
LINE
8
0
10
795.979000
20
150.097000
11
794.999000
21
150.000000
0
LINE
8
0
10
799.999000
20
794.999000
11
799.999000
21
155.000000
0
LINE
8
0
10
4.999970
20
150.000000
11
4.019965
21
150.097000
0
LINE
8
0
10
4.019965
20
150.097000
11
3.086555
21
150.380750
0
LINE
8
0
10
3.086555
20
150.380750
11
2.225970
21
150.840375
0
LINE
8
0
10
2.225970
20
150.840375
11
1.464440
21
151.465000
0
LINE
8
0
10
1.464440
20
151.465000
11
0.840032
21
152.226172
0
LINE
8
0
10
0.840032
20
152.226172
11
0.380576
21
153.086625
0
LINE
8
0
10
0.380576
20
153.086625
11
0.096935
21
154.020016
0
LINE
8
0
10
0.096935
20
154.020016
11
-0.000026
21
155.000000
0
LINE
8
0
10
794.999000
20
150.000000
11
4.999970
21
150.000000
0
LINE
8
0
10
-0.000026
20
794.999000
11
0.096935
21
795.979000
0
LINE
8
0
10
0.096935
20
795.979000
11
0.380576
21
796.912500
0
LINE
8
0
10
0.380576
20
796.912500
11
0.840032
21
797.773250
0
LINE
8
0
10
0.840032
20
797.773250
11
1.464440
21
798.535000
0
LINE
8
0
10
1.464440
20
798.535000
11
2.225970
21
799.159469
0
LINE
8
0
10
2.225970
20
799.159469
11
3.086555
21
799.618750
0
LINE
8
0
10
3.086555
20
799.618750
11
4.019965
21
799.902156
0
LINE
8
0
10
4.019965
20
799.902156
11
4.999970
21
799.999000
0
LINE
8
0
10
-0.000026
20
155.000000
11
-0.000026
21
794.999000
 0 
ENDSEC
 0 
EOF