  0
SECTION
  2
HEADER
  9
$ACADVER
  1
AC1014
  9
$HANDSEED
  5
FFFF
  9
$INSUNITS
 70
     4
  9
$MEASUREMENT
 70
     1
  0
ENDSEC
  0
SECTION
  2
TABLES
  0
TABLE
  2
VPORT
  5
8
330
0
100
AcDbSymbolTable
 70
     4
  0
VPORT
  5
2E
330
8
100
AcDbSymbolTableRecord
100
AcDbViewportTableRecord
  2
*ACTIVE
 70
     0
 10
0.0
 20
0.0
 11
1.0
 21
1.0
 12
210.0
 22
148.5
 13
0.0
 23
0.0
 14
10.0
 24
10.0
 15
10.0
 25
10.0
 16
0.0
 26
0.0
 36
1.0
 17
0.0
 27
0.0
 37
0.0
 40
341.0
 41
1.24
 42
50.0
 43
0.0
 44
0.0
 50
0.0
 51
0.0
 71
     0
 72
   100
 73
     1
 74
     3
 75
     0
 76
     0
 77
     0
 78
     0
  0
ENDTAB
  0
TABLE
  2
LTYPE
  5
5
330
0
100
AcDbSymbolTable
 70
     1
  0
LTYPE
  5
14
330
5
100
AcDbSymbolTableRecord
100
AcDbLinetypeTableRecord
  2
BYBLOCK
 70
     0
  3

 72
    65
 73
     0
 40
0.0
  0
LTYPE
  5
15
330
5
100
AcDbSymbolTableRecord
100
AcDbLinetypeTableRecord
  2
BYLAYER
 70
     0
  3

 72
    65
 73
     0
 40
0.0
  0
LTYPE
  5
16
330
5
100
AcDbSymbolTableRecord
100
AcDbLinetypeTableRecord
  2
CONTINUOUS
 70
     0
  3
Solid line
 72
    65
 73
     0
 40
0.0
  0
ENDTAB
  0
TABLE
  2
LAYER
  5
2
100
AcDbSymbolTable
 70
1
  0
LAYER
  5
50
100
AcDbSymbolTableRecord
100
AcDbLayerTableRecord
  2
0
 70
0
  6
CONTINUOUS
  0
ENDTAB
  0
TABLE
  2
STYLE
  5
3
330
0
100
AcDbSymbolTable
 70
     1
  0
STYLE
  5
11
330
3
100
AcDbSymbolTableRecord
100
AcDbTextStyleTableRecord
  2
STANDARD
 70
     0
 40
0.0
 41
1.0
 50
0.0
 71
     0
 42
2.5
  3
txt
  4

  0
ENDTAB
  0
TABLE
  2
VIEW
  5
6
330
0
100
AcDbSymbolTable
 70
     0
  0
ENDTAB
  0
TABLE
  2
UCS
  5
7
330
0
100
AcDbSymbolTable
 70
     0
  0
ENDTAB
  0
TABLE
  2
APPID
  5
9
330
0
100
AcDbSymbolTable
 70
     2
  0
APPID
  5
12
330
9
100
AcDbSymbolTableRecord
100
AcDbRegAppTableRecord
  2
ACAD
 70
     0
  0
ENDTAB
  0
TABLE
  2
DIMSTYLE
  5
A
330
0
100
AcDbSymbolTable
 70
     1
  0
DIMSTYLE
105
27
330
A
100
AcDbSymbolTableRecord
100
AcDbDimStyleTableRecord
  2
ISO-25
 70
     0
  3

  4

  5

  6

  7

 40
1.0
 41
2.5
 42
0.625
 43
3.75
 44
1.25
 45
0.0
 46
0.0
 47
0.0
 48
0.0
140
2.5
141
2.5
142
0.0
143
0.03937007874016
144
1.0
145
0.0
146
1.0
147
0.625
 71
     0
 72
     0
 73
     0
 74
     0
 75
     0
 76
     0
 77
     1
 78
     8
170
     0
171
     3
172
     1
173
     0
174
     0
175
     0
176
     0
177
     0
178
     0
270
     2
271
     2
272
     2
273
     2
274
     3
340
11
275
     0
280
     0
281
     0
282
     0
283
     0
284
     8
285
     0
286
     0
287
     3
288
     0
  0
ENDTAB
  0
TABLE
  2
BLOCK_RECORD
  5
1
330
0
100
AcDbSymbolTable
 70
     1
  0
BLOCK_RECORD
  5
1F
330
1
100
AcDbSymbolTableRecord
100
AcDbBlockTableRecord
  2
*MODEL_SPACE
  0
BLOCK_RECORD
  5
1B
330
1
100
AcDbSymbolTableRecord
100
AcDbBlockTableRecord
  2
*PAPER_SPACE
  0
ENDTAB
  0
ENDSEC
  0
SECTION
  2
BLOCKS
  0
BLOCK
  5
20
330
1F
100
AcDbEntity
  8
0
100
AcDbBlockBegin
  2
*MODEL_SPACE
 70
     0
 10
0.0
 20
0.0
 30
0.0
  3
*MODEL_SPACE
  1

  0
ENDBLK
  5
21
330
1F
100
AcDbEntity
  8
0
100
AcDbBlockEnd
  0
BLOCK
  5
1C
330
1B
100
AcDbEntity
 67
     1
  8
0
100
AcDbBlockBegin
  2
*PAPER_SPACE
  1

  0
ENDBLK
  5
1D
330
1B
100
AcDbEntity
 67
     1
  8
0
100
AcDbBlockEnd
  0
ENDSEC
  0
SECTION
  2
ENTITIES
  0
SPLINE
  5
100
100
AcDbEntity
  8
0
 62
7
100
AcDbSpline
 70
8
 71
3
 72
8
 73
4
 74
0
 40
0
 40
0
 40
0
 40
0
 40
1
 40
1
 40
1
 40
1
 10
139.999592
 20
460.999755
 30
0.0
 10
139.999592
 20
463.769675
 30
0.0
 10
137.770216
 20
465.999580
 30
0.0
 10
134.999767
 20
465.999580
 30
0.0
  0
SPLINE
  5
101
100
AcDbEntity
  8
0
 62
7
100
AcDbSpline
 70
8
 71
3
 72
8
 73
4
 74
0
 40
0
 40
0
 40
0
 40
0
 40
1
 40
1
 40
1
 40
1
 10
129.999678
 20
470.999670
 30
0.0
 10
129.999678
 20
473.769589
 30
0.0
 10
127.770301
 20
475.999495
 30
0.0
 10
125.000117
 20
475.999495
 30
0.0
  0
LWPOLYLINE
  5
102
100
AcDbEntity
  8
0
 62
7
100
AcDbPolyline
 90
3
 70
0
 10
134.999767
 20
465.999580
 30
0.0
 10
129.999678
 20
465.999580
 30
0.0
 10
129.999678
 20
470.999670
 30
0.0
  0
SPLINE
  5
103
100
AcDbEntity
  8
0
 62
7
100
AcDbSpline
 70
8
 71
3
 72
8
 73
4
 74
0
 40
0
 40
0
 40
0
 40
0
 40
1
 40
1
 40
1
 40
1
 10
15.000004
 20
475.999495
 30
0.0
 10
12.229820
 20
475.999495
 30
0.0
 10
9.999914
 20
473.769854
 30
0.0
 10
9.999914
 20
470.999670
 30
0.0
  0
LWPOLYLINE
  5
104
100
AcDbEntity
  8
0
 62
7
100
AcDbPolyline
 90
2
 70
0
 10
125.000117
 20
475.999495
 30
0.0
 10
15.000004
 20
475.999495
 30
0.0
  0
SPLINE
  5
105
100
AcDbEntity
  8
0
 62
7
100
AcDbSpline
 70
8
 71
3
 72
8
 73
4
 74
0
 40
0
 40
0
 40
0
 40
0
 40
1
 40
1
 40
1
 40
1
 10
4.999560
 20
465.999580
 30
0.0
 10
2.229641
 20
465.999580
 30
0.0
 10
0.000000
 20
463.769675
 30
0.0
 10
0.000000
 20
460.999755
 30
0.0
  0
LWPOLYLINE
  5
106
100
AcDbEntity
  8
0
 62
7
100
AcDbPolyline
 90
3
 70
0
 10
9.999914
 20
470.999670
 30
0.0
 10
9.999914
 20
465.999580
 30
0.0
 10
4.999560
 20
465.999580
 30
0.0
  0
SPLINE
  5
107
100
AcDbEntity
  8
0
 62
7
100
AcDbSpline
 70
8
 71
3
 72
8
 73
4
 74
0
 40
0
 40
0
 40
0
 40
0
 40
1
 40
1
 40
1
 40
1
 10
0.000000
 20
331.000075
 30
0.0
 10
0.000000
 20
328.229891
 30
0.0
 10
2.229641
 20
325.999721
 30
0.0
 10
4.999560
 20
325.999721
 30
0.0
  0
LWPOLYLINE
  5
108
100
AcDbEntity
  8
0
 62
7
100
AcDbPolyline
 90
2
 70
0
 10
0.000000
 20
460.999755
 30
0.0
 10
0.000000
 20
331.000075
 30
0.0
  0
SPLINE
  5
109
100
AcDbEntity
  8
0
 62
7
100
AcDbSpline
 70
8
 71
3
 72
8
 73
4
 74
0
 40
0
 40
0
 40
0
 40
0
 40
1
 40
1
 40
1
 40
1
 10
9.999914
 20
321.000161
 30
0.0
 10
9.999914
 20
318.229977
 30
0.0
 10
12.229820
 20
315.999278
 30
0.0
 10
15.000004
 20
315.999278
 30
0.0
  0
LWPOLYLINE
  5
10a
100
AcDbEntity
  8
0
 62
7
100
AcDbPolyline
 90
3
 70
0
 10
4.999560
 20
325.999721
 30
0.0
 10
9.999914
 20
325.999721
 30
0.0
 10
9.999914
 20
321.000161
 30
0.0
  0
SPLINE
  5
10b
100
AcDbEntity
  8
0
 62
7
100
AcDbSpline
 70
8
 71
3
 72
8
 73
4
 74
0
 40
0
 40
0
 40
0
 40
0
 40
1
 40
1
 40
1
 40
1
 10
125.000117
 20
315.999278
 30
0.0
 10
127.770037
 20
315.999278
 30
0.0
 10
129.999678
 20
318.229977
 30
0.0
 10
129.999678
 20
321.000161
 30
0.0
  0
LWPOLYLINE
  5
10c
100
AcDbEntity
  8
0
 62
7
100
AcDbPolyline
 90
2
 70
0
 10
15.000004
 20
315.999278
 30
0.0
 10
125.000117
 20
315.999278
 30
0.0
  0
SPLINE
  5
10d
100
AcDbEntity
  8
0
 62
7
100
AcDbSpline
 70
8
 71
3
 72
8
 73
4
 74
0
 40
0
 40
0
 40
0
 40
0
 40
1
 40
1
 40
1
 40
1
 10
134.999767
 20
325.999721
 30
0.0
 10
137.770216
 20
325.999721
 30
0.0
 10
139.999592
 20
328.229891
 30
0.0
 10
139.999592
 20
331.000075
 30
0.0
  0
LWPOLYLINE
  5
10e
100
AcDbEntity
  8
0
 62
7
100
AcDbPolyline
 90
3
 70
0
 10
129.999678
 20
321.000161
 30
0.0
 10
129.999678
 20
325.999721
 30
0.0
 10
134.999767
 20
325.999721
 30
0.0
  0
SPLINE
  5
10f
100
AcDbEntity
  8
0
 62
7
100
AcDbSpline
 70
8
 71
3
 72
8
 73
4
 74
0
 40
0
 40
0
 40
0
 40
0
 40
1
 40
1
 40
1
 40
1
 10
81.999565
 20
395.999651
 30
0.0
 10
81.999565
 20
394.895017
 30
0.0
 10
81.104745
 20
393.999403
 30
0.0
 10
79.999582
 20
393.999668
 30
0.0
  0
SPLINE
  5
110
100
AcDbEntity
  8
0
 62
7
100
AcDbSpline
 70
8
 71
3
 72
8
 73
4
 74
0
 40
0
 40
0
 40
0
 40
0
 40
1
 40
1
 40
1
 40
1
 10
79.999582
 20
393.999668
 30
0.0
 10
78.895213
 20
393.999668
 30
0.0
 10
77.999335
 20
394.895281
 30
0.0
 10
77.999335
 20
395.999651
 30
0.0
  0
SPLINE
  5
111
100
AcDbEntity
  8
0
 62
7
100
AcDbSpline
 70
8
 71
3
 72
8
 73
4
 74
0
 40
0
 40
0
 40
0
 40
0
 40
1
 40
1
 40
1
 40
1
 10
77.999335
 20
395.999651
 30
0.0
 10
77.999335
 20
397.104285
 30
0.0
 10
78.895477
 20
397.999633
 30
0.0
 10
79.999582
 20
397.999633
 30
0.0
  0
SPLINE
  5
112
100
AcDbEntity
  8
0
 62
7
100
AcDbSpline
 70
8
 71
3
 72
8
 73
4
 74
0
 40
0
 40
0
 40
0
 40
0
 40
1
 40
1
 40
1
 40
1
 10
79.999582
 20
397.999633
 30
0.0
 10
81.104216
 20
397.999633
 30
0.0
 10
81.999565
 20
397.104285
 30
0.0
 10
81.999565
 20
395.999651
 30
0.0
  0
LWPOLYLINE
  5
113
100
AcDbEntity
  8
0
 62
7
100
AcDbPolyline
 90
2
 70
0
 10
139.999592
 20
331.000075
 30
0.0
 10
139.999592
 20
460.999755
 30
0.0
  0
SPLINE
  5
114
100
AcDbEntity
  8
0
 62
7
100
AcDbSpline
 70
8
 71
3
 72
8
 73
4
 74
0
 40
0
 40
0
 40
0
 40
0
 40
1
 40
1
 40
1
 40
1
 10
61.999736
 20
395.999651
 30
0.0
 10
61.999736
 20
394.895017
 30
0.0
 10
61.104916
 20
393.999403
 30
0.0
 10
59.999753
 20
393.999668
 30
0.0
  0
SPLINE
  5
115
100
AcDbEntity
  8
0
 62
7
100
AcDbSpline
 70
8
 71
3
 72
8
 73
4
 74
0
 40
0
 40
0
 40
0
 40
0
 40
1
 40
1
 40
1
 40
1
 10
59.999753
 20
393.999668
 30
0.0
 10
58.895384
 20
393.999668
 30
0.0
 10
57.999506
 20
394.895281
 30
0.0
 10
57.999506
 20
395.999651
 30
0.0
  0
SPLINE
  5
116
100
AcDbEntity
  8
0
 62
7
100
AcDbSpline
 70
8
 71
3
 72
8
 73
4
 74
0
 40
0
 40
0
 40
0
 40
0
 40
1
 40
1
 40
1
 40
1
 10
57.999506
 20
395.999651
 30
0.0
 10
57.999506
 20
397.104285
 30
0.0
 10
58.895648
 20
397.999633
 30
0.0
 10
59.999753
 20
397.999633
 30
0.0
  0
SPLINE
  5
117
100
AcDbEntity
  8
0
 62
7
100
AcDbSpline
 70
8
 71
3
 72
8
 73
4
 74
0
 40
0
 40
0
 40
0
 40
0
 40
1
 40
1
 40
1
 40
1
 10
59.999753
 20
397.999633
 30
0.0
 10
61.104387
 20
397.999633
 30
0.0
 10
61.999736
 20
397.104285
 30
0.0
 10
61.999736
 20
395.999651
 30
0.0
  0
LWPOLYLINE
  5
118
100
AcDbEntity
  8
0
 62
7
100
AcDbPolyline
 90
1
 70
1
 10
81.999565
 20
395.999651
 30
0.0
  0
SPLINE
  5
119
100
AcDbEntity
  8
0
 62
7
100
AcDbSpline
 70
8
 71
3
 72
8
 73
4
 74
0
 40
0
 40
0
 40
0
 40
0
 40
1
 40
1
 40
1
 40
1
 10
139.999592
 20
622.999955
 30
0.0
 10
139.999592
 20
625.769875
 30
0.0
 10
137.770216
 20
627.999780
 30
0.0
 10
134.999767
 20
627.999780
 30
0.0
  0
LWPOLYLINE
  5
11a
100
AcDbEntity
  8
0
 62
7
100
AcDbPolyline
 90
1
 70
1
 10
61.999736
 20
395.999651
 30
0.0
  0
SPLINE
  5
11b
100
AcDbEntity
  8
0
 62
7
100
AcDbSpline
 70
8
 71
3
 72
8
 73
4
 74
0
 40
0
 40
0
 40
0
 40
0
 40
1
 40
1
 40
1
 40
1
 10
129.999678
 20
632.999869
 30
0.0
 10
129.999678
 20
635.769789
 30
0.0
 10
127.770301
 20
637.999694
 30
0.0
 10
125.000117
 20
637.999694
 30
0.0
  0
LWPOLYLINE
  5
11c
100
AcDbEntity
  8
0
 62
7
100
AcDbPolyline
 90
3
 70
0
 10
134.999767
 20
627.999780
 30
0.0
 10
129.999678
 20
627.999780
 30
0.0
 10
129.999678
 20
632.999869
 30
0.0
  0
SPLINE
  5
11d
100
AcDbEntity
  8
0
 62
7
100
AcDbSpline
 70
8
 71
3
 72
8
 73
4
 74
0
 40
0
 40
0
 40
0
 40
0
 40
1
 40
1
 40
1
 40
1
 10
15.000004
 20
637.999694
 30
0.0
 10
12.229820
 20
637.999694
 30
0.0
 10
9.999914
 20
635.770053
 30
0.0
 10
9.999914
 20
632.999869
 30
0.0
  0
LWPOLYLINE
  5
11e
100
AcDbEntity
  8
0
 62
7
100
AcDbPolyline
 90
2
 70
0
 10
125.000117
 20
637.999694
 30
0.0
 10
15.000004
 20
637.999694
 30
0.0
  0
SPLINE
  5
11f
100
AcDbEntity
  8
0
 62
7
100
AcDbSpline
 70
8
 71
3
 72
8
 73
4
 74
0
 40
0
 40
0
 40
0
 40
0
 40
1
 40
1
 40
1
 40
1
 10
4.999560
 20
627.999780
 30
0.0
 10
2.229641
 20
627.999780
 30
0.0
 10
0.000000
 20
625.769875
 30
0.0
 10
0.000000
 20
622.999955
 30
0.0
  0
LWPOLYLINE
  5
120
100
AcDbEntity
  8
0
 62
7
100
AcDbPolyline
 90
3
 70
0
 10
9.999914
 20
632.999869
 30
0.0
 10
9.999914
 20
627.999780
 30
0.0
 10
4.999560
 20
627.999780
 30
0.0
  0
SPLINE
  5
121
100
AcDbEntity
  8
0
 62
7
100
AcDbSpline
 70
8
 71
3
 72
8
 73
4
 74
0
 40
0
 40
0
 40
0
 40
0
 40
1
 40
1
 40
1
 40
1
 10
0.000000
 20
493.000275
 30
0.0
 10
0.000000
 20
490.230091
 30
0.0
 10
2.229641
 20
487.999921
 30
0.0
 10
4.999560
 20
487.999921
 30
0.0
  0
LWPOLYLINE
  5
122
100
AcDbEntity
  8
0
 62
7
100
AcDbPolyline
 90
2
 70
0
 10
0.000000
 20
622.999955
 30
0.0
 10
0.000000
 20
493.000275
 30
0.0
  0
SPLINE
  5
123
100
AcDbEntity
  8
0
 62
7
100
AcDbSpline
 70
8
 71
3
 72
8
 73
4
 74
0
 40
0
 40
0
 40
0
 40
0
 40
1
 40
1
 40
1
 40
1
 10
9.999914
 20
483.000361
 30
0.0
 10
9.999914
 20
480.230177
 30
0.0
 10
12.229820
 20
477.999477
 30
0.0
 10
15.000004
 20
477.999477
 30
0.0
  0
LWPOLYLINE
  5
124
100
AcDbEntity
  8
0
 62
7
100
AcDbPolyline
 90
3
 70
0
 10
4.999560
 20
487.999921
 30
0.0
 10
9.999914
 20
487.999921
 30
0.0
 10
9.999914
 20
483.000361
 30
0.0
  0
SPLINE
  5
125
100
AcDbEntity
  8
0
 62
7
100
AcDbSpline
 70
8
 71
3
 72
8
 73
4
 74
0
 40
0
 40
0
 40
0
 40
0
 40
1
 40
1
 40
1
 40
1
 10
125.000117
 20
477.999477
 30
0.0
 10
127.770037
 20
477.999477
 30
0.0
 10
129.999678
 20
480.230177
 30
0.0
 10
129.999678
 20
483.000361
 30
0.0
  0
LWPOLYLINE
  5
126
100
AcDbEntity
  8
0
 62
7
100
AcDbPolyline
 90
2
 70
0
 10
15.000004
 20
477.999477
 30
0.0
 10
125.000117
 20
477.999477
 30
0.0
  0
SPLINE
  5
127
100
AcDbEntity
  8
0
 62
7
100
AcDbSpline
 70
8
 71
3
 72
8
 73
4
 74
0
 40
0
 40
0
 40
0
 40
0
 40
1
 40
1
 40
1
 40
1
 10
134.999767
 20
487.999921
 30
0.0
 10
137.770216
 20
487.999921
 30
0.0
 10
139.999592
 20
490.230091
 30
0.0
 10
139.999592
 20
493.000275
 30
0.0
  0
LWPOLYLINE
  5
128
100
AcDbEntity
  8
0
 62
7
100
AcDbPolyline
 90
3
 70
0
 10
129.999678
 20
483.000361
 30
0.0
 10
129.999678
 20
487.999921
 30
0.0
 10
134.999767
 20
487.999921
 30
0.0
  0
SPLINE
  5
129
100
AcDbEntity
  8
0
 62
7
100
AcDbSpline
 70
8
 71
3
 72
8
 73
4
 74
0
 40
0
 40
0
 40
0
 40
0
 40
1
 40
1
 40
1
 40
1
 10
81.999565
 20
557.999850
 30
0.0
 10
81.999565
 20
556.895216
 30
0.0
 10
81.104745
 20
555.999603
 30
0.0
 10
79.999582
 20
555.999868
 30
0.0
  0
SPLINE
  5
12a
100
AcDbEntity
  8
0
 62
7
100
AcDbSpline
 70
8
 71
3
 72
8
 73
4
 74
0
 40
0
 40
0
 40
0
 40
0
 40
1
 40
1
 40
1
 40
1
 10
79.999582
 20
555.999868
 30
0.0
 10
78.895213
 20
555.999868
 30
0.0
 10
77.999335
 20
556.895481
 30
0.0
 10
77.999335
 20
557.999850
 30
0.0
  0
SPLINE
  5
12b
100
AcDbEntity
  8
0
 62
7
100
AcDbSpline
 70
8
 71
3
 72
8
 73
4
 74
0
 40
0
 40
0
 40
0
 40
0
 40
1
 40
1
 40
1
 40
1
 10
77.999335
 20
557.999850
 30
0.0
 10
77.999335
 20
559.104484
 30
0.0
 10
78.895477
 20
559.999833
 30
0.0
 10
79.999582
 20
559.999833
 30
0.0
  0
SPLINE
  5
12c
100
AcDbEntity
  8
0
 62
7
100
AcDbSpline
 70
8
 71
3
 72
8
 73
4
 74
0
 40
0
 40
0
 40
0
 40
0
 40
1
 40
1
 40
1
 40
1
 10
79.999582
 20
559.999833
 30
0.0
 10
81.104216
 20
559.999833
 30
0.0
 10
81.999565
 20
559.104484
 30
0.0
 10
81.999565
 20
557.999850
 30
0.0
  0
LWPOLYLINE
  5
12d
100
AcDbEntity
  8
0
 62
7
100
AcDbPolyline
 90
2
 70
0
 10
139.999592
 20
493.000275
 30
0.0
 10
139.999592
 20
622.999955
 30
0.0
  0
SPLINE
  5
12e
100
AcDbEntity
  8
0
 62
7
100
AcDbSpline
 70
8
 71
3
 72
8
 73
4
 74
0
 40
0
 40
0
 40
0
 40
0
 40
1
 40
1
 40
1
 40
1
 10
61.999736
 20
557.999850
 30
0.0
 10
61.999736
 20
556.895216
 30
0.0
 10
61.104916
 20
555.999603
 30
0.0
 10
59.999753
 20
555.999868
 30
0.0
  0
SPLINE
  5
12f
100
AcDbEntity
  8
0
 62
7
100
AcDbSpline
 70
8
 71
3
 72
8
 73
4
 74
0
 40
0
 40
0
 40
0
 40
0
 40
1
 40
1
 40
1
 40
1
 10
59.999753
 20
555.999868
 30
0.0
 10
58.895384
 20
555.999868
 30
0.0
 10
57.999506
 20
556.895481
 30
0.0
 10
57.999506
 20
557.999850
 30
0.0
  0
SPLINE
  5
130
100
AcDbEntity
  8
0
 62
7
100
AcDbSpline
 70
8
 71
3
 72
8
 73
4
 74
0
 40
0
 40
0
 40
0
 40
0
 40
1
 40
1
 40
1
 40
1
 10
57.999506
 20
557.999850
 30
0.0
 10
57.999506
 20
559.104484
 30
0.0
 10
58.895648
 20
559.999833
 30
0.0
 10
59.999753
 20
559.999833
 30
0.0
  0
SPLINE
  5
131
100
AcDbEntity
  8
0
 62
7
100
AcDbSpline
 70
8
 71
3
 72
8
 73
4
 74
0
 40
0
 40
0
 40
0
 40
0
 40
1
 40
1
 40
1
 40
1
 10
59.999753
 20
559.999833
 30
0.0
 10
61.104387
 20
559.999833
 30
0.0
 10
61.999736
 20
559.104484
 30
0.0
 10
61.999736
 20
557.999850
 30
0.0
  0
LWPOLYLINE
  5
132
100
AcDbEntity
  8
0
 62
7
100
AcDbPolyline
 90
1
 70
1
 10
81.999565
 20
557.999850
 30
0.0
  0
SPLINE
  5
133
100
AcDbEntity
  8
0
 62
7
100
AcDbSpline
 70
8
 71
3
 72
8
 73
4
 74
0
 40
0
 40
0
 40
0
 40
0
 40
1
 40
1
 40
1
 40
1
 10
139.999592
 20
785.000261
 30
0.0
 10
139.999592
 20
787.770180
 30
0.0
 10
137.770216
 20
790.000086
 30
0.0
 10
134.999767
 20
790.000086
 30
0.0
  0
LWPOLYLINE
  5
134
100
AcDbEntity
  8
0
 62
7
100
AcDbPolyline
 90
1
 70
1
 10
61.999736
 20
557.999850
 30
0.0
  0
SPLINE
  5
135
100
AcDbEntity
  8
0
 62
7
100
AcDbSpline
 70
8
 71
3
 72
8
 73
4
 74
0
 40
0
 40
0
 40
0
 40
0
 40
1
 40
1
 40
1
 40
1
 10
129.999678
 20
795.000175
 30
0.0
 10
129.999678
 20
797.770095
 30
0.0
 10
127.770301
 20
800.000000
 30
0.0
 10
125.000117
 20
800.000000
 30
0.0
  0
LWPOLYLINE
  5
136
100
AcDbEntity
  8
0
 62
7
100
AcDbPolyline
 90
3
 70
0
 10
134.999767
 20
790.000086
 30
0.0
 10
129.999678
 20
790.000086
 30
0.0
 10
129.999678
 20
795.000175
 30
0.0
  0
SPLINE
  5
137
100
AcDbEntity
  8
0
 62
7
100
AcDbSpline
 70
8
 71
3
 72
8
 73
4
 74
0
 40
0
 40
0
 40
0
 40
0
 40
1
 40
1
 40
1
 40
1
 10
15.000004
 20
800.000000
 30
0.0
 10
12.229820
 20
800.000000
 30
0.0
 10
9.999914
 20
797.770359
 30
0.0
 10
9.999914
 20
795.000175
 30
0.0
  0
LWPOLYLINE
  5
138
100
AcDbEntity
  8
0
 62
7
100
AcDbPolyline
 90
2
 70
0
 10
125.000117
 20
800.000000
 30
0.0
 10
15.000004
 20
800.000000
 30
0.0
  0
SPLINE
  5
139
100
AcDbEntity
  8
0
 62
7
100
AcDbSpline
 70
8
 71
3
 72
8
 73
4
 74
0
 40
0
 40
0
 40
0
 40
0
 40
1
 40
1
 40
1
 40
1
 10
4.999560
 20
790.000086
 30
0.0
 10
2.229641
 20
790.000086
 30
0.0
 10
0.000000
 20
787.770180
 30
0.0
 10
0.000000
 20
785.000261
 30
0.0
  0
LWPOLYLINE
  5
13a
100
AcDbEntity
  8
0
 62
7
100
AcDbPolyline
 90
3
 70
0
 10
9.999914
 20
795.000175
 30
0.0
 10
9.999914
 20
790.000086
 30
0.0
 10
4.999560
 20
790.000086
 30
0.0
  0
SPLINE
  5
13b
100
AcDbEntity
  8
0
 62
7
100
AcDbSpline
 70
8
 71
3
 72
8
 73
4
 74
0
 40
0
 40
0
 40
0
 40
0
 40
1
 40
1
 40
1
 40
1
 10
0.000000
 20
655.000475
 30
0.0
 10
0.000000
 20
652.230291
 30
0.0
 10
2.229641
 20
650.000121
 30
0.0
 10
4.999560
 20
650.000121
 30
0.0
  0
LWPOLYLINE
  5
13c
100
AcDbEntity
  8
0
 62
7
100
AcDbPolyline
 90
2
 70
0
 10
0.000000
 20
785.000261
 30
0.0
 10
0.000000
 20
655.000475
 30
0.0
  0
SPLINE
  5
13d
100
AcDbEntity
  8
0
 62
7
100
AcDbSpline
 70
8
 71
3
 72
8
 73
4
 74
0
 40
0
 40
0
 40
0
 40
0
 40
1
 40
1
 40
1
 40
1
 10
9.999914
 20
645.000560
 30
0.0
 10
9.999914
 20
642.230376
 30
0.0
 10
12.229820
 20
639.999677
 30
0.0
 10
15.000004
 20
639.999677
 30
0.0
  0
LWPOLYLINE
  5
13e
100
AcDbEntity
  8
0
 62
7
100
AcDbPolyline
 90
3
 70
0
 10
4.999560
 20
650.000121
 30
0.0
 10
9.999914
 20
650.000121
 30
0.0
 10
9.999914
 20
645.000560
 30
0.0
  0
SPLINE
  5
13f
100
AcDbEntity
  8
0
 62
7
100
AcDbSpline
 70
8
 71
3
 72
8
 73
4
 74
0
 40
0
 40
0
 40
0
 40
0
 40
1
 40
1
 40
1
 40
1
 10
125.000117
 20
639.999677
 30
0.0
 10
127.770037
 20
639.999677
 30
0.0
 10
129.999678
 20
642.230376
 30
0.0
 10
129.999678
 20
645.000560
 30
0.0
  0
LWPOLYLINE
  5
140
100
AcDbEntity
  8
0
 62
7
100
AcDbPolyline
 90
2
 70
0
 10
15.000004
 20
639.999677
 30
0.0
 10
125.000117
 20
639.999677
 30
0.0
  0
SPLINE
  5
141
100
AcDbEntity
  8
0
 62
7
100
AcDbSpline
 70
8
 71
3
 72
8
 73
4
 74
0
 40
0
 40
0
 40
0
 40
0
 40
1
 40
1
 40
1
 40
1
 10
134.999767
 20
650.000121
 30
0.0
 10
137.770216
 20
650.000121
 30
0.0
 10
139.999592
 20
652.230291
 30
0.0
 10
139.999592
 20
655.000475
 30
0.0
  0
LWPOLYLINE
  5
142
100
AcDbEntity
  8
0
 62
7
100
AcDbPolyline
 90
3
 70
0
 10
129.999678
 20
645.000560
 30
0.0
 10
129.999678
 20
650.000121
 30
0.0
 10
134.999767
 20
650.000121
 30
0.0
  0
SPLINE
  5
143
100
AcDbEntity
  8
0
 62
7
100
AcDbSpline
 70
8
 71
3
 72
8
 73
4
 74
0
 40
0
 40
0
 40
0
 40
0
 40
1
 40
1
 40
1
 40
1
 10
81.999565
 20
720.000050
 30
0.0
 10
81.999565
 20
718.895416
 30
0.0
 10
81.104745
 20
717.999803
 30
0.0
 10
79.999582
 20
718.000067
 30
0.0
  0
SPLINE
  5
144
100
AcDbEntity
  8
0
 62
7
100
AcDbSpline
 70
8
 71
3
 72
8
 73
4
 74
0
 40
0
 40
0
 40
0
 40
0
 40
1
 40
1
 40
1
 40
1
 10
79.999582
 20
718.000067
 30
0.0
 10
78.895213
 20
718.000067
 30
0.0
 10
77.999335
 20
718.895681
 30
0.0
 10
77.999335
 20
720.000050
 30
0.0
  0
SPLINE
  5
145
100
AcDbEntity
  8
0
 62
7
100
AcDbSpline
 70
8
 71
3
 72
8
 73
4
 74
0
 40
0
 40
0
 40
0
 40
0
 40
1
 40
1
 40
1
 40
1
 10
77.999335
 20
720.000050
 30
0.0
 10
77.999335
 20
721.104684
 30
0.0
 10
78.895477
 20
722.000033
 30
0.0
 10
79.999582
 20
722.000033
 30
0.0
  0
SPLINE
  5
146
100
AcDbEntity
  8
0
 62
7
100
AcDbSpline
 70
8
 71
3
 72
8
 73
4
 74
0
 40
0
 40
0
 40
0
 40
0
 40
1
 40
1
 40
1
 40
1
 10
79.999582
 20
722.000033
 30
0.0
 10
81.104216
 20
722.000033
 30
0.0
 10
81.999565
 20
721.104684
 30
0.0
 10
81.999565
 20
720.000050
 30
0.0
  0
LWPOLYLINE
  5
147
100
AcDbEntity
  8
0
 62
7
100
AcDbPolyline
 90
2
 70
0
 10
139.999592
 20
655.000475
 30
0.0
 10
139.999592
 20
785.000261
 30
0.0
  0
SPLINE
  5
148
100
AcDbEntity
  8
0
 62
7
100
AcDbSpline
 70
8
 71
3
 72
8
 73
4
 74
0
 40
0
 40
0
 40
0
 40
0
 40
1
 40
1
 40
1
 40
1
 10
61.999736
 20
720.000050
 30
0.0
 10
61.999736
 20
718.895416
 30
0.0
 10
61.104916
 20
717.999803
 30
0.0
 10
59.999753
 20
718.000067
 30
0.0
  0
SPLINE
  5
149
100
AcDbEntity
  8
0
 62
7
100
AcDbSpline
 70
8
 71
3
 72
8
 73
4
 74
0
 40
0
 40
0
 40
0
 40
0
 40
1
 40
1
 40
1
 40
1
 10
59.999753
 20
718.000067
 30
0.0
 10
58.895384
 20
718.000067
 30
0.0
 10
57.999506
 20
718.895681
 30
0.0
 10
57.999506
 20
720.000050
 30
0.0
  0
SPLINE
  5
14a
100
AcDbEntity
  8
0
 62
7
100
AcDbSpline
 70
8
 71
3
 72
8
 73
4
 74
0
 40
0
 40
0
 40
0
 40
0
 40
1
 40
1
 40
1
 40
1
 10
57.999506
 20
720.000050
 30
0.0
 10
57.999506
 20
721.104684
 30
0.0
 10
58.895648
 20
722.000033
 30
0.0
 10
59.999753
 20
722.000033
 30
0.0
  0
SPLINE
  5
14b
100
AcDbEntity
  8
0
 62
7
100
AcDbSpline
 70
8
 71
3
 72
8
 73
4
 74
0
 40
0
 40
0
 40
0
 40
0
 40
1
 40
1
 40
1
 40
1
 10
59.999753
 20
722.000033
 30
0.0
 10
61.104387
 20
722.000033
 30
0.0
 10
61.999736
 20
721.104684
 30
0.0
 10
61.999736
 20
720.000050
 30
0.0
  0
LWPOLYLINE
  5
14c
100
AcDbEntity
  8
0
 62
7
100
AcDbPolyline
 90
1
 70
1
 10
81.999565
 20
720.000050
 30
0.0
  0
SPLINE
  5
14d
100
AcDbEntity
  8
0
 62
7
100
AcDbSpline
 70
8
 71
3
 72
8
 73
4
 74
0
 40
0
 40
0
 40
0
 40
0
 40
1
 40
1
 40
1
 40
1
 10
281.999437
 20
460.999755
 30
0.0
 10
281.999437
 20
463.769675
 30
0.0
 10
279.770060
 20
465.999580
 30
0.0
 10
276.999612
 20
465.999580
 30
0.0
  0
LWPOLYLINE
  5
14e
100
AcDbEntity
  8
0
 62
7
100
AcDbPolyline
 90
1
 70
1
 10
61.999736
 20
720.000050
 30
0.0
  0
SPLINE
  5
14f
100
AcDbEntity
  8
0
 62
7
100
AcDbSpline
 70
8
 71
3
 72
8
 73
4
 74
0
 40
0
 40
0
 40
0
 40
0
 40
1
 40
1
 40
1
 40
1
 10
271.999522
 20
470.999670
 30
0.0
 10
271.999522
 20
473.769589
 30
0.0
 10
269.770146
 20
475.999495
 30
0.0
 10
266.999962
 20
475.999495
 30
0.0
  0
LWPOLYLINE
  5
150
100
AcDbEntity
  8
0
 62
7
100
AcDbPolyline
 90
3
 70
0
 10
276.999612
 20
465.999580
 30
0.0
 10
271.999522
 20
465.999580
 30
0.0
 10
271.999522
 20
470.999670
 30
0.0
  0
SPLINE
  5
151
100
AcDbEntity
  8
0
 62
7
100
AcDbSpline
 70
8
 71
3
 72
8
 73
4
 74
0
 40
0
 40
0
 40
0
 40
0
 40
1
 40
1
 40
1
 40
1
 10
156.999843
 20
475.999495
 30
0.0
 10
154.229659
 20
475.999495
 30
0.0
 10
151.999754
 20
473.769854
 30
0.0
 10
151.999754
 20
470.999670
 30
0.0
  0
LWPOLYLINE
  5
152
100
AcDbEntity
  8
0
 62
7
100
AcDbPolyline
 90
2
 70
0
 10
266.999962
 20
475.999495
 30
0.0
 10
156.999843
 20
475.999495
 30
0.0
  0
SPLINE
  5
153
100
AcDbEntity
  8
0
 62
7
100
AcDbSpline
 70
8
 71
3
 72
8
 73
4
 74
0
 40
0
 40
0
 40
0
 40
0
 40
1
 40
1
 40
1
 40
1
 10
146.999400
 20
465.999580
 30
0.0
 10
144.229480
 20
465.999580
 30
0.0
 10
141.999839
 20
463.769675
 30
0.0
 10
141.999839
 20
460.999755
 30
0.0
  0
LWPOLYLINE
  5
154
100
AcDbEntity
  8
0
 62
7
100
AcDbPolyline
 90
3
 70
0
 10
151.999754
 20
470.999670
 30
0.0
 10
151.999754
 20
465.999580
 30
0.0
 10
146.999400
 20
465.999580
 30
0.0
  0
SPLINE
  5
155
100
AcDbEntity
  8
0
 62
7
100
AcDbSpline
 70
8
 71
3
 72
8
 73
4
 74
0
 40
0
 40
0
 40
0
 40
0
 40
1
 40
1
 40
1
 40
1
 10
141.999839
 20
331.000075
 30
0.0
 10
141.999839
 20
328.229891
 30
0.0
 10
144.229480
 20
325.999721
 30
0.0
 10
146.999400
 20
325.999721
 30
0.0
  0
LWPOLYLINE
  5
156
100
AcDbEntity
  8
0
 62
7
100
AcDbPolyline
 90
2
 70
0
 10
141.999839
 20
460.999755
 30
0.0
 10
141.999839
 20
331.000075
 30
0.0
  0
SPLINE
  5
157
100
AcDbEntity
  8
0
 62
7
100
AcDbSpline
 70
8
 71
3
 72
8
 73
4
 74
0
 40
0
 40
0
 40
0
 40
0
 40
1
 40
1
 40
1
 40
1
 10
151.999754
 20
321.000161
 30
0.0
 10
151.999754
 20
318.229977
 30
0.0
 10
154.229659
 20
315.999278
 30
0.0
 10
156.999843
 20
315.999278
 30
0.0
  0
LWPOLYLINE
  5
158
100
AcDbEntity
  8
0
 62
7
100
AcDbPolyline
 90
3
 70
0
 10
146.999400
 20
325.999721
 30
0.0
 10
151.999754
 20
325.999721
 30
0.0
 10
151.999754
 20
321.000161
 30
0.0
  0
SPLINE
  5
159
100
AcDbEntity
  8
0
 62
7
100
AcDbSpline
 70
8
 71
3
 72
8
 73
4
 74
0
 40
0
 40
0
 40
0
 40
0
 40
1
 40
1
 40
1
 40
1
 10
266.999962
 20
315.999278
 30
0.0
 10
269.769881
 20
315.999278
 30
0.0
 10
271.999522
 20
318.229977
 30
0.0
 10
271.999522
 20
321.000161
 30
0.0
  0
LWPOLYLINE
  5
15a
100
AcDbEntity
  8
0
 62
7
100
AcDbPolyline
 90
2
 70
0
 10
156.999843
 20
315.999278
 30
0.0
 10
266.999962
 20
315.999278
 30
0.0
  0
SPLINE
  5
15b
100
AcDbEntity
  8
0
 62
7
100
AcDbSpline
 70
8
 71
3
 72
8
 73
4
 74
0
 40
0
 40
0
 40
0
 40
0
 40
1
 40
1
 40
1
 40
1
 10
276.999612
 20
325.999721
 30
0.0
 10
279.770060
 20
325.999721
 30
0.0
 10
281.999437
 20
328.229891
 30
0.0
 10
281.999437
 20
331.000075
 30
0.0
  0
LWPOLYLINE
  5
15c
100
AcDbEntity
  8
0
 62
7
100
AcDbPolyline
 90
3
 70
0
 10
271.999522
 20
321.000161
 30
0.0
 10
271.999522
 20
325.999721
 30
0.0
 10
276.999612
 20
325.999721
 30
0.0
  0
SPLINE
  5
15d
100
AcDbEntity
  8
0
 62
7
100
AcDbSpline
 70
8
 71
3
 72
8
 73
4
 74
0
 40
0
 40
0
 40
0
 40
0
 40
1
 40
1
 40
1
 40
1
 10
223.999402
 20
395.999651
 30
0.0
 10
223.999402
 20
394.895017
 30
0.0
 10
223.104582
 20
393.999403
 30
0.0
 10
221.999419
 20
393.999668
 30
0.0
  0
SPLINE
  5
15e
100
AcDbEntity
  8
0
 62
7
100
AcDbSpline
 70
8
 71
3
 72
8
 73
4
 74
0
 40
0
 40
0
 40
0
 40
0
 40
1
 40
1
 40
1
 40
1
 10
221.999419
 20
393.999668
 30
0.0
 10
220.895049
 20
393.999668
 30
0.0
 10
219.999171
 20
394.895281
 30
0.0
 10
219.999171
 20
395.999651
 30
0.0
  0
SPLINE
  5
15f
100
AcDbEntity
  8
0
 62
7
100
AcDbSpline
 70
8
 71
3
 72
8
 73
4
 74
0
 40
0
 40
0
 40
0
 40
0
 40
1
 40
1
 40
1
 40
1
 10
219.999171
 20
395.999651
 30
0.0
 10
219.999171
 20
397.104285
 30
0.0
 10
220.895314
 20
397.999633
 30
0.0
 10
221.999419
 20
397.999633
 30
0.0
  0
SPLINE
  5
160
100
AcDbEntity
  8
0
 62
7
100
AcDbSpline
 70
8
 71
3
 72
8
 73
4
 74
0
 40
0
 40
0
 40
0
 40
0
 40
1
 40
1
 40
1
 40
1
 10
221.999419
 20
397.999633
 30
0.0
 10
223.104053
 20
397.999633
 30
0.0
 10
223.999402
 20
397.104285
 30
0.0
 10
223.999402
 20
395.999651
 30
0.0
  0
LWPOLYLINE
  5
161
100
AcDbEntity
  8
0
 62
7
100
AcDbPolyline
 90
2
 70
0
 10
281.999437
 20
331.000075
 30
0.0
 10
281.999437
 20
460.999755
 30
0.0
  0
SPLINE
  5
162
100
AcDbEntity
  8
0
 62
7
100
AcDbSpline
 70
8
 71
3
 72
8
 73
4
 74
0
 40
0
 40
0
 40
0
 40
0
 40
1
 40
1
 40
1
 40
1
 10
203.999573
 20
395.999651
 30
0.0
 10
203.999573
 20
394.895017
 30
0.0
 10
203.104753
 20
393.999403
 30
0.0
 10
201.999590
 20
393.999668
 30
0.0
  0
SPLINE
  5
163
100
AcDbEntity
  8
0
 62
7
100
AcDbSpline
 70
8
 71
3
 72
8
 73
4
 74
0
 40
0
 40
0
 40
0
 40
0
 40
1
 40
1
 40
1
 40
1
 10
201.999590
 20
393.999668
 30
0.0
 10
200.895221
 20
393.999668
 30
0.0
 10
199.999343
 20
394.895281
 30
0.0
 10
199.999343
 20
395.999651
 30
0.0
  0
SPLINE
  5
164
100
AcDbEntity
  8
0
 62
7
100
AcDbSpline
 70
8
 71
3
 72
8
 73
4
 74
0
 40
0
 40
0
 40
0
 40
0
 40
1
 40
1
 40
1
 40
1
 10
199.999343
 20
395.999651
 30
0.0
 10
199.999343
 20
397.104285
 30
0.0
 10
200.895485
 20
397.999633
 30
0.0
 10
201.999590
 20
397.999633
 30
0.0
  0
SPLINE
  5
165
100
AcDbEntity
  8
0
 62
7
100
AcDbSpline
 70
8
 71
3
 72
8
 73
4
 74
0
 40
0
 40
0
 40
0
 40
0
 40
1
 40
1
 40
1
 40
1
 10
201.999590
 20
397.999633
 30
0.0
 10
203.104224
 20
397.999633
 30
0.0
 10
203.999573
 20
397.104285
 30
0.0
 10
203.999573
 20
395.999651
 30
0.0
  0
LWPOLYLINE
  5
166
100
AcDbEntity
  8
0
 62
7
100
AcDbPolyline
 90
1
 70
1
 10
223.999402
 20
395.999651
 30
0.0
  0
SPLINE
  5
167
100
AcDbEntity
  8
0
 62
7
100
AcDbSpline
 70
8
 71
3
 72
8
 73
4
 74
0
 40
0
 40
0
 40
0
 40
0
 40
1
 40
1
 40
1
 40
1
 10
281.999437
 20
622.999955
 30
0.0
 10
281.999437
 20
625.769875
 30
0.0
 10
279.770060
 20
627.999780
 30
0.0
 10
276.999612
 20
627.999780
 30
0.0
  0
LWPOLYLINE
  5
168
100
AcDbEntity
  8
0
 62
7
100
AcDbPolyline
 90
1
 70
1
 10
203.999573
 20
395.999651
 30
0.0
  0
SPLINE
  5
169
100
AcDbEntity
  8
0
 62
7
100
AcDbSpline
 70
8
 71
3
 72
8
 73
4
 74
0
 40
0
 40
0
 40
0
 40
0
 40
1
 40
1
 40
1
 40
1
 10
271.999522
 20
632.999869
 30
0.0
 10
271.999522
 20
635.769789
 30
0.0
 10
269.770146
 20
637.999694
 30
0.0
 10
266.999962
 20
637.999694
 30
0.0
  0
LWPOLYLINE
  5
16a
100
AcDbEntity
  8
0
 62
7
100
AcDbPolyline
 90
3
 70
0
 10
276.999612
 20
627.999780
 30
0.0
 10
271.999522
 20
627.999780
 30
0.0
 10
271.999522
 20
632.999869
 30
0.0
  0
SPLINE
  5
16b
100
AcDbEntity
  8
0
 62
7
100
AcDbSpline
 70
8
 71
3
 72
8
 73
4
 74
0
 40
0
 40
0
 40
0
 40
0
 40
1
 40
1
 40
1
 40
1
 10
156.999843
 20
637.999694
 30
0.0
 10
154.229659
 20
637.999694
 30
0.0
 10
151.999754
 20
635.770053
 30
0.0
 10
151.999754
 20
632.999869
 30
0.0
  0
LWPOLYLINE
  5
16c
100
AcDbEntity
  8
0
 62
7
100
AcDbPolyline
 90
2
 70
0
 10
266.999962
 20
637.999694
 30
0.0
 10
156.999843
 20
637.999694
 30
0.0
  0
SPLINE
  5
16d
100
AcDbEntity
  8
0
 62
7
100
AcDbSpline
 70
8
 71
3
 72
8
 73
4
 74
0
 40
0
 40
0
 40
0
 40
0
 40
1
 40
1
 40
1
 40
1
 10
146.999400
 20
627.999780
 30
0.0
 10
144.229480
 20
627.999780
 30
0.0
 10
141.999839
 20
625.769875
 30
0.0
 10
141.999839
 20
622.999955
 30
0.0
  0
LWPOLYLINE
  5
16e
100
AcDbEntity
  8
0
 62
7
100
AcDbPolyline
 90
3
 70
0
 10
151.999754
 20
632.999869
 30
0.0
 10
151.999754
 20
627.999780
 30
0.0
 10
146.999400
 20
627.999780
 30
0.0
  0
SPLINE
  5
16f
100
AcDbEntity
  8
0
 62
7
100
AcDbSpline
 70
8
 71
3
 72
8
 73
4
 74
0
 40
0
 40
0
 40
0
 40
0
 40
1
 40
1
 40
1
 40
1
 10
141.999839
 20
493.000275
 30
0.0
 10
141.999839
 20
490.230091
 30
0.0
 10
144.229480
 20
487.999921
 30
0.0
 10
146.999400
 20
487.999921
 30
0.0
  0
LWPOLYLINE
  5
170
100
AcDbEntity
  8
0
 62
7
100
AcDbPolyline
 90
2
 70
0
 10
141.999839
 20
622.999955
 30
0.0
 10
141.999839
 20
493.000275
 30
0.0
  0
SPLINE
  5
171
100
AcDbEntity
  8
0
 62
7
100
AcDbSpline
 70
8
 71
3
 72
8
 73
4
 74
0
 40
0
 40
0
 40
0
 40
0
 40
1
 40
1
 40
1
 40
1
 10
151.999754
 20
483.000361
 30
0.0
 10
151.999754
 20
480.230177
 30
0.0
 10
154.229659
 20
477.999477
 30
0.0
 10
156.999843
 20
477.999477
 30
0.0
  0
LWPOLYLINE
  5
172
100
AcDbEntity
  8
0
 62
7
100
AcDbPolyline
 90
3
 70
0
 10
146.999400
 20
487.999921
 30
0.0
 10
151.999754
 20
487.999921
 30
0.0
 10
151.999754
 20
483.000361
 30
0.0
  0
SPLINE
  5
173
100
AcDbEntity
  8
0
 62
7
100
AcDbSpline
 70
8
 71
3
 72
8
 73
4
 74
0
 40
0
 40
0
 40
0
 40
0
 40
1
 40
1
 40
1
 40
1
 10
266.999962
 20
477.999477
 30
0.0
 10
269.769881
 20
477.999477
 30
0.0
 10
271.999522
 20
480.230177
 30
0.0
 10
271.999522
 20
483.000361
 30
0.0
  0
LWPOLYLINE
  5
174
100
AcDbEntity
  8
0
 62
7
100
AcDbPolyline
 90
2
 70
0
 10
156.999843
 20
477.999477
 30
0.0
 10
266.999962
 20
477.999477
 30
0.0
  0
SPLINE
  5
175
100
AcDbEntity
  8
0
 62
7
100
AcDbSpline
 70
8
 71
3
 72
8
 73
4
 74
0
 40
0
 40
0
 40
0
 40
0
 40
1
 40
1
 40
1
 40
1
 10
276.999612
 20
487.999921
 30
0.0
 10
279.770060
 20
487.999921
 30
0.0
 10
281.999437
 20
490.230091
 30
0.0
 10
281.999437
 20
493.000275
 30
0.0
  0
LWPOLYLINE
  5
176
100
AcDbEntity
  8
0
 62
7
100
AcDbPolyline
 90
3
 70
0
 10
271.999522
 20
483.000361
 30
0.0
 10
271.999522
 20
487.999921
 30
0.0
 10
276.999612
 20
487.999921
 30
0.0
  0
SPLINE
  5
177
100
AcDbEntity
  8
0
 62
7
100
AcDbSpline
 70
8
 71
3
 72
8
 73
4
 74
0
 40
0
 40
0
 40
0
 40
0
 40
1
 40
1
 40
1
 40
1
 10
223.999402
 20
557.999850
 30
0.0
 10
223.999402
 20
556.895216
 30
0.0
 10
223.104582
 20
555.999603
 30
0.0
 10
221.999419
 20
555.999868
 30
0.0
  0
SPLINE
  5
178
100
AcDbEntity
  8
0
 62
7
100
AcDbSpline
 70
8
 71
3
 72
8
 73
4
 74
0
 40
0
 40
0
 40
0
 40
0
 40
1
 40
1
 40
1
 40
1
 10
221.999419
 20
555.999868
 30
0.0
 10
220.895049
 20
555.999868
 30
0.0
 10
219.999171
 20
556.895481
 30
0.0
 10
219.999171
 20
557.999850
 30
0.0
  0
SPLINE
  5
179
100
AcDbEntity
  8
0
 62
7
100
AcDbSpline
 70
8
 71
3
 72
8
 73
4
 74
0
 40
0
 40
0
 40
0
 40
0
 40
1
 40
1
 40
1
 40
1
 10
219.999171
 20
557.999850
 30
0.0
 10
219.999171
 20
559.104484
 30
0.0
 10
220.895314
 20
559.999833
 30
0.0
 10
221.999419
 20
559.999833
 30
0.0
  0
SPLINE
  5
17a
100
AcDbEntity
  8
0
 62
7
100
AcDbSpline
 70
8
 71
3
 72
8
 73
4
 74
0
 40
0
 40
0
 40
0
 40
0
 40
1
 40
1
 40
1
 40
1
 10
221.999419
 20
559.999833
 30
0.0
 10
223.104053
 20
559.999833
 30
0.0
 10
223.999402
 20
559.104484
 30
0.0
 10
223.999402
 20
557.999850
 30
0.0
  0
LWPOLYLINE
  5
17b
100
AcDbEntity
  8
0
 62
7
100
AcDbPolyline
 90
2
 70
0
 10
281.999437
 20
493.000275
 30
0.0
 10
281.999437
 20
622.999955
 30
0.0
  0
SPLINE
  5
17c
100
AcDbEntity
  8
0
 62
7
100
AcDbSpline
 70
8
 71
3
 72
8
 73
4
 74
0
 40
0
 40
0
 40
0
 40
0
 40
1
 40
1
 40
1
 40
1
 10
203.999573
 20
557.999850
 30
0.0
 10
203.999573
 20
556.895216
 30
0.0
 10
203.104753
 20
555.999603
 30
0.0
 10
201.999590
 20
555.999868
 30
0.0
  0
SPLINE
  5
17d
100
AcDbEntity
  8
0
 62
7
100
AcDbSpline
 70
8
 71
3
 72
8
 73
4
 74
0
 40
0
 40
0
 40
0
 40
0
 40
1
 40
1
 40
1
 40
1
 10
201.999590
 20
555.999868
 30
0.0
 10
200.895221
 20
555.999868
 30
0.0
 10
199.999343
 20
556.895481
 30
0.0
 10
199.999343
 20
557.999850
 30
0.0
  0
SPLINE
  5
17e
100
AcDbEntity
  8
0
 62
7
100
AcDbSpline
 70
8
 71
3
 72
8
 73
4
 74
0
 40
0
 40
0
 40
0
 40
0
 40
1
 40
1
 40
1
 40
1
 10
199.999343
 20
557.999850
 30
0.0
 10
199.999343
 20
559.104484
 30
0.0
 10
200.895485
 20
559.999833
 30
0.0
 10
201.999590
 20
559.999833
 30
0.0
  0
SPLINE
  5
17f
100
AcDbEntity
  8
0
 62
7
100
AcDbSpline
 70
8
 71
3
 72
8
 73
4
 74
0
 40
0
 40
0
 40
0
 40
0
 40
1
 40
1
 40
1
 40
1
 10
201.999590
 20
559.999833
 30
0.0
 10
203.104224
 20
559.999833
 30
0.0
 10
203.999573
 20
559.104484
 30
0.0
 10
203.999573
 20
557.999850
 30
0.0
  0
LWPOLYLINE
  5
180
100
AcDbEntity
  8
0
 62
7
100
AcDbPolyline
 90
1
 70
1
 10
223.999402
 20
557.999850
 30
0.0
  0
SPLINE
  5
181
100
AcDbEntity
  8
0
 62
7
100
AcDbSpline
 70
8
 71
3
 72
8
 73
4
 74
0
 40
0
 40
0
 40
0
 40
0
 40
1
 40
1
 40
1
 40
1
 10
281.999437
 20
785.000261
 30
0.0
 10
281.999437
 20
787.770180
 30
0.0
 10
279.770060
 20
790.000086
 30
0.0
 10
276.999612
 20
790.000086
 30
0.0
  0
LWPOLYLINE
  5
182
100
AcDbEntity
  8
0
 62
7
100
AcDbPolyline
 90
1
 70
1
 10
203.999573
 20
557.999850
 30
0.0
  0
SPLINE
  5
183
100
AcDbEntity
  8
0
 62
7
100
AcDbSpline
 70
8
 71
3
 72
8
 73
4
 74
0
 40
0
 40
0
 40
0
 40
0
 40
1
 40
1
 40
1
 40
1
 10
271.999522
 20
795.000175
 30
0.0
 10
271.999522
 20
797.770095
 30
0.0
 10
269.770146
 20
800.000000
 30
0.0
 10
266.999962
 20
800.000000
 30
0.0
  0
LWPOLYLINE
  5
184
100
AcDbEntity
  8
0
 62
7
100
AcDbPolyline
 90
3
 70
0
 10
276.999612
 20
790.000086
 30
0.0
 10
271.999522
 20
790.000086
 30
0.0
 10
271.999522
 20
795.000175
 30
0.0
  0
SPLINE
  5
185
100
AcDbEntity
  8
0
 62
7
100
AcDbSpline
 70
8
 71
3
 72
8
 73
4
 74
0
 40
0
 40
0
 40
0
 40
0
 40
1
 40
1
 40
1
 40
1
 10
156.999843
 20
800.000000
 30
0.0
 10
154.229659
 20
800.000000
 30
0.0
 10
151.999754
 20
797.770359
 30
0.0
 10
151.999754
 20
795.000175
 30
0.0
  0
LWPOLYLINE
  5
186
100
AcDbEntity
  8
0
 62
7
100
AcDbPolyline
 90
2
 70
0
 10
266.999962
 20
800.000000
 30
0.0
 10
156.999843
 20
800.000000
 30
0.0
  0
SPLINE
  5
187
100
AcDbEntity
  8
0
 62
7
100
AcDbSpline
 70
8
 71
3
 72
8
 73
4
 74
0
 40
0
 40
0
 40
0
 40
0
 40
1
 40
1
 40
1
 40
1
 10
146.999400
 20
790.000086
 30
0.0
 10
144.229480
 20
790.000086
 30
0.0
 10
141.999839
 20
787.770180
 30
0.0
 10
141.999839
 20
785.000261
 30
0.0
  0
LWPOLYLINE
  5
188
100
AcDbEntity
  8
0
 62
7
100
AcDbPolyline
 90
3
 70
0
 10
151.999754
 20
795.000175
 30
0.0
 10
151.999754
 20
790.000086
 30
0.0
 10
146.999400
 20
790.000086
 30
0.0
  0
SPLINE
  5
189
100
AcDbEntity
  8
0
 62
7
100
AcDbSpline
 70
8
 71
3
 72
8
 73
4
 74
0
 40
0
 40
0
 40
0
 40
0
 40
1
 40
1
 40
1
 40
1
 10
141.999839
 20
655.000475
 30
0.0
 10
141.999839
 20
652.230291
 30
0.0
 10
144.229480
 20
650.000121
 30
0.0
 10
146.999400
 20
650.000121
 30
0.0
  0
LWPOLYLINE
  5
18a
100
AcDbEntity
  8
0
 62
7
100
AcDbPolyline
 90
2
 70
0
 10
141.999839
 20
785.000261
 30
0.0
 10
141.999839
 20
655.000475
 30
0.0
  0
SPLINE
  5
18b
100
AcDbEntity
  8
0
 62
7
100
AcDbSpline
 70
8
 71
3
 72
8
 73
4
 74
0
 40
0
 40
0
 40
0
 40
0
 40
1
 40
1
 40
1
 40
1
 10
151.999754
 20
645.000560
 30
0.0
 10
151.999754
 20
642.230376
 30
0.0
 10
154.229659
 20
639.999677
 30
0.0
 10
156.999843
 20
639.999677
 30
0.0
  0
LWPOLYLINE
  5
18c
100
AcDbEntity
  8
0
 62
7
100
AcDbPolyline
 90
3
 70
0
 10
146.999400
 20
650.000121
 30
0.0
 10
151.999754
 20
650.000121
 30
0.0
 10
151.999754
 20
645.000560
 30
0.0
  0
SPLINE
  5
18d
100
AcDbEntity
  8
0
 62
7
100
AcDbSpline
 70
8
 71
3
 72
8
 73
4
 74
0
 40
0
 40
0
 40
0
 40
0
 40
1
 40
1
 40
1
 40
1
 10
266.999962
 20
639.999677
 30
0.0
 10
269.769881
 20
639.999677
 30
0.0
 10
271.999522
 20
642.230376
 30
0.0
 10
271.999522
 20
645.000560
 30
0.0
  0
LWPOLYLINE
  5
18e
100
AcDbEntity
  8
0
 62
7
100
AcDbPolyline
 90
2
 70
0
 10
156.999843
 20
639.999677
 30
0.0
 10
266.999962
 20
639.999677
 30
0.0
  0
SPLINE
  5
18f
100
AcDbEntity
  8
0
 62
7
100
AcDbSpline
 70
8
 71
3
 72
8
 73
4
 74
0
 40
0
 40
0
 40
0
 40
0
 40
1
 40
1
 40
1
 40
1
 10
276.999612
 20
650.000121
 30
0.0
 10
279.770060
 20
650.000121
 30
0.0
 10
281.999437
 20
652.230291
 30
0.0
 10
281.999437
 20
655.000475
 30
0.0
  0
LWPOLYLINE
  5
190
100
AcDbEntity
  8
0
 62
7
100
AcDbPolyline
 90
3
 70
0
 10
271.999522
 20
645.000560
 30
0.0
 10
271.999522
 20
650.000121
 30
0.0
 10
276.999612
 20
650.000121
 30
0.0
  0
SPLINE
  5
191
100
AcDbEntity
  8
0
 62
7
100
AcDbSpline
 70
8
 71
3
 72
8
 73
4
 74
0
 40
0
 40
0
 40
0
 40
0
 40
1
 40
1
 40
1
 40
1
 10
223.999402
 20
720.000050
 30
0.0
 10
223.999402
 20
718.895416
 30
0.0
 10
223.104582
 20
717.999803
 30
0.0
 10
221.999419
 20
718.000067
 30
0.0
  0
SPLINE
  5
192
100
AcDbEntity
  8
0
 62
7
100
AcDbSpline
 70
8
 71
3
 72
8
 73
4
 74
0
 40
0
 40
0
 40
0
 40
0
 40
1
 40
1
 40
1
 40
1
 10
221.999419
 20
718.000067
 30
0.0
 10
220.895049
 20
718.000067
 30
0.0
 10
219.999171
 20
718.895681
 30
0.0
 10
219.999171
 20
720.000050
 30
0.0
  0
SPLINE
  5
193
100
AcDbEntity
  8
0
 62
7
100
AcDbSpline
 70
8
 71
3
 72
8
 73
4
 74
0
 40
0
 40
0
 40
0
 40
0
 40
1
 40
1
 40
1
 40
1
 10
219.999171
 20
720.000050
 30
0.0
 10
219.999171
 20
721.104684
 30
0.0
 10
220.895314
 20
722.000033
 30
0.0
 10
221.999419
 20
722.000033
 30
0.0
  0
SPLINE
  5
194
100
AcDbEntity
  8
0
 62
7
100
AcDbSpline
 70
8
 71
3
 72
8
 73
4
 74
0
 40
0
 40
0
 40
0
 40
0
 40
1
 40
1
 40
1
 40
1
 10
221.999419
 20
722.000033
 30
0.0
 10
223.104053
 20
722.000033
 30
0.0
 10
223.999402
 20
721.104684
 30
0.0
 10
223.999402
 20
720.000050
 30
0.0
  0
LWPOLYLINE
  5
195
100
AcDbEntity
  8
0
 62
7
100
AcDbPolyline
 90
2
 70
0
 10
281.999437
 20
655.000475
 30
0.0
 10
281.999437
 20
785.000261
 30
0.0
  0
SPLINE
  5
196
100
AcDbEntity
  8
0
 62
7
100
AcDbSpline
 70
8
 71
3
 72
8
 73
4
 74
0
 40
0
 40
0
 40
0
 40
0
 40
1
 40
1
 40
1
 40
1
 10
203.999573
 20
720.000050
 30
0.0
 10
203.999573
 20
718.895416
 30
0.0
 10
203.104753
 20
717.999803
 30
0.0
 10
201.999590
 20
718.000067
 30
0.0
  0
SPLINE
  5
197
100
AcDbEntity
  8
0
 62
7
100
AcDbSpline
 70
8
 71
3
 72
8
 73
4
 74
0
 40
0
 40
0
 40
0
 40
0
 40
1
 40
1
 40
1
 40
1
 10
201.999590
 20
718.000067
 30
0.0
 10
200.895221
 20
718.000067
 30
0.0
 10
199.999343
 20
718.895681
 30
0.0
 10
199.999343
 20
720.000050
 30
0.0
  0
SPLINE
  5
198
100
AcDbEntity
  8
0
 62
7
100
AcDbSpline
 70
8
 71
3
 72
8
 73
4
 74
0
 40
0
 40
0
 40
0
 40
0
 40
1
 40
1
 40
1
 40
1
 10
199.999343
 20
720.000050
 30
0.0
 10
199.999343
 20
721.104684
 30
0.0
 10
200.895485
 20
722.000033
 30
0.0
 10
201.999590
 20
722.000033
 30
0.0
  0
SPLINE
  5
199
100
AcDbEntity
  8
0
 62
7
100
AcDbSpline
 70
8
 71
3
 72
8
 73
4
 74
0
 40
0
 40
0
 40
0
 40
0
 40
1
 40
1
 40
1
 40
1
 10
201.999590
 20
722.000033
 30
0.0
 10
203.104224
 20
722.000033
 30
0.0
 10
203.999573
 20
721.104684
 30
0.0
 10
203.999573
 20
720.000050
 30
0.0
  0
LWPOLYLINE
  5
19a
100
AcDbEntity
  8
0
 62
7
100
AcDbPolyline
 90
1
 70
1
 10
223.999402
 20
720.000050
 30
0.0
  0
SPLINE
  5
19b
100
AcDbEntity
  8
0
 62
7
100
AcDbSpline
 70
8
 71
3
 72
8
 73
4
 74
0
 40
0
 40
0
 40
0
 40
0
 40
1
 40
1
 40
1
 40
1
 10
423.999278
 20
622.999955
 30
0.0
 10
423.999278
 20
625.769875
 30
0.0
 10
421.769902
 20
627.999780
 30
0.0
 10
418.999454
 20
627.999780
 30
0.0
  0
LWPOLYLINE
  5
19c
100
AcDbEntity
  8
0
 62
7
100
AcDbPolyline
 90
1
 70
1
 10
203.999573
 20
720.000050
 30
0.0
  0
SPLINE
  5
19d
100
AcDbEntity
  8
0
 62
7
100
AcDbSpline
 70
8
 71
3
 72
8
 73
4
 74
0
 40
0
 40
0
 40
0
 40
0
 40
1
 40
1
 40
1
 40
1
 10
413.999364
 20
632.999869
 30
0.0
 10
413.999364
 20
635.769789
 30
0.0
 10
411.769988
 20
637.999694
 30
0.0
 10
408.999804
 20
637.999694
 30
0.0
  0
LWPOLYLINE
  5
19e
100
AcDbEntity
  8
0
 62
7
100
AcDbPolyline
 90
3
 70
0
 10
418.999454
 20
627.999780
 30
0.0
 10
413.999364
 20
627.999780
 30
0.0
 10
413.999364
 20
632.999869
 30
0.0
  0
SPLINE
  5
19f
100
AcDbEntity
  8
0
 62
7
100
AcDbSpline
 70
8
 71
3
 72
8
 73
4
 74
0
 40
0
 40
0
 40
0
 40
0
 40
1
 40
1
 40
1
 40
1
 10
298.999688
 20
637.999694
 30
0.0
 10
296.229504
 20
637.999694
 30
0.0
 10
293.999598
 20
635.770053
 30
0.0
 10
293.999598
 20
632.999869
 30
0.0
  0
LWPOLYLINE
  5
1a0
100
AcDbEntity
  8
0
 62
7
100
AcDbPolyline
 90
2
 70
0
 10
408.999804
 20
637.999694
 30
0.0
 10
298.999688
 20
637.999694
 30
0.0
  0
SPLINE
  5
1a1
100
AcDbEntity
  8
0
 62
7
100
AcDbSpline
 70
8
 71
3
 72
8
 73
4
 74
0
 40
0
 40
0
 40
0
 40
0
 40
1
 40
1
 40
1
 40
1
 10
288.999244
 20
627.999780
 30
0.0
 10
286.229325
 20
627.999780
 30
0.0
 10
283.999684
 20
625.769875
 30
0.0
 10
283.999684
 20
622.999955
 30
0.0
  0
LWPOLYLINE
  5
1a2
100
AcDbEntity
  8
0
 62
7
100
AcDbPolyline
 90
3
 70
0
 10
293.999598
 20
632.999869
 30
0.0
 10
293.999598
 20
627.999780
 30
0.0
 10
288.999244
 20
627.999780
 30
0.0
  0
SPLINE
  5
1a3
100
AcDbEntity
  8
0
 62
7
100
AcDbSpline
 70
8
 71
3
 72
8
 73
4
 74
0
 40
0
 40
0
 40
0
 40
0
 40
1
 40
1
 40
1
 40
1
 10
283.999684
 20
493.000275
 30
0.0
 10
283.999684
 20
490.230091
 30
0.0
 10
286.229325
 20
487.999921
 30
0.0
 10
288.999244
 20
487.999921
 30
0.0
  0
LWPOLYLINE
  5
1a4
100
AcDbEntity
  8
0
 62
7
100
AcDbPolyline
 90
2
 70
0
 10
283.999684
 20
622.999955
 30
0.0
 10
283.999684
 20
493.000275
 30
0.0
  0
SPLINE
  5
1a5
100
AcDbEntity
  8
0
 62
7
100
AcDbSpline
 70
8
 71
3
 72
8
 73
4
 74
0
 40
0
 40
0
 40
0
 40
0
 40
1
 40
1
 40
1
 40
1
 10
293.999598
 20
483.000361
 30
0.0
 10
293.999598
 20
480.230177
 30
0.0
 10
296.229504
 20
477.999477
 30
0.0
 10
298.999688
 20
477.999477
 30
0.0
  0
LWPOLYLINE
  5
1a6
100
AcDbEntity
  8
0
 62
7
100
AcDbPolyline
 90
3
 70
0
 10
288.999244
 20
487.999921
 30
0.0
 10
293.999598
 20
487.999921
 30
0.0
 10
293.999598
 20
483.000361
 30
0.0
  0
SPLINE
  5
1a7
100
AcDbEntity
  8
0
 62
7
100
AcDbSpline
 70
8
 71
3
 72
8
 73
4
 74
0
 40
0
 40
0
 40
0
 40
0
 40
1
 40
1
 40
1
 40
1
 10
408.999804
 20
477.999477
 30
0.0
 10
411.769723
 20
477.999477
 30
0.0
 10
413.999364
 20
480.230177
 30
0.0
 10
413.999364
 20
483.000361
 30
0.0
  0
LWPOLYLINE
  5
1a8
100
AcDbEntity
  8
0
 62
7
100
AcDbPolyline
 90
2
 70
0
 10
298.999688
 20
477.999477
 30
0.0
 10
408.999804
 20
477.999477
 30
0.0
  0
SPLINE
  5
1a9
100
AcDbEntity
  8
0
 62
7
100
AcDbSpline
 70
8
 71
3
 72
8
 73
4
 74
0
 40
0
 40
0
 40
0
 40
0
 40
1
 40
1
 40
1
 40
1
 10
418.999454
 20
487.999921
 30
0.0
 10
421.769902
 20
487.999921
 30
0.0
 10
423.999278
 20
490.230091
 30
0.0
 10
423.999278
 20
493.000275
 30
0.0
  0
LWPOLYLINE
  5
1aa
100
AcDbEntity
  8
0
 62
7
100
AcDbPolyline
 90
3
 70
0
 10
413.999364
 20
483.000361
 30
0.0
 10
413.999364
 20
487.999921
 30
0.0
 10
418.999454
 20
487.999921
 30
0.0
  0
SPLINE
  5
1ab
100
AcDbEntity
  8
0
 62
7
100
AcDbSpline
 70
8
 71
3
 72
8
 73
4
 74
0
 40
0
 40
0
 40
0
 40
0
 40
1
 40
1
 40
1
 40
1
 10
365.999246
 20
557.999850
 30
0.0
 10
365.999246
 20
556.895216
 30
0.0
 10
365.104426
 20
555.999603
 30
0.0
 10
363.999263
 20
555.999868
 30
0.0
  0
SPLINE
  5
1ac
100
AcDbEntity
  8
0
 62
7
100
AcDbSpline
 70
8
 71
3
 72
8
 73
4
 74
0
 40
0
 40
0
 40
0
 40
0
 40
1
 40
1
 40
1
 40
1
 10
363.999263
 20
555.999868
 30
0.0
 10
362.894894
 20
555.999868
 30
0.0
 10
361.999016
 20
556.895481
 30
0.0
 10
361.999016
 20
557.999850
 30
0.0
  0
SPLINE
  5
1ad
100
AcDbEntity
  8
0
 62
7
100
AcDbSpline
 70
8
 71
3
 72
8
 73
4
 74
0
 40
0
 40
0
 40
0
 40
0
 40
1
 40
1
 40
1
 40
1
 10
361.999016
 20
557.999850
 30
0.0
 10
361.999016
 20
559.104484
 30
0.0
 10
362.895158
 20
559.999833
 30
0.0
 10
363.999263
 20
559.999833
 30
0.0
  0
SPLINE
  5
1ae
100
AcDbEntity
  8
0
 62
7
100
AcDbSpline
 70
8
 71
3
 72
8
 73
4
 74
0
 40
0
 40
0
 40
0
 40
0
 40
1
 40
1
 40
1
 40
1
 10
363.999263
 20
559.999833
 30
0.0
 10
365.103897
 20
559.999833
 30
0.0
 10
365.999246
 20
559.104484
 30
0.0
 10
365.999246
 20
557.999850
 30
0.0
  0
LWPOLYLINE
  5
1af
100
AcDbEntity
  8
0
 62
7
100
AcDbPolyline
 90
2
 70
0
 10
423.999278
 20
493.000275
 30
0.0
 10
423.999278
 20
622.999955
 30
0.0
  0
SPLINE
  5
1b0
100
AcDbEntity
  8
0
 62
7
100
AcDbSpline
 70
8
 71
3
 72
8
 73
4
 74
0
 40
0
 40
0
 40
0
 40
0
 40
1
 40
1
 40
1
 40
1
 10
345.999417
 20
557.999850
 30
0.0
 10
345.999417
 20
556.895216
 30
0.0
 10
345.104598
 20
555.999603
 30
0.0
 10
343.999435
 20
555.999868
 30
0.0
  0
SPLINE
  5
1b1
100
AcDbEntity
  8
0
 62
7
100
AcDbSpline
 70
8
 71
3
 72
8
 73
4
 74
0
 40
0
 40
0
 40
0
 40
0
 40
1
 40
1
 40
1
 40
1
 10
343.999435
 20
555.999868
 30
0.0
 10
342.895065
 20
555.999868
 30
0.0
 10
341.999187
 20
556.895481
 30
0.0
 10
341.999187
 20
557.999850
 30
0.0
  0
SPLINE
  5
1b2
100
AcDbEntity
  8
0
 62
7
100
AcDbSpline
 70
8
 71
3
 72
8
 73
4
 74
0
 40
0
 40
0
 40
0
 40
0
 40
1
 40
1
 40
1
 40
1
 10
341.999187
 20
557.999850
 30
0.0
 10
341.999187
 20
559.104484
 30
0.0
 10
342.895330
 20
559.999833
 30
0.0
 10
343.999435
 20
559.999833
 30
0.0
  0
SPLINE
  5
1b3
100
AcDbEntity
  8
0
 62
7
100
AcDbSpline
 70
8
 71
3
 72
8
 73
4
 74
0
 40
0
 40
0
 40
0
 40
0
 40
1
 40
1
 40
1
 40
1
 10
343.999435
 20
559.999833
 30
0.0
 10
345.104069
 20
559.999833
 30
0.0
 10
345.999417
 20
559.104484
 30
0.0
 10
345.999417
 20
557.999850
 30
0.0
  0
LWPOLYLINE
  5
1b4
100
AcDbEntity
  8
0
 62
7
100
AcDbPolyline
 90
1
 70
1
 10
365.999246
 20
557.999850
 30
0.0
  0
SPLINE
  5
1b5
100
AcDbEntity
  8
0
 62
7
100
AcDbSpline
 70
8
 71
3
 72
8
 73
4
 74
0
 40
0
 40
0
 40
0
 40
0
 40
1
 40
1
 40
1
 40
1
 10
423.999278
 20
785.000261
 30
0.0
 10
423.999278
 20
787.770180
 30
0.0
 10
421.769902
 20
790.000086
 30
0.0
 10
418.999454
 20
790.000086
 30
0.0
  0
LWPOLYLINE
  5
1b6
100
AcDbEntity
  8
0
 62
7
100
AcDbPolyline
 90
1
 70
1
 10
345.999417
 20
557.999850
 30
0.0
  0
SPLINE
  5
1b7
100
AcDbEntity
  8
0
 62
7
100
AcDbSpline
 70
8
 71
3
 72
8
 73
4
 74
0
 40
0
 40
0
 40
0
 40
0
 40
1
 40
1
 40
1
 40
1
 10
413.999364
 20
795.000175
 30
0.0
 10
413.999364
 20
797.770095
 30
0.0
 10
411.769988
 20
800.000000
 30
0.0
 10
408.999804
 20
800.000000
 30
0.0
  0
LWPOLYLINE
  5
1b8
100
AcDbEntity
  8
0
 62
7
100
AcDbPolyline
 90
3
 70
0
 10
418.999454
 20
790.000086
 30
0.0
 10
413.999364
 20
790.000086
 30
0.0
 10
413.999364
 20
795.000175
 30
0.0
  0
SPLINE
  5
1b9
100
AcDbEntity
  8
0
 62
7
100
AcDbSpline
 70
8
 71
3
 72
8
 73
4
 74
0
 40
0
 40
0
 40
0
 40
0
 40
1
 40
1
 40
1
 40
1
 10
298.999688
 20
800.000000
 30
0.0
 10
296.229504
 20
800.000000
 30
0.0
 10
293.999598
 20
797.770359
 30
0.0
 10
293.999598
 20
795.000175
 30
0.0
  0
LWPOLYLINE
  5
1ba
100
AcDbEntity
  8
0
 62
7
100
AcDbPolyline
 90
2
 70
0
 10
408.999804
 20
800.000000
 30
0.0
 10
298.999688
 20
800.000000
 30
0.0
  0
SPLINE
  5
1bb
100
AcDbEntity
  8
0
 62
7
100
AcDbSpline
 70
8
 71
3
 72
8
 73
4
 74
0
 40
0
 40
0
 40
0
 40
0
 40
1
 40
1
 40
1
 40
1
 10
288.999244
 20
790.000086
 30
0.0
 10
286.229325
 20
790.000086
 30
0.0
 10
283.999684
 20
787.770180
 30
0.0
 10
283.999684
 20
785.000261
 30
0.0
  0
LWPOLYLINE
  5
1bc
100
AcDbEntity
  8
0
 62
7
100
AcDbPolyline
 90
3
 70
0
 10
293.999598
 20
795.000175
 30
0.0
 10
293.999598
 20
790.000086
 30
0.0
 10
288.999244
 20
790.000086
 30
0.0
  0
SPLINE
  5
1bd
100
AcDbEntity
  8
0
 62
7
100
AcDbSpline
 70
8
 71
3
 72
8
 73
4
 74
0
 40
0
 40
0
 40
0
 40
0
 40
1
 40
1
 40
1
 40
1
 10
283.999684
 20
655.000475
 30
0.0
 10
283.999684
 20
652.230291
 30
0.0
 10
286.229325
 20
650.000121
 30
0.0
 10
288.999244
 20
650.000121
 30
0.0
  0
LWPOLYLINE
  5
1be
100
AcDbEntity
  8
0
 62
7
100
AcDbPolyline
 90
2
 70
0
 10
283.999684
 20
785.000261
 30
0.0
 10
283.999684
 20
655.000475
 30
0.0
  0
SPLINE
  5
1bf
100
AcDbEntity
  8
0
 62
7
100
AcDbSpline
 70
8
 71
3
 72
8
 73
4
 74
0
 40
0
 40
0
 40
0
 40
0
 40
1
 40
1
 40
1
 40
1
 10
293.999598
 20
645.000560
 30
0.0
 10
293.999598
 20
642.230376
 30
0.0
 10
296.229504
 20
639.999677
 30
0.0
 10
298.999688
 20
639.999677
 30
0.0
  0
LWPOLYLINE
  5
1c0
100
AcDbEntity
  8
0
 62
7
100
AcDbPolyline
 90
3
 70
0
 10
288.999244
 20
650.000121
 30
0.0
 10
293.999598
 20
650.000121
 30
0.0
 10
293.999598
 20
645.000560
 30
0.0
  0
SPLINE
  5
1c1
100
AcDbEntity
  8
0
 62
7
100
AcDbSpline
 70
8
 71
3
 72
8
 73
4
 74
0
 40
0
 40
0
 40
0
 40
0
 40
1
 40
1
 40
1
 40
1
 10
408.999804
 20
639.999677
 30
0.0
 10
411.769723
 20
639.999677
 30
0.0
 10
413.999364
 20
642.230376
 30
0.0
 10
413.999364
 20
645.000560
 30
0.0
  0
LWPOLYLINE
  5
1c2
100
AcDbEntity
  8
0
 62
7
100
AcDbPolyline
 90
2
 70
0
 10
298.999688
 20
639.999677
 30
0.0
 10
408.999804
 20
639.999677
 30
0.0
  0
SPLINE
  5
1c3
100
AcDbEntity
  8
0
 62
7
100
AcDbSpline
 70
8
 71
3
 72
8
 73
4
 74
0
 40
0
 40
0
 40
0
 40
0
 40
1
 40
1
 40
1
 40
1
 10
418.999454
 20
650.000121
 30
0.0
 10
421.769902
 20
650.000121
 30
0.0
 10
423.999278
 20
652.230291
 30
0.0
 10
423.999278
 20
655.000475
 30
0.0
  0
LWPOLYLINE
  5
1c4
100
AcDbEntity
  8
0
 62
7
100
AcDbPolyline
 90
3
 70
0
 10
413.999364
 20
645.000560
 30
0.0
 10
413.999364
 20
650.000121
 30
0.0
 10
418.999454
 20
650.000121
 30
0.0
  0
SPLINE
  5
1c5
100
AcDbEntity
  8
0
 62
7
100
AcDbSpline
 70
8
 71
3
 72
8
 73
4
 74
0
 40
0
 40
0
 40
0
 40
0
 40
1
 40
1
 40
1
 40
1
 10
365.999246
 20
720.000050
 30
0.0
 10
365.999246
 20
718.895416
 30
0.0
 10
365.104426
 20
717.999803
 30
0.0
 10
363.999263
 20
718.000067
 30
0.0
  0
SPLINE
  5
1c6
100
AcDbEntity
  8
0
 62
7
100
AcDbSpline
 70
8
 71
3
 72
8
 73
4
 74
0
 40
0
 40
0
 40
0
 40
0
 40
1
 40
1
 40
1
 40
1
 10
363.999263
 20
718.000067
 30
0.0
 10
362.894894
 20
718.000067
 30
0.0
 10
361.999016
 20
718.895681
 30
0.0
 10
361.999016
 20
720.000050
 30
0.0
  0
SPLINE
  5
1c7
100
AcDbEntity
  8
0
 62
7
100
AcDbSpline
 70
8
 71
3
 72
8
 73
4
 74
0
 40
0
 40
0
 40
0
 40
0
 40
1
 40
1
 40
1
 40
1
 10
361.999016
 20
720.000050
 30
0.0
 10
361.999016
 20
721.104684
 30
0.0
 10
362.895158
 20
722.000033
 30
0.0
 10
363.999263
 20
722.000033
 30
0.0
  0
SPLINE
  5
1c8
100
AcDbEntity
  8
0
 62
7
100
AcDbSpline
 70
8
 71
3
 72
8
 73
4
 74
0
 40
0
 40
0
 40
0
 40
0
 40
1
 40
1
 40
1
 40
1
 10
363.999263
 20
722.000033
 30
0.0
 10
365.103897
 20
722.000033
 30
0.0
 10
365.999246
 20
721.104684
 30
0.0
 10
365.999246
 20
720.000050
 30
0.0
  0
LWPOLYLINE
  5
1c9
100
AcDbEntity
  8
0
 62
7
100
AcDbPolyline
 90
2
 70
0
 10
423.999278
 20
655.000475
 30
0.0
 10
423.999278
 20
785.000261
 30
0.0
  0
SPLINE
  5
1ca
100
AcDbEntity
  8
0
 62
7
100
AcDbSpline
 70
8
 71
3
 72
8
 73
4
 74
0
 40
0
 40
0
 40
0
 40
0
 40
1
 40
1
 40
1
 40
1
 10
345.999417
 20
720.000050
 30
0.0
 10
345.999417
 20
718.895416
 30
0.0
 10
345.104598
 20
717.999803
 30
0.0
 10
343.999435
 20
718.000067
 30
0.0
  0
SPLINE
  5
1cb
100
AcDbEntity
  8
0
 62
7
100
AcDbSpline
 70
8
 71
3
 72
8
 73
4
 74
0
 40
0
 40
0
 40
0
 40
0
 40
1
 40
1
 40
1
 40
1
 10
343.999435
 20
718.000067
 30
0.0
 10
342.895065
 20
718.000067
 30
0.0
 10
341.999187
 20
718.895681
 30
0.0
 10
341.999187
 20
720.000050
 30
0.0
  0
SPLINE
  5
1cc
100
AcDbEntity
  8
0
 62
7
100
AcDbSpline
 70
8
 71
3
 72
8
 73
4
 74
0
 40
0
 40
0
 40
0
 40
0
 40
1
 40
1
 40
1
 40
1
 10
341.999187
 20
720.000050
 30
0.0
 10
341.999187
 20
721.104684
 30
0.0
 10
342.895330
 20
722.000033
 30
0.0
 10
343.999435
 20
722.000033
 30
0.0
  0
SPLINE
  5
1cd
100
AcDbEntity
  8
0
 62
7
100
AcDbSpline
 70
8
 71
3
 72
8
 73
4
 74
0
 40
0
 40
0
 40
0
 40
0
 40
1
 40
1
 40
1
 40
1
 10
343.999435
 20
722.000033
 30
0.0
 10
345.104069
 20
722.000033
 30
0.0
 10
345.999417
 20
721.104684
 30
0.0
 10
345.999417
 20
720.000050
 30
0.0
  0
LWPOLYLINE
  5
1ce
100
AcDbEntity
  8
0
 62
7
100
AcDbPolyline
 90
1
 70
1
 10
365.999246
 20
720.000050
 30
0.0
  0
SPLINE
  5
1cf
100
AcDbEntity
  8
0
 62
7
100
AcDbSpline
 70
8
 71
3
 72
8
 73
4
 74
0
 40
0
 40
0
 40
0
 40
0
 40
1
 40
1
 40
1
 40
1
 10
423.999278
 20
460.999491
 30
0.0
 10
423.999278
 20
463.769410
 30
0.0
 10
421.769902
 20
465.999316
 30
0.0
 10
418.999454
 20
465.999316
 30
0.0
  0
LWPOLYLINE
  5
1d0
100
AcDbEntity
  8
0
 62
7
100
AcDbPolyline
 90
1
 70
1
 10
345.999417
 20
720.000050
 30
0.0
  0
SPLINE
  5
1d1
100
AcDbEntity
  8
0
 62
7
100
AcDbSpline
 70
8
 71
3
 72
8
 73
4
 74
0
 40
0
 40
0
 40
0
 40
0
 40
1
 40
1
 40
1
 40
1
 10
413.999364
 20
470.999405
 30
0.0
 10
413.999364
 20
473.769324
 30
0.0
 10
411.769988
 20
475.999230
 30
0.0
 10
408.999804
 20
475.999230
 30
0.0
  0
LWPOLYLINE
  5
1d2
100
AcDbEntity
  8
0
 62
7
100
AcDbPolyline
 90
3
 70
0
 10
418.999454
 20
465.999316
 30
0.0
 10
413.999364
 20
465.999316
 30
0.0
 10
413.999364
 20
470.999405
 30
0.0
  0
SPLINE
  5
1d3
100
AcDbEntity
  8
0
 62
7
100
AcDbSpline
 70
8
 71
3
 72
8
 73
4
 74
0
 40
0
 40
0
 40
0
 40
0
 40
1
 40
1
 40
1
 40
1
 10
298.999688
 20
475.999230
 30
0.0
 10
296.229504
 20
475.999230
 30
0.0
 10
293.999598
 20
473.769589
 30
0.0
 10
293.999598
 20
470.999405
 30
0.0
  0
LWPOLYLINE
  5
1d4
100
AcDbEntity
  8
0
 62
7
100
AcDbPolyline
 90
2
 70
0
 10
408.999804
 20
475.999230
 30
0.0
 10
298.999688
 20
475.999230
 30
0.0
  0
SPLINE
  5
1d5
100
AcDbEntity
  8
0
 62
7
100
AcDbSpline
 70
8
 71
3
 72
8
 73
4
 74
0
 40
0
 40
0
 40
0
 40
0
 40
1
 40
1
 40
1
 40
1
 10
288.999244
 20
465.999316
 30
0.0
 10
286.229325
 20
465.999316
 30
0.0
 10
283.999684
 20
463.769410
 30
0.0
 10
283.999684
 20
460.999491
 30
0.0
  0
LWPOLYLINE
  5
1d6
100
AcDbEntity
  8
0
 62
7
100
AcDbPolyline
 90
3
 70
0
 10
293.999598
 20
470.999405
 30
0.0
 10
293.999598
 20
465.999316
 30
0.0
 10
288.999244
 20
465.999316
 30
0.0
  0
SPLINE
  5
1d7
100
AcDbEntity
  8
0
 62
7
100
AcDbSpline
 70
8
 71
3
 72
8
 73
4
 74
0
 40
0
 40
0
 40
0
 40
0
 40
1
 40
1
 40
1
 40
1
 10
283.999684
 20
330.999811
 30
0.0
 10
283.999684
 20
328.229627
 30
0.0
 10
286.229325
 20
325.999456
 30
0.0
 10
288.999244
 20
325.999456
 30
0.0
  0
LWPOLYLINE
  5
1d8
100
AcDbEntity
  8
0
 62
7
100
AcDbPolyline
 90
2
 70
0
 10
283.999684
 20
460.999491
 30
0.0
 10
283.999684
 20
330.999811
 30
0.0
  0
SPLINE
  5
1d9
100
AcDbEntity
  8
0
 62
7
100
AcDbSpline
 70
8
 71
3
 72
8
 73
4
 74
0
 40
0
 40
0
 40
0
 40
0
 40
1
 40
1
 40
1
 40
1
 10
293.999598
 20
320.999896
 30
0.0
 10
293.999598
 20
318.229712
 30
0.0
 10
296.229504
 20
315.999013
 30
0.0
 10
298.999688
 20
315.999013
 30
0.0
  0
LWPOLYLINE
  5
1da
100
AcDbEntity
  8
0
 62
7
100
AcDbPolyline
 90
3
 70
0
 10
288.999244
 20
325.999456
 30
0.0
 10
293.999598
 20
325.999456
 30
0.0
 10
293.999598
 20
320.999896
 30
0.0
  0
SPLINE
  5
1db
100
AcDbEntity
  8
0
 62
7
100
AcDbSpline
 70
8
 71
3
 72
8
 73
4
 74
0
 40
0
 40
0
 40
0
 40
0
 40
1
 40
1
 40
1
 40
1
 10
408.999804
 20
315.999013
 30
0.0
 10
411.769723
 20
315.999013
 30
0.0
 10
413.999364
 20
318.229712
 30
0.0
 10
413.999364
 20
320.999896
 30
0.0
  0
LWPOLYLINE
  5
1dc
100
AcDbEntity
  8
0
 62
7
100
AcDbPolyline
 90
2
 70
0
 10
298.999688
 20
315.999013
 30
0.0
 10
408.999804
 20
315.999013
 30
0.0
  0
SPLINE
  5
1dd
100
AcDbEntity
  8
0
 62
7
100
AcDbSpline
 70
8
 71
3
 72
8
 73
4
 74
0
 40
0
 40
0
 40
0
 40
0
 40
1
 40
1
 40
1
 40
1
 10
418.999454
 20
325.999456
 30
0.0
 10
421.769902
 20
325.999456
 30
0.0
 10
423.999278
 20
328.229627
 30
0.0
 10
423.999278
 20
330.999811
 30
0.0
  0
LWPOLYLINE
  5
1de
100
AcDbEntity
  8
0
 62
7
100
AcDbPolyline
 90
3
 70
0
 10
413.999364
 20
320.999896
 30
0.0
 10
413.999364
 20
325.999456
 30
0.0
 10
418.999454
 20
325.999456
 30
0.0
  0
SPLINE
  5
1df
100
AcDbEntity
  8
0
 62
7
100
AcDbSpline
 70
8
 71
3
 72
8
 73
4
 74
0
 40
0
 40
0
 40
0
 40
0
 40
1
 40
1
 40
1
 40
1
 10
365.999246
 20
395.999386
 30
0.0
 10
365.999246
 20
394.894752
 30
0.0
 10
365.104426
 20
393.999139
 30
0.0
 10
363.999263
 20
393.999403
 30
0.0
  0
SPLINE
  5
1e0
100
AcDbEntity
  8
0
 62
7
100
AcDbSpline
 70
8
 71
3
 72
8
 73
4
 74
0
 40
0
 40
0
 40
0
 40
0
 40
1
 40
1
 40
1
 40
1
 10
363.999263
 20
393.999403
 30
0.0
 10
362.894894
 20
393.999403
 30
0.0
 10
361.999016
 20
394.895017
 30
0.0
 10
361.999016
 20
395.999386
 30
0.0
  0
SPLINE
  5
1e1
100
AcDbEntity
  8
0
 62
7
100
AcDbSpline
 70
8
 71
3
 72
8
 73
4
 74
0
 40
0
 40
0
 40
0
 40
0
 40
1
 40
1
 40
1
 40
1
 10
361.999016
 20
395.999386
 30
0.0
 10
361.999016
 20
397.104020
 30
0.0
 10
362.895158
 20
397.999369
 30
0.0
 10
363.999263
 20
397.999369
 30
0.0
  0
SPLINE
  5
1e2
100
AcDbEntity
  8
0
 62
7
100
AcDbSpline
 70
8
 71
3
 72
8
 73
4
 74
0
 40
0
 40
0
 40
0
 40
0
 40
1
 40
1
 40
1
 40
1
 10
363.999263
 20
397.999369
 30
0.0
 10
365.103897
 20
397.999369
 30
0.0
 10
365.999246
 20
397.104020
 30
0.0
 10
365.999246
 20
395.999386
 30
0.0
  0
LWPOLYLINE
  5
1e3
100
AcDbEntity
  8
0
 62
7
100
AcDbPolyline
 90
2
 70
0
 10
423.999278
 20
330.999811
 30
0.0
 10
423.999278
 20
460.999491
 30
0.0
  0
SPLINE
  5
1e4
100
AcDbEntity
  8
0
 62
7
100
AcDbSpline
 70
8
 71
3
 72
8
 73
4
 74
0
 40
0
 40
0
 40
0
 40
0
 40
1
 40
1
 40
1
 40
1
 10
345.999417
 20
395.999386
 30
0.0
 10
345.999417
 20
394.894752
 30
0.0
 10
345.104598
 20
393.999139
 30
0.0
 10
343.999435
 20
393.999403
 30
0.0
  0
SPLINE
  5
1e5
100
AcDbEntity
  8
0
 62
7
100
AcDbSpline
 70
8
 71
3
 72
8
 73
4
 74
0
 40
0
 40
0
 40
0
 40
0
 40
1
 40
1
 40
1
 40
1
 10
343.999435
 20
393.999403
 30
0.0
 10
342.895065
 20
393.999403
 30
0.0
 10
341.999187
 20
394.895017
 30
0.0
 10
341.999187
 20
395.999386
 30
0.0
  0
SPLINE
  5
1e6
100
AcDbEntity
  8
0
 62
7
100
AcDbSpline
 70
8
 71
3
 72
8
 73
4
 74
0
 40
0
 40
0
 40
0
 40
0
 40
1
 40
1
 40
1
 40
1
 10
341.999187
 20
395.999386
 30
0.0
 10
341.999187
 20
397.104020
 30
0.0
 10
342.895330
 20
397.999369
 30
0.0
 10
343.999435
 20
397.999369
 30
0.0
  0
SPLINE
  5
1e7
100
AcDbEntity
  8
0
 62
7
100
AcDbSpline
 70
8
 71
3
 72
8
 73
4
 74
0
 40
0
 40
0
 40
0
 40
0
 40
1
 40
1
 40
1
 40
1
 10
343.999435
 20
397.999369
 30
0.0
 10
345.104069
 20
397.999369
 30
0.0
 10
345.999417
 20
397.104020
 30
0.0
 10
345.999417
 20
395.999386
 30
0.0
  0
LWPOLYLINE
  5
1e8
100
AcDbEntity
  8
0
 62
7
100
AcDbPolyline
 90
1
 70
1
 10
365.999246
 20
395.999386
 30
0.0
  0
SPLINE
  5
1e9
100
AcDbEntity
  8
0
 62
7
100
AcDbSpline
 70
8
 71
3
 72
8
 73
4
 74
0
 40
0
 40
0
 40
0
 40
0
 40
1
 40
1
 40
1
 40
1
 10
565.999015
 20
622.999691
 30
0.0
 10
565.999015
 20
625.769610
 30
0.0
 10
563.769638
 20
627.999515
 30
0.0
 10
560.999190
 20
627.999515
 30
0.0
  0
LWPOLYLINE
  5
1ea
100
AcDbEntity
  8
0
 62
7
100
AcDbPolyline
 90
1
 70
1
 10
345.999417
 20
395.999386
 30
0.0
  0
SPLINE
  5
1eb
100
AcDbEntity
  8
0
 62
7
100
AcDbSpline
 70
8
 71
3
 72
8
 73
4
 74
0
 40
0
 40
0
 40
0
 40
0
 40
1
 40
1
 40
1
 40
1
 10
555.999100
 20
632.999605
 30
0.0
 10
555.999100
 20
635.769524
 30
0.0
 10
553.769724
 20
637.999430
 30
0.0
 10
550.999646
 20
637.999430
 30
0.0
  0
LWPOLYLINE
  5
1ec
100
AcDbEntity
  8
0
 62
7
100
AcDbPolyline
 90
3
 70
0
 10
560.999190
 20
627.999515
 30
0.0
 10
555.999100
 20
627.999515
 30
0.0
 10
555.999100
 20
632.999605
 30
0.0
  0
SPLINE
  5
1ed
100
AcDbEntity
  8
0
 62
7
100
AcDbSpline
 70
8
 71
3
 72
8
 73
4
 74
0
 40
0
 40
0
 40
0
 40
0
 40
1
 40
1
 40
1
 40
1
 10
440.999530
 20
637.999430
 30
0.0
 10
438.229346
 20
637.999430
 30
0.0
 10
435.999440
 20
635.769789
 30
0.0
 10
435.999440
 20
632.999605
 30
0.0
  0
LWPOLYLINE
  5
1ee
100
AcDbEntity
  8
0
 62
7
100
AcDbPolyline
 90
2
 70
0
 10
550.999646
 20
637.999430
 30
0.0
 10
440.999530
 20
637.999430
 30
0.0
  0
SPLINE
  5
1ef
100
AcDbEntity
  8
0
 62
7
100
AcDbSpline
 70
8
 71
3
 72
8
 73
4
 74
0
 40
0
 40
0
 40
0
 40
0
 40
1
 40
1
 40
1
 40
1
 10
430.999086
 20
627.999515
 30
0.0
 10
428.229167
 20
627.999515
 30
0.0
 10
425.999526
 20
625.769610
 30
0.0
 10
425.999526
 20
622.999691
 30
0.0
  0
LWPOLYLINE
  5
1f0
100
AcDbEntity
  8
0
 62
7
100
AcDbPolyline
 90
3
 70
0
 10
435.999440
 20
632.999605
 30
0.0
 10
435.999440
 20
627.999515
 30
0.0
 10
430.999086
 20
627.999515
 30
0.0
  0
SPLINE
  5
1f1
100
AcDbEntity
  8
0
 62
7
100
AcDbSpline
 70
8
 71
3
 72
8
 73
4
 74
0
 40
0
 40
0
 40
0
 40
0
 40
1
 40
1
 40
1
 40
1
 10
425.999526
 20
493.000010
 30
0.0
 10
425.999526
 20
490.229826
 30
0.0
 10
428.229167
 20
487.999656
 30
0.0
 10
430.999086
 20
487.999656
 30
0.0
  0
LWPOLYLINE
  5
1f2
100
AcDbEntity
  8
0
 62
7
100
AcDbPolyline
 90
2
 70
0
 10
425.999526
 20
622.999691
 30
0.0
 10
425.999526
 20
493.000010
 30
0.0
  0
SPLINE
  5
1f3
100
AcDbEntity
  8
0
 62
7
100
AcDbSpline
 70
8
 71
3
 72
8
 73
4
 74
0
 40
0
 40
0
 40
0
 40
0
 40
1
 40
1
 40
1
 40
1
 10
435.999440
 20
483.000096
 30
0.0
 10
435.999440
 20
480.229912
 30
0.0
 10
438.229346
 20
477.999213
 30
0.0
 10
440.999530
 20
477.999213
 30
0.0
  0
LWPOLYLINE
  5
1f4
100
AcDbEntity
  8
0
 62
7
100
AcDbPolyline
 90
3
 70
0
 10
430.999086
 20
487.999656
 30
0.0
 10
435.999440
 20
487.999656
 30
0.0
 10
435.999440
 20
483.000096
 30
0.0
  0
SPLINE
  5
1f5
100
AcDbEntity
  8
0
 62
7
100
AcDbSpline
 70
8
 71
3
 72
8
 73
4
 74
0
 40
0
 40
0
 40
0
 40
0
 40
1
 40
1
 40
1
 40
1
 10
550.999646
 20
477.999213
 30
0.0
 10
553.769459
 20
477.999213
 30
0.0
 10
555.999100
 20
480.229912
 30
0.0
 10
555.999100
 20
483.000096
 30
0.0
  0
LWPOLYLINE
  5
1f6
100
AcDbEntity
  8
0
 62
7
100
AcDbPolyline
 90
2
 70
0
 10
440.999530
 20
477.999213
 30
0.0
 10
550.999646
 20
477.999213
 30
0.0
  0
SPLINE
  5
1f7
100
AcDbEntity
  8
0
 62
7
100
AcDbSpline
 70
8
 71
3
 72
8
 73
4
 74
0
 40
0
 40
0
 40
0
 40
0
 40
1
 40
1
 40
1
 40
1
 10
560.999190
 20
487.999656
 30
0.0
 10
563.769638
 20
487.999656
 30
0.0
 10
565.999015
 20
490.229826
 30
0.0
 10
565.999015
 20
493.000010
 30
0.0
  0
LWPOLYLINE
  5
1f8
100
AcDbEntity
  8
0
 62
7
100
AcDbPolyline
 90
3
 70
0
 10
555.999100
 20
483.000096
 30
0.0
 10
555.999100
 20
487.999656
 30
0.0
 10
560.999190
 20
487.999656
 30
0.0
  0
SPLINE
  5
1f9
100
AcDbEntity
  8
0
 62
7
100
AcDbSpline
 70
8
 71
3
 72
8
 73
4
 74
0
 40
0
 40
0
 40
0
 40
0
 40
1
 40
1
 40
1
 40
1
 10
507.999088
 20
557.999586
 30
0.0
 10
507.999088
 20
556.894952
 30
0.0
 10
507.104268
 20
555.999338
 30
0.0
 10
505.999105
 20
555.999603
 30
0.0
  0
SPLINE
  5
1fa
100
AcDbEntity
  8
0
 62
7
100
AcDbSpline
 70
8
 71
3
 72
8
 73
4
 74
0
 40
0
 40
0
 40
0
 40
0
 40
1
 40
1
 40
1
 40
1
 10
505.999105
 20
555.999603
 30
0.0
 10
504.894736
 20
555.999603
 30
0.0
 10
503.998858
 20
556.895216
 30
0.0
 10
503.998858
 20
557.999586
 30
0.0
  0
SPLINE
  5
1fb
100
AcDbEntity
  8
0
 62
7
100
AcDbSpline
 70
8
 71
3
 72
8
 73
4
 74
0
 40
0
 40
0
 40
0
 40
0
 40
1
 40
1
 40
1
 40
1
 10
503.998858
 20
557.999586
 30
0.0
 10
503.998858
 20
559.104220
 30
0.0
 10
504.895000
 20
559.999569
 30
0.0
 10
505.999105
 20
559.999569
 30
0.0
  0
SPLINE
  5
1fc
100
AcDbEntity
  8
0
 62
7
100
AcDbSpline
 70
8
 71
3
 72
8
 73
4
 74
0
 40
0
 40
0
 40
0
 40
0
 40
1
 40
1
 40
1
 40
1
 10
505.999105
 20
559.999569
 30
0.0
 10
507.103739
 20
559.999569
 30
0.0
 10
507.999088
 20
559.104220
 30
0.0
 10
507.999088
 20
557.999586
 30
0.0
  0
LWPOLYLINE
  5
1fd
100
AcDbEntity
  8
0
 62
7
100
AcDbPolyline
 90
2
 70
0
 10
565.999015
 20
493.000010
 30
0.0
 10
565.999015
 20
622.999691
 30
0.0
  0
SPLINE
  5
1fe
100
AcDbEntity
  8
0
 62
7
100
AcDbSpline
 70
8
 71
3
 72
8
 73
4
 74
0
 40
0
 40
0
 40
0
 40
0
 40
1
 40
1
 40
1
 40
1
 10
487.999259
 20
557.999586
 30
0.0
 10
487.999259
 20
556.894952
 30
0.0
 10
487.104440
 20
555.999338
 30
0.0
 10
485.999277
 20
555.999603
 30
0.0
  0
SPLINE
  5
1ff
100
AcDbEntity
  8
0
 62
7
100
AcDbSpline
 70
8
 71
3
 72
8
 73
4
 74
0
 40
0
 40
0
 40
0
 40
0
 40
1
 40
1
 40
1
 40
1
 10
485.999277
 20
555.999603
 30
0.0
 10
484.894907
 20
555.999603
 30
0.0
 10
483.999029
 20
556.895216
 30
0.0
 10
483.999029
 20
557.999586
 30
0.0
  0
SPLINE
  5
200
100
AcDbEntity
  8
0
 62
7
100
AcDbSpline
 70
8
 71
3
 72
8
 73
4
 74
0
 40
0
 40
0
 40
0
 40
0
 40
1
 40
1
 40
1
 40
1
 10
483.999029
 20
557.999586
 30
0.0
 10
483.999029
 20
559.104220
 30
0.0
 10
484.895172
 20
559.999569
 30
0.0
 10
485.999277
 20
559.999569
 30
0.0
  0
SPLINE
  5
201
100
AcDbEntity
  8
0
 62
7
100
AcDbSpline
 70
8
 71
3
 72
8
 73
4
 74
0
 40
0
 40
0
 40
0
 40
0
 40
1
 40
1
 40
1
 40
1
 10
485.999277
 20
559.999569
 30
0.0
 10
487.103911
 20
559.999569
 30
0.0
 10
487.999259
 20
559.104220
 30
0.0
 10
487.999259
 20
557.999586
 30
0.0
  0
LWPOLYLINE
  5
202
100
AcDbEntity
  8
0
 62
7
100
AcDbPolyline
 90
1
 70
1
 10
507.999088
 20
557.999586
 30
0.0
  0
SPLINE
  5
203
100
AcDbEntity
  8
0
 62
7
100
AcDbSpline
 70
8
 71
3
 72
8
 73
4
 74
0
 40
0
 40
0
 40
0
 40
0
 40
1
 40
1
 40
1
 40
1
 10
565.999015
 20
784.999996
 30
0.0
 10
565.999015
 20
787.769916
 30
0.0
 10
563.769638
 20
789.999821
 30
0.0
 10
560.999190
 20
789.999821
 30
0.0
  0
LWPOLYLINE
  5
204
100
AcDbEntity
  8
0
 62
7
100
AcDbPolyline
 90
1
 70
1
 10
487.999259
 20
557.999586
 30
0.0
  0
SPLINE
  5
205
100
AcDbEntity
  8
0
 62
7
100
AcDbSpline
 70
8
 71
3
 72
8
 73
4
 74
0
 40
0
 40
0
 40
0
 40
0
 40
1
 40
1
 40
1
 40
1
 10
555.999100
 20
794.999911
 30
0.0
 10
555.999100
 20
797.769830
 30
0.0
 10
553.769724
 20
799.999735
 30
0.0
 10
550.999646
 20
799.999735
 30
0.0
  0
LWPOLYLINE
  5
206
100
AcDbEntity
  8
0
 62
7
100
AcDbPolyline
 90
3
 70
0
 10
560.999190
 20
789.999821
 30
0.0
 10
555.999100
 20
789.999821
 30
0.0
 10
555.999100
 20
794.999911
 30
0.0
  0
SPLINE
  5
207
100
AcDbEntity
  8
0
 62
7
100
AcDbSpline
 70
8
 71
3
 72
8
 73
4
 74
0
 40
0
 40
0
 40
0
 40
0
 40
1
 40
1
 40
1
 40
1
 10
440.999530
 20
799.999735
 30
0.0
 10
438.229346
 20
799.999735
 30
0.0
 10
435.999440
 20
797.770095
 30
0.0
 10
435.999440
 20
794.999911
 30
0.0
  0
LWPOLYLINE
  5
208
100
AcDbEntity
  8
0
 62
7
100
AcDbPolyline
 90
2
 70
0
 10
550.999646
 20
799.999735
 30
0.0
 10
440.999530
 20
799.999735
 30
0.0
  0
SPLINE
  5
209
100
AcDbEntity
  8
0
 62
7
100
AcDbSpline
 70
8
 71
3
 72
8
 73
4
 74
0
 40
0
 40
0
 40
0
 40
0
 40
1
 40
1
 40
1
 40
1
 10
430.999086
 20
789.999821
 30
0.0
 10
428.229167
 20
789.999821
 30
0.0
 10
425.999526
 20
787.769916
 30
0.0
 10
425.999526
 20
784.999996
 30
0.0
  0
LWPOLYLINE
  5
20a
100
AcDbEntity
  8
0
 62
7
100
AcDbPolyline
 90
3
 70
0
 10
435.999440
 20
794.999911
 30
0.0
 10
435.999440
 20
789.999821
 30
0.0
 10
430.999086
 20
789.999821
 30
0.0
  0
SPLINE
  5
20b
100
AcDbEntity
  8
0
 62
7
100
AcDbSpline
 70
8
 71
3
 72
8
 73
4
 74
0
 40
0
 40
0
 40
0
 40
0
 40
1
 40
1
 40
1
 40
1
 10
425.999526
 20
655.000210
 30
0.0
 10
425.999526
 20
652.230026
 30
0.0
 10
428.229167
 20
649.999856
 30
0.0
 10
430.999086
 20
649.999856
 30
0.0
  0
LWPOLYLINE
  5
20c
100
AcDbEntity
  8
0
 62
7
100
AcDbPolyline
 90
2
 70
0
 10
425.999526
 20
784.999996
 30
0.0
 10
425.999526
 20
655.000210
 30
0.0
  0
SPLINE
  5
20d
100
AcDbEntity
  8
0
 62
7
100
AcDbSpline
 70
8
 71
3
 72
8
 73
4
 74
0
 40
0
 40
0
 40
0
 40
0
 40
1
 40
1
 40
1
 40
1
 10
435.999440
 20
645.000296
 30
0.0
 10
435.999440
 20
642.230112
 30
0.0
 10
438.229346
 20
639.999413
 30
0.0
 10
440.999530
 20
639.999413
 30
0.0
  0
LWPOLYLINE
  5
20e
100
AcDbEntity
  8
0
 62
7
100
AcDbPolyline
 90
3
 70
0
 10
430.999086
 20
649.999856
 30
0.0
 10
435.999440
 20
649.999856
 30
0.0
 10
435.999440
 20
645.000296
 30
0.0
  0
SPLINE
  5
20f
100
AcDbEntity
  8
0
 62
7
100
AcDbSpline
 70
8
 71
3
 72
8
 73
4
 74
0
 40
0
 40
0
 40
0
 40
0
 40
1
 40
1
 40
1
 40
1
 10
550.999646
 20
639.999413
 30
0.0
 10
553.769459
 20
639.999413
 30
0.0
 10
555.999100
 20
642.230112
 30
0.0
 10
555.999100
 20
645.000296
 30
0.0
  0
LWPOLYLINE
  5
210
100
AcDbEntity
  8
0
 62
7
100
AcDbPolyline
 90
2
 70
0
 10
440.999530
 20
639.999413
 30
0.0
 10
550.999646
 20
639.999413
 30
0.0
  0
SPLINE
  5
211
100
AcDbEntity
  8
0
 62
7
100
AcDbSpline
 70
8
 71
3
 72
8
 73
4
 74
0
 40
0
 40
0
 40
0
 40
0
 40
1
 40
1
 40
1
 40
1
 10
560.999190
 20
649.999856
 30
0.0
 10
563.769638
 20
649.999856
 30
0.0
 10
565.999015
 20
652.230026
 30
0.0
 10
565.999015
 20
655.000210
 30
0.0
  0
LWPOLYLINE
  5
212
100
AcDbEntity
  8
0
 62
7
100
AcDbPolyline
 90
3
 70
0
 10
555.999100
 20
645.000296
 30
0.0
 10
555.999100
 20
649.999856
 30
0.0
 10
560.999190
 20
649.999856
 30
0.0
  0
SPLINE
  5
213
100
AcDbEntity
  8
0
 62
7
100
AcDbSpline
 70
8
 71
3
 72
8
 73
4
 74
0
 40
0
 40
0
 40
0
 40
0
 40
1
 40
1
 40
1
 40
1
 10
507.999088
 20
719.999786
 30
0.0
 10
507.999088
 20
718.895152
 30
0.0
 10
507.104268
 20
717.999538
 30
0.0
 10
505.999105
 20
717.999803
 30
0.0
  0
SPLINE
  5
214
100
AcDbEntity
  8
0
 62
7
100
AcDbSpline
 70
8
 71
3
 72
8
 73
4
 74
0
 40
0
 40
0
 40
0
 40
0
 40
1
 40
1
 40
1
 40
1
 10
505.999105
 20
717.999803
 30
0.0
 10
504.894736
 20
717.999803
 30
0.0
 10
503.998858
 20
718.895416
 30
0.0
 10
503.998858
 20
719.999786
 30
0.0
  0
SPLINE
  5
215
100
AcDbEntity
  8
0
 62
7
100
AcDbSpline
 70
8
 71
3
 72
8
 73
4
 74
0
 40
0
 40
0
 40
0
 40
0
 40
1
 40
1
 40
1
 40
1
 10
503.998858
 20
719.999786
 30
0.0
 10
503.998858
 20
721.104420
 30
0.0
 10
504.895000
 20
721.999769
 30
0.0
 10
505.999105
 20
721.999769
 30
0.0
  0
SPLINE
  5
216
100
AcDbEntity
  8
0
 62
7
100
AcDbSpline
 70
8
 71
3
 72
8
 73
4
 74
0
 40
0
 40
0
 40
0
 40
0
 40
1
 40
1
 40
1
 40
1
 10
505.999105
 20
721.999769
 30
0.0
 10
507.103739
 20
721.999769
 30
0.0
 10
507.999088
 20
721.104420
 30
0.0
 10
507.999088
 20
719.999786
 30
0.0
  0
LWPOLYLINE
  5
217
100
AcDbEntity
  8
0
 62
7
100
AcDbPolyline
 90
2
 70
0
 10
565.999015
 20
655.000210
 30
0.0
 10
565.999015
 20
784.999996
 30
0.0
  0
SPLINE
  5
218
100
AcDbEntity
  8
0
 62
7
100
AcDbSpline
 70
8
 71
3
 72
8
 73
4
 74
0
 40
0
 40
0
 40
0
 40
0
 40
1
 40
1
 40
1
 40
1
 10
487.999259
 20
719.999786
 30
0.0
 10
487.999259
 20
718.895152
 30
0.0
 10
487.104440
 20
717.999538
 30
0.0
 10
485.999277
 20
717.999803
 30
0.0
  0
SPLINE
  5
219
100
AcDbEntity
  8
0
 62
7
100
AcDbSpline
 70
8
 71
3
 72
8
 73
4
 74
0
 40
0
 40
0
 40
0
 40
0
 40
1
 40
1
 40
1
 40
1
 10
485.999277
 20
717.999803
 30
0.0
 10
484.894907
 20
717.999803
 30
0.0
 10
483.999029
 20
718.895416
 30
0.0
 10
483.999029
 20
719.999786
 30
0.0
  0
SPLINE
  5
21a
100
AcDbEntity
  8
0
 62
7
100
AcDbSpline
 70
8
 71
3
 72
8
 73
4
 74
0
 40
0
 40
0
 40
0
 40
0
 40
1
 40
1
 40
1
 40
1
 10
483.999029
 20
719.999786
 30
0.0
 10
483.999029
 20
721.104420
 30
0.0
 10
484.895172
 20
721.999769
 30
0.0
 10
485.999277
 20
721.999769
 30
0.0
  0
SPLINE
  5
21b
100
AcDbEntity
  8
0
 62
7
100
AcDbSpline
 70
8
 71
3
 72
8
 73
4
 74
0
 40
0
 40
0
 40
0
 40
0
 40
1
 40
1
 40
1
 40
1
 10
485.999277
 20
721.999769
 30
0.0
 10
487.103911
 20
721.999769
 30
0.0
 10
487.999259
 20
721.104420
 30
0.0
 10
487.999259
 20
719.999786
 30
0.0
  0
LWPOLYLINE
  5
21c
100
AcDbEntity
  8
0
 62
7
100
AcDbPolyline
 90
1
 70
1
 10
507.999088
 20
719.999786
 30
0.0
  0
LWPOLYLINE
  5
21d
100
AcDbEntity
  8
0
 62
7
100
AcDbPolyline
 90
1
 70
1
 10
487.999259
 20
719.999786
 30
0.0
  0
SPLINE
  5
21e
100
AcDbEntity
  8
0
 62
7
100
AcDbSpline
 70
8
 71
3
 72
8
 73
4
 74
0
 40
0
 40
0
 40
0
 40
0
 40
1
 40
1
 40
1
 40
1
 10
564.999576
 20
475.999997
 30
0.0
 10
565.264792
 20
475.999997
 30
0.0
 10
565.519146
 20
475.894640
 30
0.0
 10
565.706682
 20
475.707104
 30
0.0
  0
SPLINE
  5
21f
100
AcDbEntity
  8
0
 62
7
100
AcDbSpline
 70
8
 71
3
 72
8
 73
4
 74
0
 40
0
 40
0
 40
0
 40
0
 40
1
 40
1
 40
1
 40
1
 10
565.706682
 20
475.707104
 30
0.0
 10
565.894219
 20
475.519568
 30
0.0
 10
565.999576
 20
475.265214
 30
0.0
 10
565.999576
 20
474.999997
 30
0.0
  0
LWPOLYLINE
  5
220
100
AcDbEntity
  8
0
 62
7
100
AcDbPolyline
 90
2
 70
0
 10
426.999579
 20
475.999997
 30
0.0
 10
564.999576
 20
475.999997
 30
0.0
  0
SPLINE
  5
221
100
AcDbEntity
  8
0
 62
7
100
AcDbSpline
 70
8
 71
3
 72
8
 73
4
 74
0
 40
0
 40
0
 40
0
 40
0
 40
1
 40
1
 40
1
 40
1
 10
565.999576
 20
317.000003
 30
0.0
 10
565.999576
 20
316.734786
 30
0.0
 10
565.894219
 20
316.480432
 30
0.0
 10
565.706682
 20
316.292896
 30
0.0
  0
SPLINE
  5
222
100
AcDbEntity
  8
0
 62
7
100
AcDbSpline
 70
8
 71
3
 72
8
 73
4
 74
0
 40
0
 40
0
 40
0
 40
0
 40
1
 40
1
 40
1
 40
1
 10
565.706682
 20
316.292896
 30
0.0
 10
565.519146
 20
316.105359
 30
0.0
 10
565.264792
 20
316.000003
 30
0.0
 10
564.999576
 20
316.000003
 30
0.0
  0
LWPOLYLINE
  5
223
100
AcDbEntity
  8
0
 62
7
100
AcDbPolyline
 90
2
 70
0
 10
565.999576
 20
474.999997
 30
0.0
 10
565.999576
 20
317.000003
 30
0.0
  0
SPLINE
  5
224
100
AcDbEntity
  8
0
 62
7
100
AcDbSpline
 70
8
 71
3
 72
8
 73
4
 74
0
 40
0
 40
0
 40
0
 40
0
 40
1
 40
1
 40
1
 40
1
 10
426.999579
 20
316.000003
 30
0.0
 10
426.734362
 20
316.000003
 30
0.0
 10
426.480008
 20
316.105359
 30
0.0
 10
426.292472
 20
316.292896
 30
0.0
  0
SPLINE
  5
225
100
AcDbEntity
  8
0
 62
7
100
AcDbSpline
 70
8
 71
3
 72
8
 73
4
 74
0
 40
0
 40
0
 40
0
 40
0
 40
1
 40
1
 40
1
 40
1
 10
426.292472
 20
316.292896
 30
0.0
 10
426.104936
 20
316.480432
 30
0.0
 10
425.999579
 20
316.734786
 30
0.0
 10
425.999579
 20
317.000003
 30
0.0
  0
LWPOLYLINE
  5
226
100
AcDbEntity
  8
0
 62
7
100
AcDbPolyline
 90
2
 70
0
 10
564.999576
 20
316.000003
 30
0.0
 10
426.999579
 20
316.000003
 30
0.0
  0
SPLINE
  5
227
100
AcDbEntity
  8
0
 62
7
100
AcDbSpline
 70
8
 71
3
 72
8
 73
4
 74
0
 40
0
 40
0
 40
0
 40
0
 40
1
 40
1
 40
1
 40
1
 10
425.999579
 20
474.999997
 30
0.0
 10
425.999579
 20
475.265214
 30
0.0
 10
426.104936
 20
475.519568
 30
0.0
 10
426.292472
 20
475.707104
 30
0.0
  0
SPLINE
  5
228
100
AcDbEntity
  8
0
 62
7
100
AcDbSpline
 70
8
 71
3
 72
8
 73
4
 74
0
 40
0
 40
0
 40
0
 40
0
 40
1
 40
1
 40
1
 40
1
 10
426.292472
 20
475.707104
 30
0.0
 10
426.480008
 20
475.894640
 30
0.0
 10
426.734362
 20
475.999997
 30
0.0
 10
426.999579
 20
475.999997
 30
0.0
  0
LWPOLYLINE
  5
229
100
AcDbEntity
  8
0
 62
7
100
AcDbPolyline
 90
2
 70
0
 10
425.999579
 20
317.000003
 30
0.0
 10
425.999579
 20
474.999997
 30
0.0
  0
LWPOLYLINE
  5
22a
100
AcDbEntity
  8
0
 62
7
100
AcDbPolyline
 90
1
 70
1
 10
426.999579
 20
475.999997
 30
0.0
  0
ENDSEC
  0
SECTION
  2
OBJECTS
  0
DICTIONARY
  5
C
330
0
100
AcDbDictionary
  3
ACAD_GROUP
350
D
  3
ACAD_MLINESTYLE
350
17
  0
DICTIONARY
  5
D
330
C
100
AcDbDictionary
  0
DICTIONARY
  5
1A
330
C
100
AcDbDictionary
  0
DICTIONARY
  5
17
330
C
100
AcDbDictionary
  3
STANDARD
350
18
  0
DICTIONARY
  5
19
330
C
100
AcDbDictionary
  0
ENDSEC
  0
EOF
