999
"DXF R12 Output" (www.mydxf.blogspot.com)
 0 
SECTION
 2 
HEADER
 9 
$ACADVER
 1 
AC1009
 9 
$EXTMIN
 10 
 0 
 20 
 0 
 9 
$EXTMAX
 10 
 8.5 
 20 
 11 
 0 
ENDSEC
 0 
SECTION
 2 
ENTITIES
0
LINE
8
Layer 1
10
0.793749
20
297.794000
11
-0.793749
21
296.206000
0
LINE
8
Layer 1
10
0.000000
20
298.323000
11
0.000000
21
295.677000
0
LINE
8
Layer 1
10
2.116660
20
295.942000
11
1.058330
21
294.883670
0
LINE
8
Layer 1
10
1.587500
20
296.471000
11
0.529170
21
295.412670
0
LINE
8
Layer 1
10
1.058330
20
297.000000
11
0.000000
21
295.941670
0
LINE
8
0
10
316.000000
20
518.500000
11
316.101230
21
517.489863
0
LINE
8
0
10
316.101230
20
517.489863
11
316.391719
21
516.550156
0
LINE
8
0
10
316.391719
20
516.550156
11
316.851660
21
515.700684
0
LINE
8
0
10
316.851660
20
515.700684
11
317.461250
21
514.961250
0
LINE
8
0
10
317.461250
20
514.961250
11
318.200684
21
514.351660
0
LINE
8
0
10
318.200684
20
514.351660
11
319.050156
21
513.891719
0
LINE
8
0
10
319.050156
20
513.891719
11
319.989863
21
513.601230
0
LINE
8
0
10
319.989863
20
513.601230
11
321.000000
21
513.500000
0
LINE
8
0
10
470.999000
20
513.500000
11
472.009180
21
513.601230
0
LINE
8
0
10
472.009180
20
513.601230
11
472.949000
21
513.891719
0
LINE
8
0
10
472.949000
20
513.891719
11
473.798633
21
514.351660
0
LINE
8
0
10
473.798633
20
514.351660
11
474.538250
21
514.961250
0
LINE
8
0
10
474.538250
20
514.961250
11
475.148023
21
515.700684
0
LINE
8
0
10
475.148023
20
515.700684
11
475.608125
21
516.550156
0
LINE
8
0
10
475.608125
20
516.550156
11
475.898727
21
517.489863
0
LINE
8
0
10
475.898727
20
517.489863
11
476.000000
21
518.500000
0
LINE
8
0
10
321.000000
20
513.500000
11
470.999000
21
513.500000
0
LINE
8
0
10
476.000000
20
795.000000
11
475.898727
21
796.009807
0
LINE
8
0
10
475.898727
20
796.009807
11
475.608125
21
796.949266
0
LINE
8
0
10
475.608125
20
796.949266
11
475.148023
21
797.798561
0
LINE
8
0
10
475.148023
20
797.798561
11
474.538250
21
798.537875
0
LINE
8
0
10
474.538250
20
798.537875
11
473.798633
21
799.147393
0
LINE
8
0
10
473.798633
20
799.147393
11
472.949000
21
799.607297
0
LINE
8
0
10
472.949000
20
799.607297
11
472.009180
21
799.897771
0
LINE
8
0
10
472.009180
20
799.897771
11
470.999000
21
799.999000
0
LINE
8
0
10
476.000000
20
518.500000
11
476.000000
21
795.000000
0
LINE
8
0
10
321.000000
20
799.999000
11
319.989863
21
799.897771
0
LINE
8
0
10
319.989863
20
799.897771
11
319.050156
21
799.607297
0
LINE
8
0
10
319.050156
20
799.607297
11
318.200684
21
799.147393
0
LINE
8
0
10
318.200684
20
799.147393
11
317.461250
21
798.537875
0
LINE
8
0
10
317.461250
20
798.537875
11
316.851660
21
797.798561
0
LINE
8
0
10
316.851660
20
797.798561
11
316.391719
21
796.949266
0
LINE
8
0
10
316.391719
20
796.949266
11
316.101230
21
796.009807
0
LINE
8
0
10
316.101230
20
796.009807
11
316.000000
21
795.000000
0
LINE
8
0
10
470.999000
20
799.999000
11
321.000000
21
799.999000
0
LINE
8
0
10
319.018000
20
518.500000
11
319.175109
21
519.278250
0
LINE
8
0
10
319.175109
20
519.278250
11
319.603625
21
519.914000
0
LINE
8
0
10
319.603625
20
519.914000
11
320.239328
21
520.342750
0
LINE
8
0
10
320.239328
20
520.342750
11
321.018000
21
520.500000
0
LINE
8
0
10
321.018000
20
520.500000
11
321.796094
21
520.342891
0
LINE
8
0
10
321.796094
20
520.342891
11
322.431500
21
519.914375
0
LINE
8
0
10
322.431500
20
519.914375
11
322.859906
21
519.278672
0
LINE
8
0
10
322.859906
20
519.278672
11
323.017000
21
518.500000
0
LINE
8
0
10
323.017000
20
518.500000
11
322.859906
21
517.721328
0
LINE
8
0
10
322.859906
20
517.721328
11
322.431500
21
517.085625
0
LINE
8
0
10
322.431500
20
517.085625
11
321.796094
21
516.657109
0
LINE
8
0
10
321.796094
20
516.657109
11
321.018000
21
516.500000
0
LINE
8
0
10
321.018000
20
516.500000
11
320.239328
21
516.657109
0
LINE
8
0
10
320.239328
20
516.657109
11
319.603625
21
517.085625
0
LINE
8
0
10
319.603625
20
517.085625
11
319.175109
21
517.721328
0
LINE
8
0
10
319.175109
20
517.721328
11
319.018000
21
518.500000
0
LINE
8
0
10
316.000000
20
795.000000
11
316.000000
21
518.500000
0
LINE
8
0
10
319.018000
20
598.500000
11
319.175109
21
599.278828
0
LINE
8
0
10
319.175109
20
599.278828
11
319.603625
21
599.914875
0
LINE
8
0
10
319.603625
20
599.914875
11
320.239328
21
600.343734
0
LINE
8
0
10
320.239328
20
600.343734
11
321.018000
21
600.501000
0
LINE
8
0
10
321.018000
20
600.501000
11
321.796094
21
600.343734
0
LINE
8
0
10
321.796094
20
600.343734
11
322.431500
21
599.914875
0
LINE
8
0
10
322.431500
20
599.914875
11
322.859906
21
599.278828
0
LINE
8
0
10
322.859906
20
599.278828
11
323.017000
21
598.500000
0
LINE
8
0
10
323.017000
20
598.500000
11
322.859906
21
597.721328
0
LINE
8
0
10
322.859906
20
597.721328
11
322.431500
21
597.085625
0
LINE
8
0
10
322.431500
20
597.085625
11
321.796094
21
596.657109
0
LINE
8
0
10
321.796094
20
596.657109
11
321.018000
21
596.500000
0
LINE
8
0
10
321.018000
20
596.500000
11
320.239328
21
596.657250
0
LINE
8
0
10
320.239328
20
596.657250
11
319.603625
21
597.086000
0
LINE
8
0
10
319.603625
20
597.086000
11
319.175109
21
597.721750
0
LINE
8
0
10
319.175109
20
597.721750
11
319.018000
21
598.500000
0
LINE
8
0
10
319.018000
20
715.001000
11
319.175109
21
715.779094
0
LINE
8
0
10
319.175109
20
715.779094
11
319.603625
21
716.414500
0
LINE
8
0
10
319.603625
20
716.414500
11
320.239328
21
716.842906
0
LINE
8
0
10
320.239328
20
716.842906
11
321.018000
21
717.000000
0
LINE
8
0
10
321.018000
20
717.000000
11
321.796094
21
716.842906
0
LINE
8
0
10
321.796094
20
716.842906
11
322.431500
21
716.414500
0
LINE
8
0
10
322.431500
20
716.414500
11
322.859906
21
715.779094
0
LINE
8
0
10
322.859906
20
715.779094
11
323.017000
21
715.001000
0
LINE
8
0
10
323.017000
20
715.001000
11
322.859906
21
714.222187
0
LINE
8
0
10
322.859906
20
714.222187
11
322.431500
21
713.586250
0
LINE
8
0
10
322.431500
20
713.586250
11
321.796094
21
713.157687
0
LINE
8
0
10
321.796094
20
713.157687
11
321.018000
21
713.001000
0
LINE
8
0
10
321.018000
20
713.001000
11
320.239328
21
713.158109
0
LINE
8
0
10
320.239328
20
713.158109
11
319.603625
21
713.586625
0
LINE
8
0
10
319.603625
20
713.586625
11
319.175109
21
714.222328
0
LINE
8
0
10
319.175109
20
714.222328
11
319.018000
21
715.001000
0
LINE
8
0
10
319.018000
20
795.000000
11
319.175109
21
795.778672
0
LINE
8
0
10
319.175109
20
795.778672
11
319.603625
21
796.414375
0
LINE
8
0
10
319.603625
20
796.414375
11
320.239328
21
796.842891
0
LINE
8
0
10
320.239328
20
796.842891
11
321.018000
21
797.000000
0
LINE
8
0
10
321.018000
20
797.000000
11
321.796094
21
796.842891
0
LINE
8
0
10
321.796094
20
796.842891
11
322.431500
21
796.414375
0
LINE
8
0
10
322.431500
20
796.414375
11
322.859906
21
795.778672
0
LINE
8
0
10
322.859906
20
795.778672
11
323.017000
21
795.000000
0
LINE
8
0
10
323.017000
20
795.000000
11
322.859906
21
794.221328
0
LINE
8
0
10
322.859906
20
794.221328
11
322.431500
21
793.585625
0
LINE
8
0
10
322.431500
20
793.585625
11
321.796094
21
793.157109
0
LINE
8
0
10
321.796094
20
793.157109
11
321.018000
21
793.000000
0
LINE
8
0
10
321.018000
20
793.000000
11
320.239328
21
793.157250
0
LINE
8
0
10
320.239328
20
793.157250
11
319.603625
21
793.586000
0
LINE
8
0
10
319.603625
20
793.586000
11
319.175109
21
794.221750
0
LINE
8
0
10
319.175109
20
794.221750
11
319.018000
21
795.000000
0
LINE
8
0
10
329.054000
20
518.500000
11
329.211109
21
519.278250
0
LINE
8
0
10
329.211109
20
519.278250
11
329.639625
21
519.914000
0
LINE
8
0
10
329.639625
20
519.914000
11
330.275328
21
520.342750
0
LINE
8
0
10
330.275328
20
520.342750
11
331.054000
21
520.500000
0
LINE
8
0
10
331.054000
20
520.500000
11
331.832094
21
520.342891
0
LINE
8
0
10
331.832094
20
520.342891
11
332.467500
21
519.914375
0
LINE
8
0
10
332.467500
20
519.914375
11
332.895906
21
519.278672
0
LINE
8
0
10
332.895906
20
519.278672
11
333.053000
21
518.500000
0
LINE
8
0
10
333.053000
20
518.500000
11
332.895906
21
517.721328
0
LINE
8
0
10
332.895906
20
517.721328
11
332.467500
21
517.085625
0
LINE
8
0
10
332.467500
20
517.085625
11
331.832094
21
516.657109
0
LINE
8
0
10
331.832094
20
516.657109
11
331.054000
21
516.500000
0
LINE
8
0
10
331.054000
20
516.500000
11
330.275328
21
516.657109
0
LINE
8
0
10
330.275328
20
516.657109
11
329.639625
21
517.085625
0
LINE
8
0
10
329.639625
20
517.085625
11
329.211109
21
517.721328
0
LINE
8
0
10
329.211109
20
517.721328
11
329.054000
21
518.500000
0
LINE
8
0
10
329.054000
20
795.000000
11
329.211109
21
795.778672
0
LINE
8
0
10
329.211109
20
795.778672
11
329.639625
21
796.414375
0
LINE
8
0
10
329.639625
20
796.414375
11
330.275328
21
796.842891
0
LINE
8
0
10
330.275328
20
796.842891
11
331.054000
21
797.000000
0
LINE
8
0
10
331.054000
20
797.000000
11
331.832094
21
796.842891
0
LINE
8
0
10
331.832094
20
796.842891
11
332.467500
21
796.414375
0
LINE
8
0
10
332.467500
20
796.414375
11
332.895906
21
795.778672
0
LINE
8
0
10
332.895906
20
795.778672
11
333.053000
21
795.000000
0
LINE
8
0
10
333.053000
20
795.000000
11
332.895906
21
794.221328
0
LINE
8
0
10
332.895906
20
794.221328
11
332.467500
21
793.585625
0
LINE
8
0
10
332.467500
20
793.585625
11
331.832094
21
793.157109
0
LINE
8
0
10
331.832094
20
793.157109
11
331.054000
21
793.000000
0
LINE
8
0
10
331.054000
20
793.000000
11
330.275328
21
793.157250
0
LINE
8
0
10
330.275328
20
793.157250
11
329.639625
21
793.586000
0
LINE
8
0
10
329.639625
20
793.586000
11
329.211109
21
794.221750
0
LINE
8
0
10
329.211109
20
794.221750
11
329.054000
21
795.000000
0
LINE
8
0
10
346.370000
20
692.595000
11
346.660500
21
693.540250
0
LINE
8
0
10
346.660500
20
693.540250
11
347.368000
21
694.232000
0
LINE
8
0
10
347.368000
20
694.232000
11
348.120984
21
694.484938
0
LINE
8
0
10
348.120984
20
694.484938
11
348.885875
21
694.431500
0
LINE
8
0
10
348.885875
20
694.431500
11
349.574828
21
694.095313
0
LINE
8
0
10
349.574828
20
694.095313
11
350.100000
21
693.500000
0
LINE
8
0
10
350.100000
20
693.500000
11
350.353078
21
692.747000
0
LINE
8
0
10
350.353078
20
692.747000
11
350.299875
21
691.982000
0
LINE
8
0
10
350.299875
20
691.982000
11
349.963734
21
691.292750
0
LINE
8
0
10
349.963734
20
691.292750
11
349.368000
21
690.767000
0
LINE
8
0
10
349.368000
20
690.767000
11
348.615437
21
690.514078
0
LINE
8
0
10
348.615437
20
690.514078
11
347.850500
21
690.567625
0
LINE
8
0
10
347.850500
20
690.567625
11
347.161313
21
690.904109
0
LINE
8
0
10
347.161313
20
690.904109
11
346.636000
21
691.500000
0
LINE
8
0
10
346.636000
20
691.500000
11
346.424625
21
692.028375
0
LINE
8
0
10
346.424625
20
692.028375
11
346.370000
21
692.595000
0
LINE
8
0
10
346.370000
20
747.404000
11
346.424625
21
747.970625
0
LINE
8
0
10
346.424625
20
747.970625
11
346.636000
21
748.499000
0
LINE
8
0
10
346.636000
20
748.499000
11
347.161172
21
749.094875
0
LINE
8
0
10
347.161172
20
749.094875
11
347.850125
21
749.431250
0
LINE
8
0
10
347.850125
20
749.431250
11
348.615016
21
749.484500
0
LINE
8
0
10
348.615016
20
749.484500
11
349.368000
21
749.231000
0
LINE
8
0
10
349.368000
20
749.231000
11
349.963891
21
748.705828
0
LINE
8
0
10
349.963891
20
748.705828
11
350.300375
21
748.016875
0
LINE
8
0
10
350.300375
20
748.016875
11
350.353922
21
747.251984
0
LINE
8
0
10
350.353922
20
747.251984
11
350.101000
21
746.499000
0
LINE
8
0
10
350.101000
20
746.499000
11
349.575250
21
745.903266
0
LINE
8
0
10
349.575250
20
745.903266
11
348.886000
21
745.567125
0
LINE
8
0
10
348.886000
20
745.567125
11
348.121000
21
745.513922
0
LINE
8
0
10
348.121000
20
745.513922
11
347.368000
21
745.767000
0
LINE
8
0
10
347.368000
20
745.767000
11
346.660500
21
746.458000
0
LINE
8
0
10
346.660500
20
746.458000
11
346.370000
21
747.404000
0
LINE
8
0
10
349.499000
20
720.000000
11
349.726578
21
724.595789
0
LINE
8
0
10
349.726578
20
724.595789
11
350.400875
21
729.113812
0
LINE
8
0
10
350.400875
20
729.113812
11
351.509234
21
733.523555
0
LINE
8
0
10
351.509234
20
733.523555
11
353.039000
21
737.794500
0
LINE
8
0
10
353.039000
20
737.794500
11
354.977516
21
741.896133
0
LINE
8
0
10
354.977516
20
741.896133
11
357.312125
21
745.797937
0
LINE
8
0
10
357.312125
20
745.797937
11
360.030172
21
749.469398
0
LINE
8
0
10
360.030172
20
749.469398
11
363.119000
21
752.880000
0
LINE
8
0
10
363.119000
20
752.880000
11
366.529604
21
755.968826
0
LINE
8
0
10
366.529604
20
755.968826
11
370.201078
21
758.686859
0
LINE
8
0
10
370.201078
20
758.686859
11
374.102920
21
761.021432
0
LINE
8
0
10
374.102920
20
761.021432
11
378.204625
21
762.959875
0
LINE
8
0
10
378.204625
20
762.959875
11
382.475689
21
764.489521
0
LINE
8
0
10
382.475689
20
764.489521
11
386.885609
21
765.597703
0
LINE
8
0
10
386.885609
20
765.597703
11
391.403881
21
766.271752
0
LINE
8
0
10
391.403881
20
766.271752
11
396.000000
21
766.499000
0
LINE
8
0
10
396.000000
20
766.499000
11
400.754304
21
766.258934
0
LINE
8
0
10
400.754304
20
766.258934
11
405.371260
21
765.554318
0
LINE
8
0
10
405.371260
20
765.554318
11
409.827496
21
764.408524
0
LINE
8
0
10
409.827496
20
764.408524
11
414.099641
21
762.844922
0
LINE
8
0
10
414.099641
20
762.844922
11
418.164323
21
760.886885
0
LINE
8
0
10
418.164323
20
760.886885
11
421.998170
21
758.557783
0
LINE
8
0
10
421.998170
20
758.557783
11
425.577811
21
755.880990
0
LINE
8
0
10
425.577811
20
755.880990
11
428.879875
21
752.879875
0
LINE
8
0
10
428.879875
20
752.879875
11
431.880990
21
749.577811
0
LINE
8
0
10
431.880990
20
749.577811
11
434.557783
21
745.998170
0
LINE
8
0
10
434.557783
20
745.998170
11
436.886885
21
742.164323
0
LINE
8
0
10
436.886885
20
742.164323
11
438.844922
21
738.099641
0
LINE
8
0
10
438.844922
20
738.099641
11
440.408524
21
733.827496
0
LINE
8
0
10
440.408524
20
733.827496
11
441.554318
21
729.371260
0
LINE
8
0
10
441.554318
20
729.371260
11
442.258934
21
724.754304
0
LINE
8
0
10
442.258934
20
724.754304
11
442.499000
21
720.000000
0
LINE
8
0
10
442.499000
20
720.000000
11
442.258934
21
715.245520
0
LINE
8
0
10
442.258934
20
715.245520
11
441.554318
21
710.628410
0
LINE
8
0
10
441.554318
20
710.628410
11
440.408524
21
706.172041
0
LINE
8
0
10
440.408524
20
706.172041
11
438.844922
21
701.899781
0
LINE
8
0
10
438.844922
20
701.899781
11
436.886885
21
697.835002
0
LINE
8
0
10
436.886885
20
697.835002
11
434.557783
21
694.001074
0
LINE
8
0
10
434.557783
20
694.001074
11
431.880990
21
690.421367
0
LINE
8
0
10
431.880990
20
690.421367
11
428.879875
21
687.119250
0
LINE
8
0
10
428.879875
20
687.119250
11
425.577811
21
684.118094
0
LINE
8
0
10
425.577811
20
684.118094
11
421.998170
21
681.441270
0
LINE
8
0
10
421.998170
20
681.441270
11
418.164323
21
679.112146
0
LINE
8
0
10
418.164323
20
679.112146
11
414.099641
21
677.154094
0
LINE
8
0
10
414.099641
20
677.154094
11
409.827496
21
675.590483
0
LINE
8
0
10
409.827496
20
675.590483
11
405.371260
21
674.444684
0
LINE
8
0
10
405.371260
20
674.444684
11
400.754304
21
673.740066
0
LINE
8
0
10
400.754304
20
673.740066
11
396.000000
21
673.500000
0
LINE
8
0
10
396.000000
20
673.500000
11
391.403881
21
673.727535
0
LINE
8
0
10
391.403881
20
673.727535
11
386.885609
21
674.401719
0
LINE
8
0
10
386.885609
20
674.401719
11
382.475689
21
675.509918
0
LINE
8
0
10
382.475689
20
675.509918
11
378.204625
21
677.039500
0
LINE
8
0
10
378.204625
20
677.039500
11
374.102920
21
678.977832
0
LINE
8
0
10
374.102920
20
678.977832
11
370.201078
21
681.312281
0
LINE
8
0
10
370.201078
20
681.312281
11
366.529604
21
684.030215
0
LINE
8
0
10
366.529604
20
684.030215
11
363.119000
21
687.119000
0
LINE
8
0
10
363.119000
20
687.119000
11
360.030172
21
690.529891
0
LINE
8
0
10
360.030172
20
690.529891
11
357.312125
21
694.201500
0
LINE
8
0
10
357.312125
20
694.201500
11
354.977516
21
698.103359
0
LINE
8
0
10
354.977516
20
698.103359
11
353.039000
21
702.205000
0
LINE
8
0
10
353.039000
20
702.205000
11
351.509234
21
706.475953
0
LINE
8
0
10
351.509234
20
706.475953
11
350.400875
21
710.885750
0
LINE
8
0
10
350.400875
20
710.885750
11
349.726578
21
715.403922
0
LINE
8
0
10
349.726578
20
715.403922
11
349.499000
21
720.000000
0
LINE
8
0
10
393.999000
20
665.000000
11
394.156266
21
665.778094
0
LINE
8
0
10
394.156266
20
665.778094
11
394.585125
21
666.413500
0
LINE
8
0
10
394.585125
20
666.413500
11
395.221172
21
666.841906
0
LINE
8
0
10
395.221172
20
666.841906
11
396.000000
21
666.999000
0
LINE
8
0
10
396.000000
20
666.999000
11
396.778094
21
666.841906
0
LINE
8
0
10
396.778094
20
666.841906
11
397.413500
21
666.413500
0
LINE
8
0
10
397.413500
20
666.413500
11
397.841906
21
665.778094
0
LINE
8
0
10
397.841906
20
665.778094
11
397.999000
21
665.000000
0
LINE
8
0
10
397.999000
20
665.000000
11
397.841906
21
664.221328
0
LINE
8
0
10
397.841906
20
664.221328
11
397.413500
21
663.585625
0
LINE
8
0
10
397.413500
20
663.585625
11
396.778094
21
663.157109
0
LINE
8
0
10
396.778094
20
663.157109
11
396.000000
21
663.000000
0
LINE
8
0
10
396.000000
20
663.000000
11
395.221172
21
663.157109
0
LINE
8
0
10
395.221172
20
663.157109
11
394.585125
21
663.585625
0
LINE
8
0
10
394.585125
20
663.585625
11
394.156266
21
664.221328
0
LINE
8
0
10
394.156266
20
664.221328
11
393.999000
21
665.000000
0
LINE
8
0
10
393.999000
20
774.999000
11
394.156266
21
775.777672
0
LINE
8
0
10
394.156266
20
775.777672
11
394.585125
21
776.413375
0
LINE
8
0
10
394.585125
20
776.413375
11
395.221172
21
776.841891
0
LINE
8
0
10
395.221172
20
776.841891
11
396.000000
21
776.999000
0
LINE
8
0
10
396.000000
20
776.999000
11
396.778094
21
776.841891
0
LINE
8
0
10
396.778094
20
776.841891
11
397.413500
21
776.413375
0
LINE
8
0
10
397.413500
20
776.413375
11
397.841906
21
775.777672
0
LINE
8
0
10
397.841906
20
775.777672
11
397.999000
21
774.999000
0
LINE
8
0
10
397.999000
20
774.999000
11
397.841906
21
774.220328
0
LINE
8
0
10
397.841906
20
774.220328
11
397.413500
21
773.584625
0
LINE
8
0
10
397.413500
20
773.584625
11
396.778094
21
773.156109
0
LINE
8
0
10
396.778094
20
773.156109
11
396.000000
21
772.999000
0
LINE
8
0
10
396.000000
20
772.999000
11
395.221172
21
773.156109
0
LINE
8
0
10
395.221172
20
773.156109
11
394.585125
21
773.584625
0
LINE
8
0
10
394.585125
20
773.584625
11
394.156266
21
774.220328
0
LINE
8
0
10
394.156266
20
774.220328
11
393.999000
21
774.999000
0
LINE
8
0
10
441.633000
20
692.404000
11
441.686375
21
692.970750
0
LINE
8
0
10
441.686375
20
692.970750
11
441.898000
21
693.500000
0
LINE
8
0
10
441.898000
20
693.500000
11
442.423750
21
694.095297
0
LINE
8
0
10
442.423750
20
694.095297
11
443.113000
21
694.431375
0
LINE
8
0
10
443.113000
20
694.431375
11
443.878000
21
694.484516
0
LINE
8
0
10
443.878000
20
694.484516
11
444.631000
21
694.231000
0
LINE
8
0
10
444.631000
20
694.231000
11
445.226156
21
693.705844
0
LINE
8
0
10
445.226156
20
693.705844
11
445.562000
21
693.017000
0
LINE
8
0
10
445.562000
20
693.017000
11
445.615094
21
692.252406
0
LINE
8
0
10
445.615094
20
692.252406
11
445.362000
21
691.500000
0
LINE
8
0
10
445.362000
20
691.500000
11
444.836828
21
690.904109
0
LINE
8
0
10
444.836828
20
690.904109
11
444.147875
21
690.567625
0
LINE
8
0
10
444.147875
20
690.567625
11
443.382984
21
690.514078
0
LINE
8
0
10
443.382984
20
690.514078
11
442.630000
21
690.767000
0
LINE
8
0
10
442.630000
20
690.767000
11
441.922625
21
691.458375
0
LINE
8
0
10
441.922625
20
691.458375
11
441.633000
21
692.404000
0
LINE
8
0
10
441.633000
20
747.594000
11
441.922625
21
748.540000
0
LINE
8
0
10
441.922625
20
748.540000
11
442.630000
21
749.231000
0
LINE
8
0
10
442.630000
20
749.231000
11
443.382984
21
749.484500
0
LINE
8
0
10
443.382984
20
749.484500
11
444.147875
21
749.431250
0
LINE
8
0
10
444.147875
20
749.431250
11
444.836828
21
749.094875
0
LINE
8
0
10
444.836828
20
749.094875
11
445.362000
21
748.499000
0
LINE
8
0
10
445.362000
20
748.499000
11
445.615516
21
747.746016
0
LINE
8
0
10
445.615516
20
747.746016
11
445.562375
21
746.981125
0
LINE
8
0
10
445.562375
20
746.981125
11
445.226297
21
746.292172
0
LINE
8
0
10
445.226297
20
746.292172
11
444.631000
21
745.767000
0
LINE
8
0
10
444.631000
20
745.767000
11
443.877859
21
745.513922
0
LINE
8
0
10
443.877859
20
745.513922
11
443.112625
21
745.567125
0
LINE
8
0
10
443.112625
20
745.567125
11
442.423328
21
745.903266
0
LINE
8
0
10
442.423328
20
745.903266
11
441.898000
21
746.499000
0
LINE
8
0
10
441.898000
20
746.499000
11
441.686750
21
747.027375
0
LINE
8
0
10
441.686750
20
747.027375
11
441.633000
21
747.594000
0
LINE
8
0
10
458.981000
20
518.500000
11
459.138109
21
519.278828
0
LINE
8
0
10
459.138109
20
519.278828
11
459.566625
21
519.914875
0
LINE
8
0
10
459.566625
20
519.914875
11
460.202328
21
520.343734
0
LINE
8
0
10
460.202328
20
520.343734
11
460.981000
21
520.501000
0
LINE
8
0
10
460.981000
20
520.501000
11
461.759250
21
520.343734
0
LINE
8
0
10
461.759250
20
520.343734
11
462.395000
21
519.914875
0
LINE
8
0
10
462.395000
20
519.914875
11
462.823750
21
519.278828
0
LINE
8
0
10
462.823750
20
519.278828
11
462.981000
21
518.500000
0
LINE
8
0
10
462.981000
20
518.500000
11
462.823750
21
517.721906
0
LINE
8
0
10
462.823750
20
517.721906
11
462.395000
21
517.086500
0
LINE
8
0
10
462.395000
20
517.086500
11
461.759250
21
516.658094
0
LINE
8
0
10
461.759250
20
516.658094
11
460.981000
21
516.501000
0
LINE
8
0
10
460.981000
20
516.501000
11
460.202328
21
516.658094
0
LINE
8
0
10
460.202328
20
516.658094
11
459.566625
21
517.086500
0
LINE
8
0
10
459.566625
20
517.086500
11
459.138109
21
517.721906
0
LINE
8
0
10
459.138109
20
517.721906
11
458.981000
21
518.500000
0
LINE
8
0
10
458.981000
20
795.001000
11
459.138109
21
795.779672
0
LINE
8
0
10
459.138109
20
795.779672
11
459.566625
21
796.415375
0
LINE
8
0
10
459.566625
20
796.415375
11
460.202328
21
796.843891
0
LINE
8
0
10
460.202328
20
796.843891
11
460.981000
21
797.001000
0
LINE
8
0
10
460.981000
20
797.001000
11
461.759250
21
796.843750
0
LINE
8
0
10
461.759250
20
796.843750
11
462.395000
21
796.415000
0
LINE
8
0
10
462.395000
20
796.415000
11
462.823750
21
795.779250
0
LINE
8
0
10
462.823750
20
795.779250
11
462.981000
21
795.001000
0
LINE
8
0
10
462.981000
20
795.001000
11
462.823750
21
794.222328
0
LINE
8
0
10
462.823750
20
794.222328
11
462.395000
21
793.586625
0
LINE
8
0
10
462.395000
20
793.586625
11
461.759250
21
793.158109
0
LINE
8
0
10
461.759250
20
793.158109
11
460.981000
21
793.001000
0
LINE
8
0
10
460.981000
20
793.001000
11
460.202328
21
793.158109
0
LINE
8
0
10
460.202328
20
793.158109
11
459.566625
21
793.586625
0
LINE
8
0
10
459.566625
20
793.586625
11
459.138109
21
794.222328
0
LINE
8
0
10
459.138109
20
794.222328
11
458.981000
21
795.001000
0
LINE
8
0
10
469.017000
20
518.500000
11
469.174094
21
519.278828
0
LINE
8
0
10
469.174094
20
519.278828
11
469.602500
21
519.914875
0
LINE
8
0
10
469.602500
20
519.914875
11
470.237906
21
520.343734
0
LINE
8
0
10
470.237906
20
520.343734
11
471.016000
21
520.501000
0
LINE
8
0
10
471.016000
20
520.501000
11
471.794828
21
520.343734
0
LINE
8
0
10
471.794828
20
520.343734
11
472.430875
21
519.914875
0
LINE
8
0
10
472.430875
20
519.914875
11
472.859734
21
519.278828
0
LINE
8
0
10
472.859734
20
519.278828
11
473.017000
21
518.500000
0
LINE
8
0
10
473.017000
20
518.500000
11
472.859734
21
517.721906
0
LINE
8
0
10
472.859734
20
517.721906
11
472.430875
21
517.086500
0
LINE
8
0
10
472.430875
20
517.086500
11
471.794828
21
516.658094
0
LINE
8
0
10
471.794828
20
516.658094
11
471.016000
21
516.501000
0
LINE
8
0
10
471.016000
20
516.501000
11
470.237906
21
516.658094
0
LINE
8
0
10
470.237906
20
516.658094
11
469.602500
21
517.086500
0
LINE
8
0
10
469.602500
20
517.086500
11
469.174094
21
517.721906
0
LINE
8
0
10
469.174094
20
517.721906
11
469.017000
21
518.500000
0
LINE
8
0
10
469.017000
20
598.501000
11
469.174094
21
599.279672
0
LINE
8
0
10
469.174094
20
599.279672
11
469.602500
21
599.915375
0
LINE
8
0
10
469.602500
20
599.915375
11
470.237906
21
600.343891
0
LINE
8
0
10
470.237906
20
600.343891
11
471.016000
21
600.501000
0
LINE
8
0
10
471.016000
20
600.501000
11
471.794828
21
600.343750
0
LINE
8
0
10
471.794828
20
600.343750
11
472.430875
21
599.915000
0
LINE
8
0
10
472.430875
20
599.915000
11
472.859734
21
599.279250
0
LINE
8
0
10
472.859734
20
599.279250
11
473.017000
21
598.501000
0
LINE
8
0
10
473.017000
20
598.501000
11
472.859734
21
597.722328
0
LINE
8
0
10
472.859734
20
597.722328
11
472.430875
21
597.086625
0
LINE
8
0
10
472.430875
20
597.086625
11
471.794828
21
596.658109
0
LINE
8
0
10
471.794828
20
596.658109
11
471.016000
21
596.501000
0
LINE
8
0
10
471.016000
20
596.501000
11
470.237906
21
596.658109
0
LINE
8
0
10
470.237906
20
596.658109
11
469.602500
21
597.086625
0
LINE
8
0
10
469.602500
20
597.086625
11
469.174094
21
597.722328
0
LINE
8
0
10
469.174094
20
597.722328
11
469.017000
21
598.501000
0
LINE
8
0
10
469.017000
20
715.001000
11
469.174094
21
715.779250
0
LINE
8
0
10
469.174094
20
715.779250
11
469.602500
21
716.415000
0
LINE
8
0
10
469.602500
20
716.415000
11
470.237906
21
716.843750
0
LINE
8
0
10
470.237906
20
716.843750
11
471.016000
21
717.001000
0
LINE
8
0
10
471.016000
20
717.001000
11
471.794828
21
716.843750
0
LINE
8
0
10
471.794828
20
716.843750
11
472.430875
21
716.415000
0
LINE
8
0
10
472.430875
20
716.415000
11
472.859734
21
715.779250
0
LINE
8
0
10
472.859734
20
715.779250
11
473.017000
21
715.001000
0
LINE
8
0
10
473.017000
20
715.001000
11
472.859734
21
714.222484
0
LINE
8
0
10
472.859734
20
714.222484
11
472.430875
21
713.587125
0
LINE
8
0
10
472.430875
20
713.587125
11
471.794828
21
713.158953
0
LINE
8
0
10
471.794828
20
713.158953
11
471.016000
21
713.002000
0
LINE
8
0
10
471.016000
20
713.002000
11
470.237906
21
713.158953
0
LINE
8
0
10
470.237906
20
713.158953
11
469.602500
21
713.587125
0
LINE
8
0
10
469.602500
20
713.587125
11
469.174094
21
714.222484
0
LINE
8
0
10
469.174094
20
714.222484
11
469.017000
21
715.001000
0
LINE
8
0
10
469.017000
20
795.001000
11
469.174094
21
795.779672
0
LINE
8
0
10
469.174094
20
795.779672
11
469.602500
21
796.415375
0
LINE
8
0
10
469.602500
20
796.415375
11
470.237906
21
796.843891
0
LINE
8
0
10
470.237906
20
796.843891
11
471.016000
21
797.001000
0
LINE
8
0
10
471.016000
20
797.001000
11
471.794828
21
796.843750
0
LINE
8
0
10
471.794828
20
796.843750
11
472.430875
21
796.415000
0
LINE
8
0
10
472.430875
20
796.415000
11
472.859734
21
795.779250
0
LINE
8
0
10
472.859734
20
795.779250
11
473.017000
21
795.001000
0
LINE
8
0
10
473.017000
20
795.001000
11
472.859734
21
794.222328
0
LINE
8
0
10
472.859734
20
794.222328
11
472.430875
21
793.586625
0
LINE
8
0
10
472.430875
20
793.586625
11
471.794828
21
793.158109
0
LINE
8
0
10
471.794828
20
793.158109
11
471.016000
21
793.001000
0
LINE
8
0
10
471.016000
20
793.001000
11
470.237906
21
793.158109
0
LINE
8
0
10
470.237906
20
793.158109
11
469.602500
21
793.586625
0
LINE
8
0
10
469.602500
20
793.586625
11
469.174094
21
794.222328
0
LINE
8
0
10
469.174094
20
794.222328
11
469.017000
21
795.001000
0
LINE
8
0
10
477.999000
20
518.500000
11
478.100230
21
517.489863
0
LINE
8
0
10
478.100230
20
517.489863
11
478.390719
21
516.550156
0
LINE
8
0
10
478.390719
20
516.550156
11
478.850660
21
515.700684
0
LINE
8
0
10
478.850660
20
515.700684
11
479.460250
21
514.961250
0
LINE
8
0
10
479.460250
20
514.961250
11
480.199684
21
514.351660
0
LINE
8
0
10
480.199684
20
514.351660
11
481.049156
21
513.891719
0
LINE
8
0
10
481.049156
20
513.891719
11
481.988863
21
513.601230
0
LINE
8
0
10
481.988863
20
513.601230
11
482.999000
21
513.500000
0
LINE
8
0
10
632.999000
20
513.500000
11
634.009137
21
513.601230
0
LINE
8
0
10
634.009137
20
513.601230
11
634.948844
21
513.891719
0
LINE
8
0
10
634.948844
20
513.891719
11
635.798316
21
514.351660
0
LINE
8
0
10
635.798316
20
514.351660
11
636.537750
21
514.961250
0
LINE
8
0
10
636.537750
20
514.961250
11
637.147340
21
515.700684
0
LINE
8
0
10
637.147340
20
515.700684
11
637.607281
21
516.550156
0
LINE
8
0
10
637.607281
20
516.550156
11
637.897770
21
517.489863
0
LINE
8
0
10
637.897770
20
517.489863
11
637.999000
21
518.500000
0
LINE
8
0
10
482.999000
20
513.500000
11
632.999000
21
513.500000
0
LINE
8
0
10
637.999000
20
795.000000
11
637.897770
21
796.010094
0
LINE
8
0
10
637.897770
20
796.010094
11
637.607281
21
796.949687
0
LINE
8
0
10
637.607281
20
796.949687
11
637.147340
21
797.799000
0
LINE
8
0
10
637.147340
20
797.799000
11
636.537750
21
798.538250
0
LINE
8
0
10
636.537750
20
798.538250
11
635.798316
21
799.147656
0
LINE
8
0
10
635.798316
20
799.147656
11
634.948844
21
799.607438
0
LINE
8
0
10
634.948844
20
799.607438
11
634.009137
21
799.897813
0
LINE
8
0
10
634.009137
20
799.897813
11
632.999000
21
799.999000
0
LINE
8
0
10
637.999000
20
518.500000
11
637.999000
21
795.000000
0
LINE
8
0
10
482.999000
20
799.999000
11
481.988863
21
799.897813
0
LINE
8
0
10
481.988863
20
799.897813
11
481.049156
21
799.607438
0
LINE
8
0
10
481.049156
20
799.607438
11
480.199684
21
799.147656
0
LINE
8
0
10
480.199684
20
799.147656
11
479.460250
21
798.538250
0
LINE
8
0
10
479.460250
20
798.538250
11
478.850660
21
797.799000
0
LINE
8
0
10
478.850660
20
797.799000
11
478.390719
21
796.949687
0
LINE
8
0
10
478.390719
20
796.949687
11
478.100230
21
796.010094
0
LINE
8
0
10
478.100230
20
796.010094
11
477.999000
21
795.000000
0
LINE
8
0
10
632.999000
20
799.999000
11
482.999000
21
799.999000
0
LINE
8
0
10
481.017000
20
518.500000
11
481.174109
21
519.278688
0
LINE
8
0
10
481.174109
20
519.278688
11
481.602625
21
519.914500
0
LINE
8
0
10
481.602625
20
519.914500
11
482.238328
21
520.343312
0
LINE
8
0
10
482.238328
20
520.343312
11
483.017000
21
520.501000
0
LINE
8
0
10
483.017000
20
520.501000
11
483.795672
21
520.343734
0
LINE
8
0
10
483.795672
20
520.343734
11
484.431375
21
519.914875
0
LINE
8
0
10
484.431375
20
519.914875
11
484.859891
21
519.278828
0
LINE
8
0
10
484.859891
20
519.278828
11
485.017000
21
518.500000
0
LINE
8
0
10
485.017000
20
518.500000
11
484.859750
21
517.721484
0
LINE
8
0
10
484.859750
20
517.721484
11
484.431000
21
517.086125
0
LINE
8
0
10
484.431000
20
517.086125
11
483.795250
21
516.657953
0
LINE
8
0
10
483.795250
20
516.657953
11
483.017000
21
516.501000
0
LINE
8
0
10
483.017000
20
516.501000
11
482.238750
21
516.658094
0
LINE
8
0
10
482.238750
20
516.658094
11
481.603000
21
517.086500
0
LINE
8
0
10
481.603000
20
517.086500
11
481.174250
21
517.721906
0
LINE
8
0
10
481.174250
20
517.721906
11
481.017000
21
518.500000
0
LINE
8
0
10
477.999000
20
795.000000
11
477.999000
21
518.500000
0
LINE
8
0
10
481.017000
20
598.501000
11
481.174109
21
599.279250
0
LINE
8
0
10
481.174109
20
599.279250
11
481.602625
21
599.915000
0
LINE
8
0
10
481.602625
20
599.915000
11
482.238328
21
600.343750
0
LINE
8
0
10
482.238328
20
600.343750
11
483.017000
21
600.501000
0
LINE
8
0
10
483.017000
20
600.501000
11
483.795672
21
600.343750
0
LINE
8
0
10
483.795672
20
600.343750
11
484.431375
21
599.915000
0
LINE
8
0
10
484.431375
20
599.915000
11
484.859891
21
599.279250
0
LINE
8
0
10
484.859891
20
599.279250
11
485.017000
21
598.501000
0
LINE
8
0
10
485.017000
20
598.501000
11
484.859750
21
597.722172
0
LINE
8
0
10
484.859750
20
597.722172
11
484.431000
21
597.086125
0
LINE
8
0
10
484.431000
20
597.086125
11
483.795250
21
596.657266
0
LINE
8
0
10
483.795250
20
596.657266
11
483.017000
21
596.500000
0
LINE
8
0
10
483.017000
20
596.500000
11
482.238750
21
596.657266
0
LINE
8
0
10
482.238750
20
596.657266
11
481.603000
21
597.086125
0
LINE
8
0
10
481.603000
20
597.086125
11
481.174250
21
597.722172
0
LINE
8
0
10
481.174250
20
597.722172
11
481.017000
21
598.501000
0
LINE
8
0
10
481.017000
20
715.001000
11
481.174109
21
715.779109
0
LINE
8
0
10
481.174109
20
715.779109
11
481.602625
21
716.414625
0
LINE
8
0
10
481.602625
20
716.414625
11
482.238328
21
716.843328
0
LINE
8
0
10
482.238328
20
716.843328
11
483.017000
21
717.001000
0
LINE
8
0
10
483.017000
20
717.001000
11
483.795672
21
716.843750
0
LINE
8
0
10
483.795672
20
716.843750
11
484.431375
21
716.415000
0
LINE
8
0
10
484.431375
20
716.415000
11
484.859891
21
715.779250
0
LINE
8
0
10
484.859891
20
715.779250
11
485.017000
21
715.001000
0
LINE
8
0
10
485.017000
20
715.001000
11
484.859750
21
714.222328
0
LINE
8
0
10
484.859750
20
714.222328
11
484.431000
21
713.586625
0
LINE
8
0
10
484.431000
20
713.586625
11
483.795250
21
713.158109
0
LINE
8
0
10
483.795250
20
713.158109
11
483.017000
21
713.001000
0
LINE
8
0
10
483.017000
20
713.001000
11
482.238750
21
713.158109
0
LINE
8
0
10
482.238750
20
713.158109
11
481.603000
21
713.586625
0
LINE
8
0
10
481.603000
20
713.586625
11
481.174250
21
714.222328
0
LINE
8
0
10
481.174250
20
714.222328
11
481.017000
21
715.001000
0
LINE
8
0
10
481.017000
20
795.000000
11
481.174109
21
795.778688
0
LINE
8
0
10
481.174109
20
795.778688
11
481.602625
21
796.414500
0
LINE
8
0
10
481.602625
20
796.414500
11
482.238328
21
796.843312
0
LINE
8
0
10
482.238328
20
796.843312
11
483.017000
21
797.001000
0
LINE
8
0
10
483.017000
20
797.001000
11
483.795672
21
796.843734
0
LINE
8
0
10
483.795672
20
796.843734
11
484.431375
21
796.414875
0
LINE
8
0
10
484.431375
20
796.414875
11
484.859891
21
795.778828
0
LINE
8
0
10
484.859891
20
795.778828
11
485.017000
21
795.000000
0
LINE
8
0
10
485.017000
20
795.000000
11
484.859750
21
794.221750
0
LINE
8
0
10
484.859750
20
794.221750
11
484.431000
21
793.586000
0
LINE
8
0
10
484.431000
20
793.586000
11
483.795250
21
793.157250
0
LINE
8
0
10
483.795250
20
793.157250
11
483.017000
21
793.000000
0
LINE
8
0
10
483.017000
20
793.000000
11
482.238750
21
793.157250
0
LINE
8
0
10
482.238750
20
793.157250
11
481.603000
21
793.586000
0
LINE
8
0
10
481.603000
20
793.586000
11
481.174250
21
794.221750
0
LINE
8
0
10
481.174250
20
794.221750
11
481.017000
21
795.000000
0
LINE
8
0
10
491.053000
20
518.500000
11
491.210250
21
519.278688
0
LINE
8
0
10
491.210250
20
519.278688
11
491.639000
21
519.914500
0
LINE
8
0
10
491.639000
20
519.914500
11
492.274750
21
520.343312
0
LINE
8
0
10
492.274750
20
520.343312
11
493.053000
21
520.501000
0
LINE
8
0
10
493.053000
20
520.501000
11
493.831672
21
520.343734
0
LINE
8
0
10
493.831672
20
520.343734
11
494.467375
21
519.914875
0
LINE
8
0
10
494.467375
20
519.914875
11
494.895891
21
519.278828
0
LINE
8
0
10
494.895891
20
519.278828
11
495.053000
21
518.500000
0
LINE
8
0
10
495.053000
20
518.500000
11
494.895891
21
517.721484
0
LINE
8
0
10
494.895891
20
517.721484
11
494.467375
21
517.086125
0
LINE
8
0
10
494.467375
20
517.086125
11
493.831672
21
516.657953
0
LINE
8
0
10
493.831672
20
516.657953
11
493.053000
21
516.501000
0
LINE
8
0
10
493.053000
20
516.501000
11
492.274750
21
516.658094
0
LINE
8
0
10
492.274750
20
516.658094
11
491.639000
21
517.086500
0
LINE
8
0
10
491.639000
20
517.086500
11
491.210250
21
517.721906
0
LINE
8
0
10
491.210250
20
517.721906
11
491.053000
21
518.500000
0
LINE
8
0
10
491.053000
20
795.000000
11
491.210250
21
795.778688
0
LINE
8
0
10
491.210250
20
795.778688
11
491.639000
21
796.414500
0
LINE
8
0
10
491.639000
20
796.414500
11
492.274750
21
796.843312
0
LINE
8
0
10
492.274750
20
796.843312
11
493.053000
21
797.001000
0
LINE
8
0
10
493.053000
20
797.001000
11
493.831672
21
796.843734
0
LINE
8
0
10
493.831672
20
796.843734
11
494.467375
21
796.414875
0
LINE
8
0
10
494.467375
20
796.414875
11
494.895891
21
795.778828
0
LINE
8
0
10
494.895891
20
795.778828
11
495.053000
21
795.000000
0
LINE
8
0
10
495.053000
20
795.000000
11
494.895891
21
794.221750
0
LINE
8
0
10
494.895891
20
794.221750
11
494.467375
21
793.586000
0
LINE
8
0
10
494.467375
20
793.586000
11
493.831672
21
793.157250
0
LINE
8
0
10
493.831672
20
793.157250
11
493.053000
21
793.000000
0
LINE
8
0
10
493.053000
20
793.000000
11
492.274750
21
793.157250
0
LINE
8
0
10
492.274750
20
793.157250
11
491.639000
21
793.586000
0
LINE
8
0
10
491.639000
20
793.586000
11
491.210250
21
794.221750
0
LINE
8
0
10
491.210250
20
794.221750
11
491.053000
21
795.000000
0
LINE
8
0
10
508.370000
20
692.595000
11
508.659625
21
693.540625
0
LINE
8
0
10
508.659625
20
693.540625
11
509.367000
21
694.232000
0
LINE
8
0
10
509.367000
20
694.232000
11
510.119984
21
694.485078
0
LINE
8
0
10
510.119984
20
694.485078
11
510.884875
21
694.431875
0
LINE
8
0
10
510.884875
20
694.431875
11
511.573828
21
694.095734
0
LINE
8
0
10
511.573828
20
694.095734
11
512.099000
21
693.500000
0
LINE
8
0
10
512.099000
20
693.500000
11
512.352516
21
692.747016
0
LINE
8
0
10
512.352516
20
692.747016
11
512.299375
21
691.982125
0
LINE
8
0
10
512.299375
20
691.982125
11
511.963297
21
691.293172
0
LINE
8
0
10
511.963297
20
691.293172
11
511.368000
21
690.768000
0
LINE
8
0
10
511.368000
20
690.768000
11
510.615016
21
690.514500
0
LINE
8
0
10
510.615016
20
690.514500
11
509.850125
21
690.567750
0
LINE
8
0
10
509.850125
20
690.567750
11
509.161172
21
690.904125
0
LINE
8
0
10
509.161172
20
690.904125
11
508.636000
21
691.500000
0
LINE
8
0
10
508.636000
20
691.500000
11
508.424250
21
692.028375
0
LINE
8
0
10
508.424250
20
692.028375
11
508.370000
21
692.595000
0
LINE
8
0
10
508.370000
20
747.404000
11
508.423875
21
747.970625
0
LINE
8
0
10
508.423875
20
747.970625
11
508.636000
21
748.499000
0
LINE
8
0
10
508.636000
20
748.499000
11
509.161172
21
749.094891
0
LINE
8
0
10
509.161172
20
749.094891
11
509.850125
21
749.431375
0
LINE
8
0
10
509.850125
20
749.431375
11
510.615016
21
749.484922
0
LINE
8
0
10
510.615016
20
749.484922
11
511.368000
21
749.232000
0
LINE
8
0
10
511.368000
20
749.232000
11
511.963312
21
748.706250
0
LINE
8
0
10
511.963312
20
748.706250
11
512.299500
21
748.017000
0
LINE
8
0
10
512.299500
20
748.017000
11
512.352938
21
747.252000
0
LINE
8
0
10
512.352938
20
747.252000
11
512.100000
21
746.499000
0
LINE
8
0
10
512.100000
20
746.499000
11
511.574828
21
745.903687
0
LINE
8
0
10
511.574828
20
745.903687
11
510.885875
21
745.567500
0
LINE
8
0
10
510.885875
20
745.567500
11
510.120984
21
745.514063
0
LINE
8
0
10
510.120984
20
745.514063
11
509.368000
21
745.767000
0
LINE
8
0
10
509.368000
20
745.767000
11
508.659750
21
746.458375
0
LINE
8
0
10
508.659750
20
746.458375
11
508.370000
21
747.404000
0
LINE
8
0
10
511.499000
20
720.000000
11
511.726535
21
724.595789
0
LINE
8
0
10
511.726535
20
724.595789
11
512.400719
21
729.113812
0
LINE
8
0
10
512.400719
20
729.113812
11
513.508918
21
733.523555
0
LINE
8
0
10
513.508918
20
733.523555
11
515.038500
21
737.794500
0
LINE
8
0
10
515.038500
20
737.794500
11
516.976832
21
741.896133
0
LINE
8
0
10
516.976832
20
741.896133
11
519.311281
21
745.797937
0
LINE
8
0
10
519.311281
20
745.797937
11
522.029215
21
749.469398
0
LINE
8
0
10
522.029215
20
749.469398
11
525.118000
21
752.880000
0
LINE
8
0
10
525.118000
20
752.880000
11
528.528891
21
755.969115
0
LINE
8
0
10
528.528891
20
755.969115
11
532.200500
21
758.687297
0
LINE
8
0
10
532.200500
20
758.687297
11
536.102359
21
761.021924
0
LINE
8
0
10
536.102359
20
761.021924
11
540.204000
21
762.960375
0
LINE
8
0
10
540.204000
20
762.960375
11
544.474953
21
764.490029
0
LINE
8
0
10
544.474953
20
764.490029
11
548.884750
21
765.598266
0
LINE
8
0
10
548.884750
20
765.598266
11
553.402922
21
766.272463
0
LINE
8
0
10
553.402922
20
766.272463
11
557.999000
21
766.500000
0
LINE
8
0
10
557.999000
20
766.500000
11
562.753315
21
766.259923
0
LINE
8
0
10
562.753315
20
766.259923
11
567.370303
21
765.555275
0
LINE
8
0
10
567.370303
20
765.555275
11
571.826588
21
764.409431
0
LINE
8
0
10
571.826588
20
764.409431
11
576.098797
21
762.845766
0
LINE
8
0
10
576.098797
20
762.845766
11
580.163554
21
760.887653
0
LINE
8
0
10
580.163554
20
760.887653
11
583.997486
21
758.558467
0
LINE
8
0
10
583.997486
20
758.558467
11
587.577218
21
755.881583
0
LINE
8
0
10
587.577218
20
755.881583
11
590.879375
21
752.880375
0
LINE
8
0
10
590.879375
20
752.880375
11
593.880583
21
749.578218
0
LINE
8
0
10
593.880583
20
749.578218
11
596.557467
21
745.998486
0
LINE
8
0
10
596.557467
20
745.998486
11
598.886653
21
742.164554
0
LINE
8
0
10
598.886653
20
742.164554
11
600.844766
21
738.099797
0
LINE
8
0
10
600.844766
20
738.099797
11
602.408431
21
733.827588
0
LINE
8
0
10
602.408431
20
733.827588
11
603.554275
21
729.371303
0
LINE
8
0
10
603.554275
20
729.371303
11
604.258923
21
724.754315
0
LINE
8
0
10
604.258923
20
724.754315
11
604.499000
21
720.000000
0
LINE
8
0
10
604.499000
20
720.000000
11
604.258923
21
715.245685
0
LINE
8
0
10
604.258923
20
715.245685
11
603.554275
21
710.628697
0
LINE
8
0
10
603.554275
20
710.628697
11
602.408431
21
706.172412
0
LINE
8
0
10
602.408431
20
706.172412
11
600.844766
21
701.900203
0
LINE
8
0
10
600.844766
20
701.900203
11
598.886653
21
697.835446
0
LINE
8
0
10
598.886653
20
697.835446
11
596.557467
21
694.001514
0
LINE
8
0
10
596.557467
20
694.001514
11
593.880583
21
690.421782
0
LINE
8
0
10
593.880583
20
690.421782
11
590.879375
21
687.119625
0
LINE
8
0
10
590.879375
20
687.119625
11
587.577218
21
684.118417
0
LINE
8
0
10
587.577218
20
684.118417
11
583.997486
21
681.441533
0
LINE
8
0
10
583.997486
20
681.441533
11
580.163554
21
679.112347
0
LINE
8
0
10
580.163554
20
679.112347
11
576.098797
21
677.154234
0
LINE
8
0
10
576.098797
20
677.154234
11
571.826588
21
675.590569
0
LINE
8
0
10
571.826588
20
675.590569
11
567.370303
21
674.444725
0
LINE
8
0
10
567.370303
20
674.444725
11
562.753315
21
673.740077
0
LINE
8
0
10
562.753315
20
673.740077
11
557.999000
21
673.500000
0
LINE
8
0
10
557.999000
20
673.500000
11
553.402922
21
673.727535
0
LINE
8
0
10
553.402922
20
673.727535
11
548.884750
21
674.401719
0
LINE
8
0
10
548.884750
20
674.401719
11
544.474953
21
675.509918
0
LINE
8
0
10
544.474953
20
675.509918
11
540.204000
21
677.039500
0
LINE
8
0
10
540.204000
20
677.039500
11
536.102359
21
678.977832
0
LINE
8
0
10
536.102359
20
678.977832
11
532.200500
21
681.312281
0
LINE
8
0
10
532.200500
20
681.312281
11
528.528891
21
684.030215
0
LINE
8
0
10
528.528891
20
684.030215
11
525.118000
21
687.119000
0
LINE
8
0
10
525.118000
20
687.119000
11
522.029215
21
690.529891
0
LINE
8
0
10
522.029215
20
690.529891
11
519.311281
21
694.201500
0
LINE
8
0
10
519.311281
20
694.201500
11
516.976832
21
698.103359
0
LINE
8
0
10
516.976832
20
698.103359
11
515.038500
21
702.205000
0
LINE
8
0
10
515.038500
20
702.205000
11
513.508918
21
706.475953
0
LINE
8
0
10
513.508918
20
706.475953
11
512.400719
21
710.885750
0
LINE
8
0
10
512.400719
20
710.885750
11
511.726535
21
715.403922
0
LINE
8
0
10
511.726535
20
715.403922
11
511.499000
21
720.000000
0
LINE
8
0
10
555.999000
20
665.000000
11
556.156109
21
665.778250
0
LINE
8
0
10
556.156109
20
665.778250
11
556.584625
21
666.414000
0
LINE
8
0
10
556.584625
20
666.414000
11
557.220328
21
666.842750
0
LINE
8
0
10
557.220328
20
666.842750
11
557.999000
21
667.000000
0
LINE
8
0
10
557.999000
20
667.000000
11
558.777672
21
666.842750
0
LINE
8
0
10
558.777672
20
666.842750
11
559.413375
21
666.414000
0
LINE
8
0
10
559.413375
20
666.414000
11
559.841891
21
665.778250
0
LINE
8
0
10
559.841891
20
665.778250
11
559.999000
21
665.000000
0
LINE
8
0
10
559.999000
20
665.000000
11
559.841750
21
664.221328
0
LINE
8
0
10
559.841750
20
664.221328
11
559.413000
21
663.585625
0
LINE
8
0
10
559.413000
20
663.585625
11
558.777250
21
663.157109
0
LINE
8
0
10
558.777250
20
663.157109
11
557.999000
21
663.000000
0
LINE
8
0
10
557.999000
20
663.000000
11
557.220328
21
663.157109
0
LINE
8
0
10
557.220328
20
663.157109
11
556.584625
21
663.585625
0
LINE
8
0
10
556.584625
20
663.585625
11
556.156109
21
664.221328
0
LINE
8
0
10
556.156109
20
664.221328
11
555.999000
21
665.000000
0
LINE
8
0
10
555.999000
20
774.999000
11
556.156109
21
775.777672
0
LINE
8
0
10
556.156109
20
775.777672
11
556.584625
21
776.413375
0
LINE
8
0
10
556.584625
20
776.413375
11
557.220328
21
776.841891
0
LINE
8
0
10
557.220328
20
776.841891
11
557.999000
21
776.999000
0
LINE
8
0
10
557.999000
20
776.999000
11
558.777250
21
776.841891
0
LINE
8
0
10
558.777250
20
776.841891
11
559.413000
21
776.413375
0
LINE
8
0
10
559.413000
20
776.413375
11
559.841750
21
775.777672
0
LINE
8
0
10
559.841750
20
775.777672
11
559.999000
21
774.999000
0
LINE
8
0
10
559.999000
20
774.999000
11
559.841891
21
774.220750
0
LINE
8
0
10
559.841891
20
774.220750
11
559.413375
21
773.585000
0
LINE
8
0
10
559.413375
20
773.585000
11
558.777672
21
773.156250
0
LINE
8
0
10
558.777672
20
773.156250
11
557.999000
21
772.999000
0
LINE
8
0
10
557.999000
20
772.999000
11
557.220187
21
773.156250
0
LINE
8
0
10
557.220187
20
773.156250
11
556.584250
21
773.585000
0
LINE
8
0
10
556.584250
20
773.585000
11
556.155687
21
774.220750
0
LINE
8
0
10
556.155687
20
774.220750
11
555.999000
21
774.999000
0
LINE
8
0
10
603.632000
20
692.404000
11
603.686250
21
692.971125
0
LINE
8
0
10
603.686250
20
692.971125
11
603.898000
21
693.500000
0
LINE
8
0
10
603.898000
20
693.500000
11
604.423313
21
694.095313
0
LINE
8
0
10
604.423313
20
694.095313
11
605.112500
21
694.431500
0
LINE
8
0
10
605.112500
20
694.431500
11
605.877438
21
694.484938
0
LINE
8
0
10
605.877438
20
694.484938
11
606.630000
21
694.232000
0
LINE
8
0
10
606.630000
20
694.232000
11
607.225312
21
693.706266
0
LINE
8
0
10
607.225312
20
693.706266
11
607.561500
21
693.017125
0
LINE
8
0
10
607.561500
20
693.017125
11
607.614937
21
692.252422
0
LINE
8
0
10
607.614937
20
692.252422
11
607.362000
21
691.500000
0
LINE
8
0
10
607.362000
20
691.500000
11
606.836266
21
690.904125
0
LINE
8
0
10
606.836266
20
690.904125
11
606.147125
21
690.567750
0
LINE
8
0
10
606.147125
20
690.567750
11
605.382422
21
690.514500
0
LINE
8
0
10
605.382422
20
690.514500
11
604.630000
21
690.768000
0
LINE
8
0
10
604.630000
20
690.768000
11
603.922125
21
691.458500
0
LINE
8
0
10
603.922125
20
691.458500
11
603.632000
21
692.404000
0
LINE
8
0
10
603.632000
20
747.595000
11
603.921750
21
748.540625
0
LINE
8
0
10
603.921750
20
748.540625
11
604.630000
21
749.232000
0
LINE
8
0
10
604.630000
20
749.232000
11
605.382422
21
749.484922
0
LINE
8
0
10
605.382422
20
749.484922
11
606.147125
21
749.431375
0
LINE
8
0
10
606.147125
20
749.431375
11
606.836266
21
749.094891
0
LINE
8
0
10
606.836266
20
749.094891
11
607.362000
21
748.499000
0
LINE
8
0
10
607.362000
20
748.499000
11
607.614937
21
747.746578
0
LINE
8
0
10
607.614937
20
747.746578
11
607.561500
21
746.981875
0
LINE
8
0
10
607.561500
20
746.981875
11
607.225312
21
746.292734
0
LINE
8
0
10
607.225312
20
746.292734
11
606.630000
21
745.767000
0
LINE
8
0
10
606.630000
20
745.767000
11
605.877016
21
745.514063
0
LINE
8
0
10
605.877016
20
745.514063
11
605.112125
21
745.567500
0
LINE
8
0
10
605.112125
20
745.567500
11
604.423172
21
745.903687
0
LINE
8
0
10
604.423172
20
745.903687
11
603.898000
21
746.499000
0
LINE
8
0
10
603.898000
20
746.499000
11
603.686250
21
747.027875
0
LINE
8
0
10
603.686250
20
747.027875
11
603.632000
21
747.595000
0
LINE
8
0
10
620.981000
20
518.501000
11
621.137953
21
519.279250
0
LINE
8
0
10
621.137953
20
519.279250
11
621.566125
21
519.915000
0
LINE
8
0
10
621.566125
20
519.915000
11
622.201484
21
520.343750
0
LINE
8
0
10
622.201484
20
520.343750
11
622.980000
21
520.501000
0
LINE
8
0
10
622.980000
20
520.501000
11
623.758672
21
520.343750
0
LINE
8
0
10
623.758672
20
520.343750
11
624.394375
21
519.915000
0
LINE
8
0
10
624.394375
20
519.915000
11
624.822891
21
519.279250
0
LINE
8
0
10
624.822891
20
519.279250
11
624.980000
21
518.501000
0
LINE
8
0
10
624.980000
20
518.501000
11
624.822891
21
517.722328
0
LINE
8
0
10
624.822891
20
517.722328
11
624.394375
21
517.086625
0
LINE
8
0
10
624.394375
20
517.086625
11
623.758672
21
516.658109
0
LINE
8
0
10
623.758672
20
516.658109
11
622.980000
21
516.501000
0
LINE
8
0
10
622.980000
20
516.501000
11
622.201906
21
516.658109
0
LINE
8
0
10
622.201906
20
516.658109
11
621.566500
21
517.086625
0
LINE
8
0
10
621.566500
20
517.086625
11
621.138094
21
517.722328
0
LINE
8
0
10
621.138094
20
517.722328
11
620.981000
21
518.501000
0
LINE
8
0
10
620.981000
20
795.001000
11
621.137953
21
795.779672
0
LINE
8
0
10
621.137953
20
795.779672
11
621.566125
21
796.415375
0
LINE
8
0
10
621.566125
20
796.415375
11
622.201484
21
796.843891
0
LINE
8
0
10
622.201484
20
796.843891
11
622.980000
21
797.001000
0
LINE
8
0
10
622.980000
20
797.001000
11
623.758672
21
796.843891
0
LINE
8
0
10
623.758672
20
796.843891
11
624.394375
21
796.415375
0
LINE
8
0
10
624.394375
20
796.415375
11
624.822891
21
795.779672
0
LINE
8
0
10
624.822891
20
795.779672
11
624.980000
21
795.001000
0
LINE
8
0
10
624.980000
20
795.001000
11
624.822891
21
794.222750
0
LINE
8
0
10
624.822891
20
794.222750
11
624.394375
21
793.587000
0
LINE
8
0
10
624.394375
20
793.587000
11
623.758672
21
793.158250
0
LINE
8
0
10
623.758672
20
793.158250
11
622.980000
21
793.001000
0
LINE
8
0
10
622.980000
20
793.001000
11
622.201906
21
793.158109
0
LINE
8
0
10
622.201906
20
793.158109
11
621.566500
21
793.586625
0
LINE
8
0
10
621.566500
20
793.586625
11
621.138094
21
794.222328
0
LINE
8
0
10
621.138094
20
794.222328
11
620.981000
21
795.001000
0
LINE
8
0
10
631.017000
20
518.501000
11
631.173953
21
519.279250
0
LINE
8
0
10
631.173953
20
519.279250
11
631.602125
21
519.915000
0
LINE
8
0
10
631.602125
20
519.915000
11
632.237484
21
520.343750
0
LINE
8
0
10
632.237484
20
520.343750
11
633.016000
21
520.501000
0
LINE
8
0
10
633.016000
20
520.501000
11
633.794672
21
520.343750
0
LINE
8
0
10
633.794672
20
520.343750
11
634.430375
21
519.915000
0
LINE
8
0
10
634.430375
20
519.915000
11
634.858891
21
519.279250
0
LINE
8
0
10
634.858891
20
519.279250
11
635.016000
21
518.501000
0
LINE
8
0
10
635.016000
20
518.501000
11
634.858750
21
517.722328
0
LINE
8
0
10
634.858750
20
517.722328
11
634.430000
21
517.086625
0
LINE
8
0
10
634.430000
20
517.086625
11
633.794250
21
516.658109
0
LINE
8
0
10
633.794250
20
516.658109
11
633.016000
21
516.501000
0
LINE
8
0
10
633.016000
20
516.501000
11
632.237906
21
516.658109
0
LINE
8
0
10
632.237906
20
516.658109
11
631.602500
21
517.086625
0
LINE
8
0
10
631.602500
20
517.086625
11
631.174094
21
517.722328
0
LINE
8
0
10
631.174094
20
517.722328
11
631.017000
21
518.501000
0
LINE
8
0
10
631.017000
20
598.501000
11
631.173953
21
599.279813
0
LINE
8
0
10
631.173953
20
599.279813
11
631.602125
21
599.915750
0
LINE
8
0
10
631.602125
20
599.915750
11
632.237484
21
600.344313
0
LINE
8
0
10
632.237484
20
600.344313
11
633.016000
21
600.501000
0
LINE
8
0
10
633.016000
20
600.501000
11
633.794672
21
600.343891
0
LINE
8
0
10
633.794672
20
600.343891
11
634.430375
21
599.915375
0
LINE
8
0
10
634.430375
20
599.915375
11
634.858891
21
599.279672
0
LINE
8
0
10
634.858891
20
599.279672
11
635.016000
21
598.501000
0
LINE
8
0
10
635.016000
20
598.501000
11
634.858750
21
597.722750
0
LINE
8
0
10
634.858750
20
597.722750
11
634.430000
21
597.087000
0
LINE
8
0
10
634.430000
20
597.087000
11
633.794250
21
596.658250
0
LINE
8
0
10
633.794250
20
596.658250
11
633.016000
21
596.501000
0
LINE
8
0
10
633.016000
20
596.501000
11
632.237906
21
596.658109
0
LINE
8
0
10
632.237906
20
596.658109
11
631.602500
21
597.086625
0
LINE
8
0
10
631.602500
20
597.086625
11
631.174094
21
597.722328
0
LINE
8
0
10
631.174094
20
597.722328
11
631.017000
21
598.501000
0
LINE
8
0
10
631.017000
20
715.001000
11
631.173953
21
715.779672
0
LINE
8
0
10
631.173953
20
715.779672
11
631.602125
21
716.415375
0
LINE
8
0
10
631.602125
20
716.415375
11
632.237484
21
716.843891
0
LINE
8
0
10
632.237484
20
716.843891
11
633.016000
21
717.001000
0
LINE
8
0
10
633.016000
20
717.001000
11
633.794672
21
716.843750
0
LINE
8
0
10
633.794672
20
716.843750
11
634.430375
21
716.415000
0
LINE
8
0
10
634.430375
20
716.415000
11
634.858891
21
715.779250
0
LINE
8
0
10
634.858891
20
715.779250
11
635.016000
21
715.001000
0
LINE
8
0
10
635.016000
20
715.001000
11
634.858750
21
714.222906
0
LINE
8
0
10
634.858750
20
714.222906
11
634.430000
21
713.587500
0
LINE
8
0
10
634.430000
20
713.587500
11
633.794250
21
713.159094
0
LINE
8
0
10
633.794250
20
713.159094
11
633.016000
21
713.002000
0
LINE
8
0
10
633.016000
20
713.002000
11
632.237906
21
713.158953
0
LINE
8
0
10
632.237906
20
713.158953
11
631.602500
21
713.587125
0
LINE
8
0
10
631.602500
20
713.587125
11
631.174094
21
714.222484
0
LINE
8
0
10
631.174094
20
714.222484
11
631.017000
21
715.001000
0
LINE
8
0
10
631.017000
20
795.001000
11
631.173953
21
795.779672
0
LINE
8
0
10
631.173953
20
795.779672
11
631.602125
21
796.415375
0
LINE
8
0
10
631.602125
20
796.415375
11
632.237484
21
796.843891
0
LINE
8
0
10
632.237484
20
796.843891
11
633.016000
21
797.001000
0
LINE
8
0
10
633.016000
20
797.001000
11
633.794672
21
796.843891
0
LINE
8
0
10
633.794672
20
796.843891
11
634.430375
21
796.415375
0
LINE
8
0
10
634.430375
20
796.415375
11
634.858891
21
795.779672
0
LINE
8
0
10
634.858891
20
795.779672
11
635.016000
21
795.001000
0
LINE
8
0
10
635.016000
20
795.001000
11
634.858750
21
794.222750
0
LINE
8
0
10
634.858750
20
794.222750
11
634.430000
21
793.587000
0
LINE
8
0
10
634.430000
20
793.587000
11
633.794250
21
793.158250
0
LINE
8
0
10
633.794250
20
793.158250
11
633.016000
21
793.001000
0
LINE
8
0
10
633.016000
20
793.001000
11
632.237906
21
793.158109
0
LINE
8
0
10
632.237906
20
793.158109
11
631.602500
21
793.586625
0
LINE
8
0
10
631.602500
20
793.586625
11
631.174094
21
794.222328
0
LINE
8
0
10
631.174094
20
794.222328
11
631.017000
21
795.001000
0
LINE
8
0
10
639.999000
20
518.500000
11
640.100230
21
517.489863
0
LINE
8
0
10
640.100230
20
517.489863
11
640.390719
21
516.550156
0
LINE
8
0
10
640.390719
20
516.550156
11
640.850660
21
515.700684
0
LINE
8
0
10
640.850660
20
515.700684
11
641.460250
21
514.961250
0
LINE
8
0
10
641.460250
20
514.961250
11
642.199684
21
514.351660
0
LINE
8
0
10
642.199684
20
514.351660
11
643.049156
21
513.891719
0
LINE
8
0
10
643.049156
20
513.891719
11
643.988863
21
513.601230
0
LINE
8
0
10
643.988863
20
513.601230
11
644.999000
21
513.500000
0
LINE
8
0
10
794.999000
20
513.500000
11
796.009137
21
513.601230
0
LINE
8
0
10
796.009137
20
513.601230
11
796.948844
21
513.891719
0
LINE
8
0
10
796.948844
20
513.891719
11
797.798316
21
514.351660
0
LINE
8
0
10
797.798316
20
514.351660
11
798.537750
21
514.961250
0
LINE
8
0
10
798.537750
20
514.961250
11
799.147340
21
515.700684
0
LINE
8
0
10
799.147340
20
515.700684
11
799.607281
21
516.550156
0
LINE
8
0
10
799.607281
20
516.550156
11
799.897770
21
517.489863
0
LINE
8
0
10
799.897770
20
517.489863
11
799.999000
21
518.500000
0
LINE
8
0
10
644.999000
20
513.500000
11
794.999000
21
513.500000
0
LINE
8
0
10
799.999000
20
795.000000
11
799.897770
21
796.010094
0
LINE
8
0
10
799.897770
20
796.010094
11
799.607281
21
796.949687
0
LINE
8
0
10
799.607281
20
796.949687
11
799.147340
21
797.799000
0
LINE
8
0
10
799.147340
20
797.799000
11
798.537750
21
798.538250
0
LINE
8
0
10
798.537750
20
798.538250
11
797.798316
21
799.147656
0
LINE
8
0
10
797.798316
20
799.147656
11
796.948844
21
799.607438
0
LINE
8
0
10
796.948844
20
799.607438
11
796.009137
21
799.897813
0
LINE
8
0
10
796.009137
20
799.897813
11
794.999000
21
799.999000
0
LINE
8
0
10
799.999000
20
518.500000
11
799.999000
21
795.000000
0
LINE
8
0
10
644.999000
20
799.999000
11
643.988863
21
799.897813
0
LINE
8
0
10
643.988863
20
799.897813
11
643.049156
21
799.607438
0
LINE
8
0
10
643.049156
20
799.607438
11
642.199684
21
799.147656
0
LINE
8
0
10
642.199684
20
799.147656
11
641.460250
21
798.538250
0
LINE
8
0
10
641.460250
20
798.538250
11
640.850660
21
797.799000
0
LINE
8
0
10
640.850660
20
797.799000
11
640.390719
21
796.949687
0
LINE
8
0
10
640.390719
20
796.949687
11
640.100230
21
796.010094
0
LINE
8
0
10
640.100230
20
796.010094
11
639.999000
21
795.000000
0
LINE
8
0
10
794.999000
20
799.999000
11
644.999000
21
799.999000
0
LINE
8
0
10
643.017000
20
518.500000
11
643.174109
21
519.278688
0
LINE
8
0
10
643.174109
20
519.278688
11
643.602625
21
519.914500
0
LINE
8
0
10
643.602625
20
519.914500
11
644.238328
21
520.343312
0
LINE
8
0
10
644.238328
20
520.343312
11
645.017000
21
520.501000
0
LINE
8
0
10
645.017000
20
520.501000
11
645.795672
21
520.343734
0
LINE
8
0
10
645.795672
20
520.343734
11
646.431375
21
519.914875
0
LINE
8
0
10
646.431375
20
519.914875
11
646.859891
21
519.278828
0
LINE
8
0
10
646.859891
20
519.278828
11
647.017000
21
518.500000
0
LINE
8
0
10
647.017000
20
518.500000
11
646.859750
21
517.721484
0
LINE
8
0
10
646.859750
20
517.721484
11
646.431000
21
517.086125
0
LINE
8
0
10
646.431000
20
517.086125
11
645.795250
21
516.657953
0
LINE
8
0
10
645.795250
20
516.657953
11
645.017000
21
516.501000
0
LINE
8
0
10
645.017000
20
516.501000
11
644.238750
21
516.658094
0
LINE
8
0
10
644.238750
20
516.658094
11
643.603000
21
517.086500
0
LINE
8
0
10
643.603000
20
517.086500
11
643.174250
21
517.721906
0
LINE
8
0
10
643.174250
20
517.721906
11
643.017000
21
518.500000
0
LINE
8
0
10
639.999000
20
795.000000
11
639.999000
21
518.500000
0
LINE
8
0
10
643.017000
20
598.501000
11
643.174109
21
599.279250
0
LINE
8
0
10
643.174109
20
599.279250
11
643.602625
21
599.915000
0
LINE
8
0
10
643.602625
20
599.915000
11
644.238328
21
600.343750
0
LINE
8
0
10
644.238328
20
600.343750
11
645.017000
21
600.501000
0
LINE
8
0
10
645.017000
20
600.501000
11
645.795672
21
600.343750
0
LINE
8
0
10
645.795672
20
600.343750
11
646.431375
21
599.915000
0
LINE
8
0
10
646.431375
20
599.915000
11
646.859891
21
599.279250
0
LINE
8
0
10
646.859891
20
599.279250
11
647.017000
21
598.501000
0
LINE
8
0
10
647.017000
20
598.501000
11
646.859750
21
597.722172
0
LINE
8
0
10
646.859750
20
597.722172
11
646.431000
21
597.086125
0
LINE
8
0
10
646.431000
20
597.086125
11
645.795250
21
596.657266
0
LINE
8
0
10
645.795250
20
596.657266
11
645.017000
21
596.500000
0
LINE
8
0
10
645.017000
20
596.500000
11
644.238750
21
596.657266
0
LINE
8
0
10
644.238750
20
596.657266
11
643.603000
21
597.086125
0
LINE
8
0
10
643.603000
20
597.086125
11
643.174250
21
597.722172
0
LINE
8
0
10
643.174250
20
597.722172
11
643.017000
21
598.501000
0
LINE
8
0
10
643.017000
20
715.001000
11
643.174109
21
715.779109
0
LINE
8
0
10
643.174109
20
715.779109
11
643.602625
21
716.414625
0
LINE
8
0
10
643.602625
20
716.414625
11
644.238328
21
716.843328
0
LINE
8
0
10
644.238328
20
716.843328
11
645.017000
21
717.001000
0
LINE
8
0
10
645.017000
20
717.001000
11
645.795672
21
716.843750
0
LINE
8
0
10
645.795672
20
716.843750
11
646.431375
21
716.415000
0
LINE
8
0
10
646.431375
20
716.415000
11
646.859891
21
715.779250
0
LINE
8
0
10
646.859891
20
715.779250
11
647.017000
21
715.001000
0
LINE
8
0
10
647.017000
20
715.001000
11
646.859750
21
714.222328
0
LINE
8
0
10
646.859750
20
714.222328
11
646.431000
21
713.586625
0
LINE
8
0
10
646.431000
20
713.586625
11
645.795250
21
713.158109
0
LINE
8
0
10
645.795250
20
713.158109
11
645.017000
21
713.001000
0
LINE
8
0
10
645.017000
20
713.001000
11
644.238750
21
713.158109
0
LINE
8
0
10
644.238750
20
713.158109
11
643.603000
21
713.586625
0
LINE
8
0
10
643.603000
20
713.586625
11
643.174250
21
714.222328
0
LINE
8
0
10
643.174250
20
714.222328
11
643.017000
21
715.001000
0
LINE
8
0
10
643.017000
20
795.000000
11
643.174109
21
795.778688
0
LINE
8
0
10
643.174109
20
795.778688
11
643.602625
21
796.414500
0
LINE
8
0
10
643.602625
20
796.414500
11
644.238328
21
796.843312
0
LINE
8
0
10
644.238328
20
796.843312
11
645.017000
21
797.001000
0
LINE
8
0
10
645.017000
20
797.001000
11
645.795672
21
796.843734
0
LINE
8
0
10
645.795672
20
796.843734
11
646.431375
21
796.414875
0
LINE
8
0
10
646.431375
20
796.414875
11
646.859891
21
795.778828
0
LINE
8
0
10
646.859891
20
795.778828
11
647.017000
21
795.000000
0
LINE
8
0
10
647.017000
20
795.000000
11
646.859750
21
794.221750
0
LINE
8
0
10
646.859750
20
794.221750
11
646.431000
21
793.586000
0
LINE
8
0
10
646.431000
20
793.586000
11
645.795250
21
793.157250
0
LINE
8
0
10
645.795250
20
793.157250
11
645.017000
21
793.000000
0
LINE
8
0
10
645.017000
20
793.000000
11
644.238750
21
793.157250
0
LINE
8
0
10
644.238750
20
793.157250
11
643.603000
21
793.586000
0
LINE
8
0
10
643.603000
20
793.586000
11
643.174250
21
794.221750
0
LINE
8
0
10
643.174250
20
794.221750
11
643.017000
21
795.000000
0
LINE
8
0
10
653.053000
20
518.500000
11
653.210250
21
519.278688
0
LINE
8
0
10
653.210250
20
519.278688
11
653.639000
21
519.914500
0
LINE
8
0
10
653.639000
20
519.914500
11
654.274750
21
520.343312
0
LINE
8
0
10
654.274750
20
520.343312
11
655.053000
21
520.501000
0
LINE
8
0
10
655.053000
20
520.501000
11
655.831672
21
520.343734
0
LINE
8
0
10
655.831672
20
520.343734
11
656.467375
21
519.914875
0
LINE
8
0
10
656.467375
20
519.914875
11
656.895891
21
519.278828
0
LINE
8
0
10
656.895891
20
519.278828
11
657.053000
21
518.500000
0
LINE
8
0
10
657.053000
20
518.500000
11
656.895891
21
517.721484
0
LINE
8
0
10
656.895891
20
517.721484
11
656.467375
21
517.086125
0
LINE
8
0
10
656.467375
20
517.086125
11
655.831672
21
516.657953
0
LINE
8
0
10
655.831672
20
516.657953
11
655.053000
21
516.501000
0
LINE
8
0
10
655.053000
20
516.501000
11
654.274750
21
516.658094
0
LINE
8
0
10
654.274750
20
516.658094
11
653.639000
21
517.086500
0
LINE
8
0
10
653.639000
20
517.086500
11
653.210250
21
517.721906
0
LINE
8
0
10
653.210250
20
517.721906
11
653.053000
21
518.500000
0
LINE
8
0
10
653.053000
20
795.000000
11
653.210250
21
795.778688
0
LINE
8
0
10
653.210250
20
795.778688
11
653.639000
21
796.414500
0
LINE
8
0
10
653.639000
20
796.414500
11
654.274750
21
796.843312
0
LINE
8
0
10
654.274750
20
796.843312
11
655.053000
21
797.001000
0
LINE
8
0
10
655.053000
20
797.001000
11
655.831672
21
796.843734
0
LINE
8
0
10
655.831672
20
796.843734
11
656.467375
21
796.414875
0
LINE
8
0
10
656.467375
20
796.414875
11
656.895891
21
795.778828
0
LINE
8
0
10
656.895891
20
795.778828
11
657.053000
21
795.000000
0
LINE
8
0
10
657.053000
20
795.000000
11
656.895891
21
794.221750
0
LINE
8
0
10
656.895891
20
794.221750
11
656.467375
21
793.586000
0
LINE
8
0
10
656.467375
20
793.586000
11
655.831672
21
793.157250
0
LINE
8
0
10
655.831672
20
793.157250
11
655.053000
21
793.000000
0
LINE
8
0
10
655.053000
20
793.000000
11
654.274750
21
793.157250
0
LINE
8
0
10
654.274750
20
793.157250
11
653.639000
21
793.586000
0
LINE
8
0
10
653.639000
20
793.586000
11
653.210250
21
794.221750
0
LINE
8
0
10
653.210250
20
794.221750
11
653.053000
21
795.000000
0
LINE
8
0
10
670.370000
20
692.595000
11
670.659625
21
693.540625
0
LINE
8
0
10
670.659625
20
693.540625
11
671.367000
21
694.232000
0
LINE
8
0
10
671.367000
20
694.232000
11
672.119984
21
694.485078
0
LINE
8
0
10
672.119984
20
694.485078
11
672.884875
21
694.431875
0
LINE
8
0
10
672.884875
20
694.431875
11
673.573828
21
694.095734
0
LINE
8
0
10
673.573828
20
694.095734
11
674.099000
21
693.500000
0
LINE
8
0
10
674.099000
20
693.500000
11
674.352516
21
692.747016
0
LINE
8
0
10
674.352516
20
692.747016
11
674.299375
21
691.982125
0
LINE
8
0
10
674.299375
20
691.982125
11
673.963297
21
691.293172
0
LINE
8
0
10
673.963297
20
691.293172
11
673.368000
21
690.768000
0
LINE
8
0
10
673.368000
20
690.768000
11
672.615016
21
690.514500
0
LINE
8
0
10
672.615016
20
690.514500
11
671.850125
21
690.567750
0
LINE
8
0
10
671.850125
20
690.567750
11
671.161172
21
690.904125
0
LINE
8
0
10
671.161172
20
690.904125
11
670.636000
21
691.500000
0
LINE
8
0
10
670.636000
20
691.500000
11
670.424250
21
692.028375
0
LINE
8
0
10
670.424250
20
692.028375
11
670.370000
21
692.595000
0
LINE
8
0
10
670.370000
20
747.404000
11
670.423875
21
747.970625
0
LINE
8
0
10
670.423875
20
747.970625
11
670.636000
21
748.499000
0
LINE
8
0
10
670.636000
20
748.499000
11
671.161172
21
749.094891
0
LINE
8
0
10
671.161172
20
749.094891
11
671.850125
21
749.431375
0
LINE
8
0
10
671.850125
20
749.431375
11
672.615016
21
749.484922
0
LINE
8
0
10
672.615016
20
749.484922
11
673.368000
21
749.232000
0
LINE
8
0
10
673.368000
20
749.232000
11
673.963313
21
748.706250
0
LINE
8
0
10
673.963313
20
748.706250
11
674.299500
21
748.017000
0
LINE
8
0
10
674.299500
20
748.017000
11
674.352938
21
747.252000
0
LINE
8
0
10
674.352938
20
747.252000
11
674.100000
21
746.499000
0
LINE
8
0
10
674.100000
20
746.499000
11
673.574828
21
745.903687
0
LINE
8
0
10
673.574828
20
745.903687
11
672.885875
21
745.567500
0
LINE
8
0
10
672.885875
20
745.567500
11
672.120984
21
745.514063
0
LINE
8
0
10
672.120984
20
745.514063
11
671.368000
21
745.767000
0
LINE
8
0
10
671.368000
20
745.767000
11
670.659750
21
746.458375
0
LINE
8
0
10
670.659750
20
746.458375
11
670.370000
21
747.404000
0
LINE
8
0
10
673.499000
20
720.000000
11
673.726535
21
724.595789
0
LINE
8
0
10
673.726535
20
724.595789
11
674.400719
21
729.113812
0
LINE
8
0
10
674.400719
20
729.113812
11
675.508918
21
733.523555
0
LINE
8
0
10
675.508918
20
733.523555
11
677.038500
21
737.794500
0
LINE
8
0
10
677.038500
20
737.794500
11
678.976832
21
741.896133
0
LINE
8
0
10
678.976832
20
741.896133
11
681.311281
21
745.797937
0
LINE
8
0
10
681.311281
20
745.797937
11
684.029215
21
749.469398
0
LINE
8
0
10
684.029215
20
749.469398
11
687.118000
21
752.880000
0
LINE
8
0
10
687.118000
20
752.880000
11
690.528891
21
755.969115
0
LINE
8
0
10
690.528891
20
755.969115
11
694.200500
21
758.687297
0
LINE
8
0
10
694.200500
20
758.687297
11
698.102359
21
761.021924
0
LINE
8
0
10
698.102359
20
761.021924
11
702.204000
21
762.960375
0
LINE
8
0
10
702.204000
20
762.960375
11
706.474953
21
764.490029
0
LINE
8
0
10
706.474953
20
764.490029
11
710.884750
21
765.598266
0
LINE
8
0
10
710.884750
20
765.598266
11
715.402922
21
766.272463
0
LINE
8
0
10
715.402922
20
766.272463
11
719.999000
21
766.500000
0
LINE
8
0
10
719.999000
20
766.500000
11
724.753315
21
766.259923
0
LINE
8
0
10
724.753315
20
766.259923
11
729.370303
21
765.555275
0
LINE
8
0
10
729.370303
20
765.555275
11
733.826588
21
764.409431
0
LINE
8
0
10
733.826588
20
764.409431
11
738.098797
21
762.845766
0
LINE
8
0
10
738.098797
20
762.845766
11
742.163554
21
760.887653
0
LINE
8
0
10
742.163554
20
760.887653
11
745.997486
21
758.558467
0
LINE
8
0
10
745.997486
20
758.558467
11
749.577218
21
755.881583
0
LINE
8
0
10
749.577218
20
755.881583
11
752.879375
21
752.880375
0
LINE
8
0
10
752.879375
20
752.880375
11
755.880583
21
749.578218
0
LINE
8
0
10
755.880583
20
749.578218
11
758.557467
21
745.998486
0
LINE
8
0
10
758.557467
20
745.998486
11
760.886653
21
742.164554
0
LINE
8
0
10
760.886653
20
742.164554
11
762.844766
21
738.099797
0
LINE
8
0
10
762.844766
20
738.099797
11
764.408431
21
733.827588
0
LINE
8
0
10
764.408431
20
733.827588
11
765.554275
21
729.371303
0
LINE
8
0
10
765.554275
20
729.371303
11
766.258923
21
724.754315
0
LINE
8
0
10
766.258923
20
724.754315
11
766.499000
21
720.000000
0
LINE
8
0
10
766.499000
20
720.000000
11
766.258923
21
715.245685
0
LINE
8
0
10
766.258923
20
715.245685
11
765.554275
21
710.628697
0
LINE
8
0
10
765.554275
20
710.628697
11
764.408431
21
706.172412
0
LINE
8
0
10
764.408431
20
706.172412
11
762.844766
21
701.900203
0
LINE
8
0
10
762.844766
20
701.900203
11
760.886653
21
697.835446
0
LINE
8
0
10
760.886653
20
697.835446
11
758.557467
21
694.001514
0
LINE
8
0
10
758.557467
20
694.001514
11
755.880583
21
690.421782
0
LINE
8
0
10
755.880583
20
690.421782
11
752.879375
21
687.119625
0
LINE
8
0
10
752.879375
20
687.119625
11
749.577218
21
684.118417
0
LINE
8
0
10
749.577218
20
684.118417
11
745.997486
21
681.441533
0
LINE
8
0
10
745.997486
20
681.441533
11
742.163554
21
679.112347
0
LINE
8
0
10
742.163554
20
679.112347
11
738.098797
21
677.154234
0
LINE
8
0
10
738.098797
20
677.154234
11
733.826588
21
675.590569
0
LINE
8
0
10
733.826588
20
675.590569
11
729.370303
21
674.444725
0
LINE
8
0
10
729.370303
20
674.444725
11
724.753315
21
673.740077
0
LINE
8
0
10
724.753315
20
673.740077
11
719.999000
21
673.500000
0
LINE
8
0
10
719.999000
20
673.500000
11
715.402922
21
673.727535
0
LINE
8
0
10
715.402922
20
673.727535
11
710.884750
21
674.401719
0
LINE
8
0
10
710.884750
20
674.401719
11
706.474953
21
675.509918
0
LINE
8
0
10
706.474953
20
675.509918
11
702.204000
21
677.039500
0
LINE
8
0
10
702.204000
20
677.039500
11
698.102359
21
678.977832
0
LINE
8
0
10
698.102359
20
678.977832
11
694.200500
21
681.312281
0
LINE
8
0
10
694.200500
20
681.312281
11
690.528891
21
684.030215
0
LINE
8
0
10
690.528891
20
684.030215
11
687.118000
21
687.119000
0
LINE
8
0
10
687.118000
20
687.119000
11
684.029215
21
690.529891
0
LINE
8
0
10
684.029215
20
690.529891
11
681.311281
21
694.201500
0
LINE
8
0
10
681.311281
20
694.201500
11
678.976832
21
698.103359
0
LINE
8
0
10
678.976832
20
698.103359
11
677.038500
21
702.205000
0
LINE
8
0
10
677.038500
20
702.205000
11
675.508918
21
706.475953
0
LINE
8
0
10
675.508918
20
706.475953
11
674.400719
21
710.885750
0
LINE
8
0
10
674.400719
20
710.885750
11
673.726535
21
715.403922
0
LINE
8
0
10
673.726535
20
715.403922
11
673.499000
21
720.000000
0
LINE
8
0
10
717.999000
20
665.000000
11
718.156109
21
665.778250
0
LINE
8
0
10
718.156109
20
665.778250
11
718.584625
21
666.414000
0
LINE
8
0
10
718.584625
20
666.414000
11
719.220328
21
666.842750
0
LINE
8
0
10
719.220328
20
666.842750
11
719.999000
21
667.000000
0
LINE
8
0
10
719.999000
20
667.000000
11
720.777672
21
666.842750
0
LINE
8
0
10
720.777672
20
666.842750
11
721.413375
21
666.414000
0
LINE
8
0
10
721.413375
20
666.414000
11
721.841891
21
665.778250
0
LINE
8
0
10
721.841891
20
665.778250
11
721.999000
21
665.000000
0
LINE
8
0
10
721.999000
20
665.000000
11
721.841750
21
664.221328
0
LINE
8
0
10
721.841750
20
664.221328
11
721.413000
21
663.585625
0
LINE
8
0
10
721.413000
20
663.585625
11
720.777250
21
663.157109
0
LINE
8
0
10
720.777250
20
663.157109
11
719.999000
21
663.000000
0
LINE
8
0
10
719.999000
20
663.000000
11
719.220328
21
663.157109
0
LINE
8
0
10
719.220328
20
663.157109
11
718.584625
21
663.585625
0
LINE
8
0
10
718.584625
20
663.585625
11
718.156109
21
664.221328
0
LINE
8
0
10
718.156109
20
664.221328
11
717.999000
21
665.000000
0
LINE
8
0
10
717.999000
20
774.999000
11
718.156109
21
775.777672
0
LINE
8
0
10
718.156109
20
775.777672
11
718.584625
21
776.413375
0
LINE
8
0
10
718.584625
20
776.413375
11
719.220328
21
776.841891
0
LINE
8
0
10
719.220328
20
776.841891
11
719.999000
21
776.999000
0
LINE
8
0
10
719.999000
20
776.999000
11
720.777250
21
776.841891
0
LINE
8
0
10
720.777250
20
776.841891
11
721.413000
21
776.413375
0
LINE
8
0
10
721.413000
20
776.413375
11
721.841750
21
775.777672
0
LINE
8
0
10
721.841750
20
775.777672
11
721.999000
21
774.999000
0
LINE
8
0
10
721.999000
20
774.999000
11
721.841891
21
774.220750
0
LINE
8
0
10
721.841891
20
774.220750
11
721.413375
21
773.585000
0
LINE
8
0
10
721.413375
20
773.585000
11
720.777672
21
773.156250
0
LINE
8
0
10
720.777672
20
773.156250
11
719.999000
21
772.999000
0
LINE
8
0
10
719.999000
20
772.999000
11
719.220187
21
773.156250
0
LINE
8
0
10
719.220187
20
773.156250
11
718.584250
21
773.585000
0
LINE
8
0
10
718.584250
20
773.585000
11
718.155687
21
774.220750
0
LINE
8
0
10
718.155687
20
774.220750
11
717.999000
21
774.999000
0
LINE
8
0
10
765.632000
20
692.404000
11
765.686250
21
692.971125
0
LINE
8
0
10
765.686250
20
692.971125
11
765.898000
21
693.500000
0
LINE
8
0
10
765.898000
20
693.500000
11
766.423313
21
694.095313
0
LINE
8
0
10
766.423313
20
694.095313
11
767.112500
21
694.431500
0
LINE
8
0
10
767.112500
20
694.431500
11
767.877438
21
694.484938
0
LINE
8
0
10
767.877438
20
694.484938
11
768.630000
21
694.232000
0
LINE
8
0
10
768.630000
20
694.232000
11
769.225312
21
693.706266
0
LINE
8
0
10
769.225312
20
693.706266
11
769.561500
21
693.017125
0
LINE
8
0
10
769.561500
20
693.017125
11
769.614937
21
692.252422
0
LINE
8
0
10
769.614937
20
692.252422
11
769.362000
21
691.500000
0
LINE
8
0
10
769.362000
20
691.500000
11
768.836266
21
690.904125
0
LINE
8
0
10
768.836266
20
690.904125
11
768.147125
21
690.567750
0
LINE
8
0
10
768.147125
20
690.567750
11
767.382422
21
690.514500
0
LINE
8
0
10
767.382422
20
690.514500
11
766.630000
21
690.768000
0
LINE
8
0
10
766.630000
20
690.768000
11
765.922125
21
691.458500
0
LINE
8
0
10
765.922125
20
691.458500
11
765.632000
21
692.404000
0
LINE
8
0
10
765.632000
20
747.595000
11
765.921750
21
748.540625
0
LINE
8
0
10
765.921750
20
748.540625
11
766.630000
21
749.232000
0
LINE
8
0
10
766.630000
20
749.232000
11
767.382422
21
749.484922
0
LINE
8
0
10
767.382422
20
749.484922
11
768.147125
21
749.431375
0
LINE
8
0
10
768.147125
20
749.431375
11
768.836266
21
749.094891
0
LINE
8
0
10
768.836266
20
749.094891
11
769.362000
21
748.499000
0
LINE
8
0
10
769.362000
20
748.499000
11
769.614937
21
747.746578
0
LINE
8
0
10
769.614937
20
747.746578
11
769.561500
21
746.981875
0
LINE
8
0
10
769.561500
20
746.981875
11
769.225312
21
746.292734
0
LINE
8
0
10
769.225312
20
746.292734
11
768.630000
21
745.767000
0
LINE
8
0
10
768.630000
20
745.767000
11
767.877016
21
745.514063
0
LINE
8
0
10
767.877016
20
745.514063
11
767.112125
21
745.567500
0
LINE
8
0
10
767.112125
20
745.567500
11
766.423172
21
745.903687
0
LINE
8
0
10
766.423172
20
745.903687
11
765.898000
21
746.499000
0
LINE
8
0
10
765.898000
20
746.499000
11
765.686250
21
747.027875
0
LINE
8
0
10
765.686250
20
747.027875
11
765.632000
21
747.595000
0
LINE
8
0
10
782.981000
20
518.501000
11
783.137953
21
519.279250
0
LINE
8
0
10
783.137953
20
519.279250
11
783.566125
21
519.915000
0
LINE
8
0
10
783.566125
20
519.915000
11
784.201484
21
520.343750
0
LINE
8
0
10
784.201484
20
520.343750
11
784.980000
21
520.501000
0
LINE
8
0
10
784.980000
20
520.501000
11
785.758672
21
520.343750
0
LINE
8
0
10
785.758672
20
520.343750
11
786.394375
21
519.915000
0
LINE
8
0
10
786.394375
20
519.915000
11
786.822891
21
519.279250
0
LINE
8
0
10
786.822891
20
519.279250
11
786.980000
21
518.501000
0
LINE
8
0
10
786.980000
20
518.501000
11
786.822891
21
517.722328
0
LINE
8
0
10
786.822891
20
517.722328
11
786.394375
21
517.086625
0
LINE
8
0
10
786.394375
20
517.086625
11
785.758672
21
516.658109
0
LINE
8
0
10
785.758672
20
516.658109
11
784.980000
21
516.501000
0
LINE
8
0
10
784.980000
20
516.501000
11
784.201906
21
516.658109
0
LINE
8
0
10
784.201906
20
516.658109
11
783.566500
21
517.086625
0
LINE
8
0
10
783.566500
20
517.086625
11
783.138094
21
517.722328
0
LINE
8
0
10
783.138094
20
517.722328
11
782.981000
21
518.501000
0
LINE
8
0
10
782.981000
20
795.001000
11
783.137953
21
795.779672
0
LINE
8
0
10
783.137953
20
795.779672
11
783.566125
21
796.415375
0
LINE
8
0
10
783.566125
20
796.415375
11
784.201484
21
796.843891
0
LINE
8
0
10
784.201484
20
796.843891
11
784.980000
21
797.001000
0
LINE
8
0
10
784.980000
20
797.001000
11
785.758672
21
796.843891
0
LINE
8
0
10
785.758672
20
796.843891
11
786.394375
21
796.415375
0
LINE
8
0
10
786.394375
20
796.415375
11
786.822891
21
795.779672
0
LINE
8
0
10
786.822891
20
795.779672
11
786.980000
21
795.001000
0
LINE
8
0
10
786.980000
20
795.001000
11
786.822891
21
794.222750
0
LINE
8
0
10
786.822891
20
794.222750
11
786.394375
21
793.587000
0
LINE
8
0
10
786.394375
20
793.587000
11
785.758672
21
793.158250
0
LINE
8
0
10
785.758672
20
793.158250
11
784.980000
21
793.001000
0
LINE
8
0
10
784.980000
20
793.001000
11
784.201906
21
793.158109
0
LINE
8
0
10
784.201906
20
793.158109
11
783.566500
21
793.586625
0
LINE
8
0
10
783.566500
20
793.586625
11
783.138094
21
794.222328
0
LINE
8
0
10
783.138094
20
794.222328
11
782.981000
21
795.001000
0
LINE
8
0
10
793.017000
20
518.501000
11
793.173953
21
519.279250
0
LINE
8
0
10
793.173953
20
519.279250
11
793.602125
21
519.915000
0
LINE
8
0
10
793.602125
20
519.915000
11
794.237484
21
520.343750
0
LINE
8
0
10
794.237484
20
520.343750
11
795.016000
21
520.501000
0
LINE
8
0
10
795.016000
20
520.501000
11
795.794250
21
520.343750
0
LINE
8
0
10
795.794250
20
520.343750
11
796.430000
21
519.915000
0
LINE
8
0
10
796.430000
20
519.915000
11
796.858750
21
519.279250
0
LINE
8
0
10
796.858750
20
519.279250
11
797.016000
21
518.501000
0
LINE
8
0
10
797.016000
20
518.501000
11
796.858750
21
517.722328
0
LINE
8
0
10
796.858750
20
517.722328
11
796.430000
21
517.086625
0
LINE
8
0
10
796.430000
20
517.086625
11
795.794250
21
516.658109
0
LINE
8
0
10
795.794250
20
516.658109
11
795.016000
21
516.501000
0
LINE
8
0
10
795.016000
20
516.501000
11
794.237484
21
516.658109
0
LINE
8
0
10
794.237484
20
516.658109
11
793.602125
21
517.086625
0
LINE
8
0
10
793.602125
20
517.086625
11
793.173953
21
517.722328
0
LINE
8
0
10
793.173953
20
517.722328
11
793.017000
21
518.501000
0
LINE
8
0
10
793.017000
20
598.501000
11
793.173953
21
599.279813
0
LINE
8
0
10
793.173953
20
599.279813
11
793.602125
21
599.915750
0
LINE
8
0
10
793.602125
20
599.915750
11
794.237484
21
600.344313
0
LINE
8
0
10
794.237484
20
600.344313
11
795.016000
21
600.501000
0
LINE
8
0
10
795.016000
20
600.501000
11
795.794250
21
600.343891
0
LINE
8
0
10
795.794250
20
600.343891
11
796.430000
21
599.915375
0
LINE
8
0
10
796.430000
20
599.915375
11
796.858750
21
599.279672
0
LINE
8
0
10
796.858750
20
599.279672
11
797.016000
21
598.501000
0
LINE
8
0
10
797.016000
20
598.501000
11
796.858750
21
597.722750
0
LINE
8
0
10
796.858750
20
597.722750
11
796.430000
21
597.087000
0
LINE
8
0
10
796.430000
20
597.087000
11
795.794250
21
596.658250
0
LINE
8
0
10
795.794250
20
596.658250
11
795.016000
21
596.501000
0
LINE
8
0
10
795.016000
20
596.501000
11
794.237484
21
596.658109
0
LINE
8
0
10
794.237484
20
596.658109
11
793.602125
21
597.086625
0
LINE
8
0
10
793.602125
20
597.086625
11
793.173953
21
597.722328
0
LINE
8
0
10
793.173953
20
597.722328
11
793.017000
21
598.501000
0
LINE
8
0
10
793.017000
20
715.001000
11
793.173953
21
715.779672
0
LINE
8
0
10
793.173953
20
715.779672
11
793.602125
21
716.415375
0
LINE
8
0
10
793.602125
20
716.415375
11
794.237484
21
716.843891
0
LINE
8
0
10
794.237484
20
716.843891
11
795.016000
21
717.001000
0
LINE
8
0
10
795.016000
20
717.001000
11
795.794250
21
716.843750
0
LINE
8
0
10
795.794250
20
716.843750
11
796.430000
21
716.415000
0
LINE
8
0
10
796.430000
20
716.415000
11
796.858750
21
715.779250
0
LINE
8
0
10
796.858750
20
715.779250
11
797.016000
21
715.001000
0
LINE
8
0
10
797.016000
20
715.001000
11
796.858750
21
714.222906
0
LINE
8
0
10
796.858750
20
714.222906
11
796.430000
21
713.587500
0
LINE
8
0
10
796.430000
20
713.587500
11
795.794250
21
713.159094
0
LINE
8
0
10
795.794250
20
713.159094
11
795.016000
21
713.002000
0
LINE
8
0
10
795.016000
20
713.002000
11
794.237484
21
713.158953
0
LINE
8
0
10
794.237484
20
713.158953
11
793.602125
21
713.587125
0
LINE
8
0
10
793.602125
20
713.587125
11
793.173953
21
714.222484
0
LINE
8
0
10
793.173953
20
714.222484
11
793.017000
21
715.001000
0
LINE
8
0
10
793.017000
20
795.001000
11
793.173953
21
795.779672
0
LINE
8
0
10
793.173953
20
795.779672
11
793.602125
21
796.415375
0
LINE
8
0
10
793.602125
20
796.415375
11
794.237484
21
796.843891
0
LINE
8
0
10
794.237484
20
796.843891
11
795.016000
21
797.001000
0
LINE
8
0
10
795.016000
20
797.001000
11
795.794250
21
796.843891
0
LINE
8
0
10
795.794250
20
796.843891
11
796.430000
21
796.415375
0
LINE
8
0
10
796.430000
20
796.415375
11
796.858750
21
795.779672
0
LINE
8
0
10
796.858750
20
795.779672
11
797.016000
21
795.001000
0
LINE
8
0
10
797.016000
20
795.001000
11
796.858750
21
794.222750
0
LINE
8
0
10
796.858750
20
794.222750
11
796.430000
21
793.587000
0
LINE
8
0
10
796.430000
20
793.587000
11
795.794250
21
793.158250
0
LINE
8
0
10
795.794250
20
793.158250
11
795.016000
21
793.001000
0
LINE
8
0
10
795.016000
20
793.001000
11
794.237484
21
793.158109
0
LINE
8
0
10
794.237484
20
793.158109
11
793.602125
21
793.586625
0
LINE
8
0
10
793.602125
20
793.586625
11
793.173953
21
794.222328
0
LINE
8
0
10
793.173953
20
794.222328
11
793.017000
21
795.001000
0
LINE
8
0
10
-7.998860
20
518.500000
11
-7.897623
21
517.489820
0
LINE
8
0
10
-7.897623
20
517.489820
11
-7.607120
21
516.550000
0
LINE
8
0
10
-7.607120
20
516.550000
11
-7.147165
21
515.700367
0
LINE
8
0
10
-7.147165
20
515.700367
11
-6.537569
21
514.960750
0
LINE
8
0
10
-6.537569
20
514.960750
11
-5.798146
21
514.350977
0
LINE
8
0
10
-5.798146
20
514.350977
11
-4.948708
21
513.890875
0
LINE
8
0
10
-4.948708
20
513.890875
11
-4.009068
21
513.600273
0
LINE
8
0
10
-4.009068
20
513.600273
11
-2.999040
21
513.499000
0
LINE
8
0
10
147.001000
20
513.499000
11
148.010850
21
513.600273
0
LINE
8
0
10
148.010850
20
513.600273
11
148.950422
21
513.890875
0
LINE
8
0
10
148.950422
20
513.890875
11
149.799877
21
514.350977
0
LINE
8
0
10
149.799877
20
514.350977
11
150.539375
21
514.960750
0
LINE
8
0
10
150.539375
20
514.960750
11
151.149076
21
515.700367
0
LINE
8
0
10
151.149076
20
515.700367
11
151.609141
21
516.550000
0
LINE
8
0
10
151.609141
20
516.550000
11
151.899729
21
517.489820
0
LINE
8
0
10
151.899729
20
517.489820
11
152.001000
21
518.500000
0
LINE
8
0
10
-2.999040
20
513.499000
11
147.001000
21
513.499000
0
LINE
8
0
10
152.001000
20
794.999000
11
151.899729
21
796.009137
0
LINE
8
0
10
151.899729
20
796.009137
11
151.609141
21
796.948844
0
LINE
8
0
10
151.609141
20
796.948844
11
151.149076
21
797.798316
0
LINE
8
0
10
151.149076
20
797.798316
11
150.539375
21
798.537750
0
LINE
8
0
10
150.539375
20
798.537750
11
149.799877
21
799.147340
0
LINE
8
0
10
149.799877
20
799.147340
11
148.950422
21
799.607281
0
LINE
8
0
10
148.950422
20
799.607281
11
148.010850
21
799.897770
0
LINE
8
0
10
148.010850
20
799.897770
11
147.001000
21
799.999000
0
LINE
8
0
10
152.001000
20
518.500000
11
152.001000
21
794.999000
0
LINE
8
0
10
-2.999040
20
799.999000
11
-4.009068
21
799.897770
0
LINE
8
0
10
-4.009068
20
799.897770
11
-4.948708
21
799.607281
0
LINE
8
0
10
-4.948708
20
799.607281
11
-5.798146
21
799.147340
0
LINE
8
0
10
-5.798146
20
799.147340
11
-6.537569
21
798.537750
0
LINE
8
0
10
-6.537569
20
798.537750
11
-7.147165
21
797.798316
0
LINE
8
0
10
-7.147165
20
797.798316
11
-7.607120
21
796.948844
0
LINE
8
0
10
-7.607120
20
796.948844
11
-7.897623
21
796.009137
0
LINE
8
0
10
-7.897623
20
796.009137
11
-7.998860
21
794.999000
0
LINE
8
0
10
147.001000
20
799.999000
11
-2.999040
21
799.999000
0
LINE
8
0
10
-4.981030
20
518.500000
11
-4.823872
21
519.278250
0
LINE
8
0
10
-4.823872
20
519.278250
11
-4.395276
21
519.914000
0
LINE
8
0
10
-4.395276
20
519.914000
11
-3.759563
21
520.342750
0
LINE
8
0
10
-3.759563
20
520.342750
11
-2.981050
21
520.500000
0
LINE
8
0
10
-2.981050
20
520.500000
11
-2.202578
21
520.342750
0
LINE
8
0
10
-2.202578
20
520.342750
11
-1.566955
21
519.914000
0
LINE
8
0
10
-1.566955
20
519.914000
11
-1.138450
21
519.278250
0
LINE
8
0
10
-1.138450
20
519.278250
11
-0.981333
21
518.500000
0
LINE
8
0
10
-0.981333
20
518.500000
11
-1.138487
21
517.721328
0
LINE
8
0
10
-1.138487
20
517.721328
11
-1.567053
21
517.085625
0
LINE
8
0
10
-1.567053
20
517.085625
11
-2.202688
21
516.657109
0
LINE
8
0
10
-2.202688
20
516.657109
11
-2.981050
21
516.500000
0
LINE
8
0
10
-2.981050
20
516.500000
11
-3.759563
21
516.657109
0
LINE
8
0
10
-3.759563
20
516.657109
11
-4.395276
21
517.085625
0
LINE
8
0
10
-4.395276
20
517.085625
11
-4.823872
21
517.721328
0
LINE
8
0
10
-4.823872
20
517.721328
11
-4.981030
21
518.500000
0
LINE
8
0
10
-7.998860
20
794.999000
11
-7.998860
21
518.500000
0
LINE
8
0
10
-4.981030
20
598.500000
11
-4.823872
21
599.278672
0
LINE
8
0
10
-4.823872
20
599.278672
11
-4.395276
21
599.914375
0
LINE
8
0
10
-4.395276
20
599.914375
11
-3.759563
21
600.342891
0
LINE
8
0
10
-3.759563
20
600.342891
11
-2.981050
21
600.500000
0
LINE
8
0
10
-2.981050
20
600.500000
11
-2.202578
21
600.342891
0
LINE
8
0
10
-2.202578
20
600.342891
11
-1.566955
21
599.914375
0
LINE
8
0
10
-1.566955
20
599.914375
11
-1.138450
21
599.278672
0
LINE
8
0
10
-1.138450
20
599.278672
11
-0.981333
21
598.500000
0
LINE
8
0
10
-0.981333
20
598.500000
11
-1.138487
21
597.721328
0
LINE
8
0
10
-1.138487
20
597.721328
11
-1.567053
21
597.085625
0
LINE
8
0
10
-1.567053
20
597.085625
11
-2.202688
21
596.657109
0
LINE
8
0
10
-2.202688
20
596.657109
11
-2.981050
21
596.500000
0
LINE
8
0
10
-2.981050
20
596.500000
11
-3.759563
21
596.657109
0
LINE
8
0
10
-3.759563
20
596.657109
11
-4.395276
21
597.085625
0
LINE
8
0
10
-4.395276
20
597.085625
11
-4.823872
21
597.721328
0
LINE
8
0
10
-4.823872
20
597.721328
11
-4.981030
21
598.500000
0
LINE
8
0
10
-4.981030
20
715.000000
11
-4.823872
21
715.778672
0
LINE
8
0
10
-4.823872
20
715.778672
11
-4.395276
21
716.414375
0
LINE
8
0
10
-4.395276
20
716.414375
11
-3.759563
21
716.842891
0
LINE
8
0
10
-3.759563
20
716.842891
11
-2.981050
21
717.000000
0
LINE
8
0
10
-2.981050
20
717.000000
11
-2.202578
21
716.842891
0
LINE
8
0
10
-2.202578
20
716.842891
11
-1.566955
21
716.414375
0
LINE
8
0
10
-1.566955
20
716.414375
11
-1.138450
21
715.778672
0
LINE
8
0
10
-1.138450
20
715.778672
11
-0.981333
21
715.000000
0
LINE
8
0
10
-0.981333
20
715.000000
11
-1.138487
21
714.221328
0
LINE
8
0
10
-1.138487
20
714.221328
11
-1.567053
21
713.585625
0
LINE
8
0
10
-1.567053
20
713.585625
11
-2.202688
21
713.157109
0
LINE
8
0
10
-2.202688
20
713.157109
11
-2.981050
21
713.000000
0
LINE
8
0
10
-2.981050
20
713.000000
11
-3.759563
21
713.157250
0
LINE
8
0
10
-3.759563
20
713.157250
11
-4.395276
21
713.586000
0
LINE
8
0
10
-4.395276
20
713.586000
11
-4.823872
21
714.221750
0
LINE
8
0
10
-4.823872
20
714.221750
11
-4.981030
21
715.000000
0
LINE
8
0
10
-4.981030
20
795.000000
11
-4.823872
21
795.778250
0
LINE
8
0
10
-4.823872
20
795.778250
11
-4.395276
21
796.414000
0
LINE
8
0
10
-4.395276
20
796.414000
11
-3.759563
21
796.842750
0
LINE
8
0
10
-3.759563
20
796.842750
11
-2.981050
21
797.000000
0
LINE
8
0
10
-2.981050
20
797.000000
11
-2.202578
21
796.842891
0
LINE
8
0
10
-2.202578
20
796.842891
11
-1.566955
21
796.414375
0
LINE
8
0
10
-1.566955
20
796.414375
11
-1.138450
21
795.778672
0
LINE
8
0
10
-1.138450
20
795.778672
11
-0.981333
21
795.000000
0
LINE
8
0
10
-0.981333
20
795.000000
11
-1.138487
21
794.221328
0
LINE
8
0
10
-1.138487
20
794.221328
11
-1.567053
21
793.585625
0
LINE
8
0
10
-1.567053
20
793.585625
11
-2.202688
21
793.157109
0
LINE
8
0
10
-2.202688
20
793.157109
11
-2.981050
21
793.000000
0
LINE
8
0
10
-2.981050
20
793.000000
11
-3.759563
21
793.157109
0
LINE
8
0
10
-3.759563
20
793.157109
11
-4.395276
21
793.585625
0
LINE
8
0
10
-4.395276
20
793.585625
11
-4.823872
21
794.221328
0
LINE
8
0
10
-4.823872
20
794.221328
11
-4.981030
21
795.000000
0
LINE
8
0
10
5.055120
20
518.500000
11
5.212274
21
519.278250
0
LINE
8
0
10
5.212274
20
519.278250
11
5.640841
21
519.914000
0
LINE
8
0
10
5.640841
20
519.914000
11
6.276478
21
520.342750
0
LINE
8
0
10
6.276478
20
520.342750
11
7.054840
21
520.500000
0
LINE
8
0
10
7.054840
20
520.500000
11
7.833462
21
520.342750
0
LINE
8
0
10
7.833462
20
520.342750
11
8.469164
21
519.914000
0
LINE
8
0
10
8.469164
20
519.914000
11
8.897698
21
519.278250
0
LINE
8
0
10
8.897698
20
519.278250
11
9.054820
21
518.500000
0
LINE
8
0
10
9.054820
20
518.500000
11
8.897662
21
517.721328
0
LINE
8
0
10
8.897662
20
517.721328
11
8.469066
21
517.085625
0
LINE
8
0
10
8.469066
20
517.085625
11
7.833353
21
516.657109
0
LINE
8
0
10
7.833353
20
516.657109
11
7.054840
21
516.500000
0
LINE
8
0
10
7.054840
20
516.500000
11
6.276478
21
516.657109
0
LINE
8
0
10
6.276478
20
516.657109
11
5.640841
21
517.085625
0
LINE
8
0
10
5.640841
20
517.085625
11
5.212274
21
517.721328
0
LINE
8
0
10
5.212274
20
517.721328
11
5.055120
21
518.500000
0
LINE
8
0
10
5.055120
20
795.000000
11
5.212274
21
795.778250
0
LINE
8
0
10
5.212274
20
795.778250
11
5.640841
21
796.414000
0
LINE
8
0
10
5.640841
20
796.414000
11
6.276478
21
796.842750
0
LINE
8
0
10
6.276478
20
796.842750
11
7.054840
21
797.000000
0
LINE
8
0
10
7.054840
20
797.000000
11
7.833462
21
796.842891
0
LINE
8
0
10
7.833462
20
796.842891
11
8.469164
21
796.414375
0
LINE
8
0
10
8.469164
20
796.414375
11
8.897698
21
795.778672
0
LINE
8
0
10
8.897698
20
795.778672
11
9.054820
21
795.000000
0
LINE
8
0
10
9.054820
20
795.000000
11
8.897662
21
794.221328
0
LINE
8
0
10
8.897662
20
794.221328
11
8.469066
21
793.585625
0
LINE
8
0
10
8.469066
20
793.585625
11
7.833353
21
793.157109
0
LINE
8
0
10
7.833353
20
793.157109
11
7.054840
21
793.000000
0
LINE
8
0
10
7.054840
20
793.000000
11
6.276478
21
793.157109
0
LINE
8
0
10
6.276478
20
793.157109
11
5.640841
21
793.585625
0
LINE
8
0
10
5.640841
20
793.585625
11
5.212274
21
794.221328
0
LINE
8
0
10
5.212274
20
794.221328
11
5.055120
21
795.000000
0
LINE
8
0
10
22.371800
20
692.594000
11
22.661675
21
693.540000
0
LINE
8
0
10
22.661675
20
693.540000
11
23.369300
21
694.231000
0
LINE
8
0
10
23.369300
20
694.231000
11
24.122144
21
694.484500
0
LINE
8
0
10
24.122144
20
694.484500
11
24.887025
21
694.431250
0
LINE
8
0
10
24.887025
20
694.431250
11
25.576044
21
694.094875
0
LINE
8
0
10
25.576044
20
694.094875
11
26.101300
21
693.499000
0
LINE
8
0
10
26.101300
20
693.499000
11
26.354550
21
692.746578
0
LINE
8
0
10
26.354550
20
692.746578
11
26.301275
21
691.981875
0
LINE
8
0
10
26.301275
20
691.981875
11
25.965062
21
691.292734
0
LINE
8
0
10
25.965062
20
691.292734
11
25.369500
21
690.767000
0
LINE
8
0
10
25.369500
20
690.767000
11
24.616739
21
690.514063
0
LINE
8
0
10
24.616739
20
690.514063
11
23.851837
21
690.567500
0
LINE
8
0
10
23.851837
20
690.567500
11
23.162742
21
690.903687
0
LINE
8
0
10
23.162742
20
690.903687
11
22.637400
21
691.499000
0
LINE
8
0
10
22.637400
20
691.499000
11
22.425925
21
692.027375
0
LINE
8
0
10
22.425925
20
692.027375
11
22.371800
21
692.594000
0
LINE
8
0
10
22.371800
20
747.404000
11
22.425850
21
747.970625
0
LINE
8
0
10
22.425850
20
747.970625
11
22.637400
21
748.499000
0
LINE
8
0
10
22.637400
20
748.499000
11
23.162714
21
749.094734
0
LINE
8
0
10
23.162714
20
749.094734
11
23.851762
21
749.430875
0
LINE
8
0
10
23.851762
20
749.430875
11
24.616655
21
749.484078
0
LINE
8
0
10
24.616655
20
749.484078
11
25.369500
21
749.231000
0
LINE
8
0
10
25.369500
20
749.231000
11
25.965227
21
748.705828
0
LINE
8
0
10
25.965227
20
748.705828
11
26.301612
21
748.016875
0
LINE
8
0
10
26.301612
20
748.016875
11
26.355042
21
747.251984
0
LINE
8
0
10
26.355042
20
747.251984
11
26.101900
21
746.499000
0
LINE
8
0
10
26.101900
20
746.499000
11
25.576586
21
745.903125
0
LINE
8
0
10
25.576586
20
745.903125
11
24.887538
21
745.566750
0
LINE
8
0
10
24.887538
20
745.566750
11
24.122645
21
745.513500
0
LINE
8
0
10
24.122645
20
745.513500
11
23.369800
21
745.767000
0
LINE
8
0
10
23.369800
20
745.767000
11
22.661850
21
746.458000
0
LINE
8
0
10
22.661850
20
746.458000
11
22.371800
21
747.404000
0
LINE
8
0
10
25.500700
20
719.999000
11
25.728273
21
724.595078
0
LINE
8
0
10
25.728273
20
724.595078
11
26.402500
21
729.113250
0
LINE
8
0
10
26.402500
20
729.113250
11
27.510752
21
733.523047
0
LINE
8
0
10
27.510752
20
733.523047
11
29.040400
21
737.794000
0
LINE
8
0
10
29.040400
20
737.794000
11
30.978817
21
741.895641
0
LINE
8
0
10
30.978817
20
741.895641
11
33.313375
21
745.797500
0
LINE
8
0
10
33.313375
20
745.797500
11
36.031445
21
749.469109
0
LINE
8
0
10
36.031445
20
749.469109
11
39.120400
21
752.880000
0
LINE
8
0
10
39.120400
20
752.880000
11
42.531113
21
755.968785
0
LINE
8
0
10
42.531113
20
755.968785
11
46.202625
21
758.686719
0
LINE
8
0
10
46.202625
20
758.686719
11
50.104443
21
761.021168
0
LINE
8
0
10
50.104443
20
761.021168
11
54.206075
21
762.959500
0
LINE
8
0
10
54.206075
20
762.959500
11
58.477029
21
764.489082
0
LINE
8
0
10
58.477029
20
764.489082
11
62.886812
21
765.597281
0
LINE
8
0
10
62.886812
20
765.597281
11
67.404934
21
766.271465
0
LINE
8
0
10
67.404934
20
766.271465
11
72.000900
21
766.499000
0
LINE
8
0
10
72.000900
20
766.499000
11
76.755205
21
766.258923
0
LINE
8
0
10
76.755205
20
766.258923
11
81.372164
21
765.554275
0
LINE
8
0
10
81.372164
20
765.554275
11
85.828405
21
764.408431
0
LINE
8
0
10
85.828405
20
764.408431
11
90.100556
21
762.844766
0
LINE
8
0
10
90.100556
20
762.844766
11
94.165246
21
760.886653
0
LINE
8
0
10
94.165246
20
760.886653
11
97.999102
21
758.557467
0
LINE
8
0
10
97.999102
20
758.557467
11
101.578752
21
755.880583
0
LINE
8
0
10
101.578752
20
755.880583
11
104.880825
21
752.879375
0
LINE
8
0
10
104.880825
20
752.879375
11
107.881949
21
749.577218
0
LINE
8
0
10
107.881949
20
749.577218
11
110.558752
21
745.997486
0
LINE
8
0
10
110.558752
20
745.997486
11
112.887861
21
742.163554
0
LINE
8
0
10
112.887861
20
742.163554
11
114.845906
21
738.098797
0
LINE
8
0
10
114.845906
20
738.098797
11
116.409514
21
733.826588
0
LINE
8
0
10
116.409514
20
733.826588
11
117.555314
21
729.370303
0
LINE
8
0
10
117.555314
20
729.370303
11
118.259933
21
724.753315
0
LINE
8
0
10
118.259933
20
724.753315
11
118.500000
21
719.999000
0
LINE
8
0
10
118.500000
20
719.999000
11
118.259933
21
715.244696
0
LINE
8
0
10
118.259933
20
715.244696
11
117.555314
21
710.627738
0
LINE
8
0
10
117.555314
20
710.627738
11
116.409514
21
706.171498
0
LINE
8
0
10
116.409514
20
706.171498
11
114.845906
21
701.899344
0
LINE
8
0
10
114.845906
20
701.899344
11
112.887861
21
697.834647
0
LINE
8
0
10
112.887861
20
697.834647
11
110.558752
21
694.000777
0
LINE
8
0
10
110.558752
20
694.000777
11
107.881949
21
690.421105
0
LINE
8
0
10
107.881949
20
690.421105
11
104.880825
21
687.119000
0
LINE
8
0
10
104.880825
20
687.119000
11
101.578752
21
684.117833
0
LINE
8
0
10
101.578752
20
684.117833
11
97.999102
21
681.440973
0
LINE
8
0
10
97.999102
20
681.440973
11
94.165246
21
679.111791
0
LINE
8
0
10
94.165246
20
679.111791
11
90.100556
21
677.153656
0
LINE
8
0
10
90.100556
20
677.153656
11
85.828405
21
675.589940
0
LINE
8
0
10
85.828405
20
675.589940
11
81.372164
21
674.444012
0
LINE
8
0
10
81.372164
20
674.444012
11
76.755205
21
673.739242
0
LINE
8
0
10
76.755205
20
673.739242
11
72.000900
21
673.499000
0
LINE
8
0
10
72.000900
20
673.499000
11
67.404934
21
673.726537
0
LINE
8
0
10
67.404934
20
673.726537
11
62.886812
21
674.400734
0
LINE
8
0
10
62.886812
20
674.400734
11
58.477029
21
675.508971
0
LINE
8
0
10
58.477029
20
675.508971
11
54.206075
21
677.038625
0
LINE
8
0
10
54.206075
20
677.038625
11
50.104443
21
678.977076
0
LINE
8
0
10
50.104443
20
678.977076
11
46.202625
21
681.311703
0
LINE
8
0
10
46.202625
20
681.311703
11
42.531113
21
684.029885
0
LINE
8
0
10
42.531113
20
684.029885
11
39.120400
21
687.119000
0
LINE
8
0
10
39.120400
20
687.119000
11
36.031445
21
690.529602
0
LINE
8
0
10
36.031445
20
690.529602
11
33.313375
21
694.201063
0
LINE
8
0
10
33.313375
20
694.201063
11
30.978817
21
698.102867
0
LINE
8
0
10
30.978817
20
698.102867
11
29.040400
21
702.204500
0
LINE
8
0
10
29.040400
20
702.204500
11
27.510752
21
706.475445
0
LINE
8
0
10
27.510752
20
706.475445
11
26.402500
21
710.885188
0
LINE
8
0
10
26.402500
20
710.885188
11
25.728273
21
715.403211
0
LINE
8
0
10
25.728273
20
715.403211
11
25.500700
21
719.999000
0
LINE
8
0
10
70.000400
20
664.999000
11
70.157644
21
665.777672
0
LINE
8
0
10
70.157644
20
665.777672
11
70.586425
21
666.413375
0
LINE
8
0
10
70.586425
20
666.413375
11
71.222319
21
666.841891
0
LINE
8
0
10
71.222319
20
666.841891
11
72.000900
21
666.999000
0
LINE
8
0
10
72.000900
20
666.999000
11
72.779356
21
666.841891
0
LINE
8
0
10
72.779356
20
666.841891
11
73.414975
21
666.413375
0
LINE
8
0
10
73.414975
20
666.413375
11
73.843481
21
665.777672
0
LINE
8
0
10
73.843481
20
665.777672
11
74.000600
21
664.999000
0
LINE
8
0
10
74.000600
20
664.999000
11
73.843453
21
664.220750
0
LINE
8
0
10
73.843453
20
664.220750
11
73.414900
21
663.585000
0
LINE
8
0
10
73.414900
20
663.585000
11
72.779272
21
663.156250
0
LINE
8
0
10
72.779272
20
663.156250
11
72.000900
21
662.999000
0
LINE
8
0
10
72.000900
20
662.999000
11
71.222347
21
663.156250
0
LINE
8
0
10
71.222347
20
663.156250
11
70.586500
21
663.585000
0
LINE
8
0
10
70.586500
20
663.585000
11
70.157728
21
664.220750
0
LINE
8
0
10
70.157728
20
664.220750
11
70.000400
21
664.999000
0
LINE
8
0
10
70.000400
20
774.999000
11
70.157644
21
775.777672
0
LINE
8
0
10
70.157644
20
775.777672
11
70.586425
21
776.413375
0
LINE
8
0
10
70.586425
20
776.413375
11
71.222319
21
776.841891
0
LINE
8
0
10
71.222319
20
776.841891
11
72.000900
21
776.999000
0
LINE
8
0
10
72.000900
20
776.999000
11
72.779272
21
776.841750
0
LINE
8
0
10
72.779272
20
776.841750
11
73.414900
21
776.413000
0
LINE
8
0
10
73.414900
20
776.413000
11
73.843453
21
775.777250
0
LINE
8
0
10
73.843453
20
775.777250
11
74.000600
21
774.999000
0
LINE
8
0
10
74.000600
20
774.999000
11
73.843523
21
774.220172
0
LINE
8
0
10
73.843523
20
774.220172
11
73.415087
21
773.584125
0
LINE
8
0
10
73.415087
20
773.584125
11
72.779483
21
773.155266
0
LINE
8
0
10
72.779483
20
773.155266
11
72.000900
21
772.998000
0
LINE
8
0
10
72.000900
20
772.998000
11
71.222150
21
773.155266
0
LINE
8
0
10
71.222150
20
773.155266
11
70.586200
21
773.584125
0
LINE
8
0
10
70.586200
20
773.584125
11
70.157475
21
774.220172
0
LINE
8
0
10
70.157475
20
774.220172
11
70.000400
21
774.999000
0
LINE
8
0
10
117.634000
20
692.404000
11
117.687750
21
692.970625
0
LINE
8
0
10
117.687750
20
692.970625
11
117.899000
21
693.499000
0
LINE
8
0
10
117.899000
20
693.499000
11
118.424750
21
694.094734
0
LINE
8
0
10
118.424750
20
694.094734
11
119.114000
21
694.430875
0
LINE
8
0
10
119.114000
20
694.430875
11
119.879000
21
694.484078
0
LINE
8
0
10
119.879000
20
694.484078
11
120.632000
21
694.231000
0
LINE
8
0
10
120.632000
20
694.231000
11
121.227156
21
693.705828
0
LINE
8
0
10
121.227156
20
693.705828
11
121.563000
21
693.016875
0
LINE
8
0
10
121.563000
20
693.016875
11
121.616094
21
692.251984
0
LINE
8
0
10
121.616094
20
692.251984
11
121.363000
21
691.499000
0
LINE
8
0
10
121.363000
20
691.499000
11
120.837828
21
690.903687
0
LINE
8
0
10
120.837828
20
690.903687
11
120.148875
21
690.567500
0
LINE
8
0
10
120.148875
20
690.567500
11
119.383984
21
690.514063
0
LINE
8
0
10
119.383984
20
690.514063
11
118.631000
21
690.767000
0
LINE
8
0
10
118.631000
20
690.767000
11
117.923625
21
691.458000
0
LINE
8
0
10
117.923625
20
691.458000
11
117.634000
21
692.404000
0
LINE
8
0
10
117.634000
20
747.594000
11
117.923625
21
748.540000
0
LINE
8
0
10
117.923625
20
748.540000
11
118.631000
21
749.231000
0
LINE
8
0
10
118.631000
20
749.231000
11
119.383984
21
749.484078
0
LINE
8
0
10
119.383984
20
749.484078
11
120.148875
21
749.430875
0
LINE
8
0
10
120.148875
20
749.430875
11
120.837828
21
749.094734
0
LINE
8
0
10
120.837828
20
749.094734
11
121.363000
21
748.499000
0
LINE
8
0
10
121.363000
20
748.499000
11
121.616516
21
747.746016
0
LINE
8
0
10
121.616516
20
747.746016
11
121.563375
21
746.981125
0
LINE
8
0
10
121.563375
20
746.981125
11
121.227297
21
746.292172
0
LINE
8
0
10
121.227297
20
746.292172
11
120.632000
21
745.767000
0
LINE
8
0
10
120.632000
20
745.767000
11
119.879000
21
745.513500
0
LINE
8
0
10
119.879000
20
745.513500
11
119.114000
21
745.566750
0
LINE
8
0
10
119.114000
20
745.566750
11
118.424750
21
745.903125
0
LINE
8
0
10
118.424750
20
745.903125
11
117.899000
21
746.499000
0
LINE
8
0
10
117.899000
20
746.499000
11
117.687750
21
747.027375
0
LINE
8
0
10
117.687750
20
747.027375
11
117.634000
21
747.594000
0
LINE
8
0
10
134.982000
20
518.500000
11
135.139109
21
519.278828
0
LINE
8
0
10
135.139109
20
519.278828
11
135.567625
21
519.914875
0
LINE
8
0
10
135.567625
20
519.914875
11
136.203328
21
520.343734
0
LINE
8
0
10
136.203328
20
520.343734
11
136.982000
21
520.501000
0
LINE
8
0
10
136.982000
20
520.501000
11
137.760250
21
520.343594
0
LINE
8
0
10
137.760250
20
520.343594
11
138.396000
21
519.914500
0
LINE
8
0
10
138.396000
20
519.914500
11
138.824750
21
519.278406
0
LINE
8
0
10
138.824750
20
519.278406
11
138.982000
21
518.500000
0
LINE
8
0
10
138.982000
20
518.500000
11
138.824750
21
517.721906
0
LINE
8
0
10
138.824750
20
517.721906
11
138.396000
21
517.086500
0
LINE
8
0
10
138.396000
20
517.086500
11
137.760250
21
516.658094
0
LINE
8
0
10
137.760250
20
516.658094
11
136.982000
21
516.501000
0
LINE
8
0
10
136.982000
20
516.501000
11
136.203328
21
516.657953
0
LINE
8
0
10
136.203328
20
516.657953
11
135.567625
21
517.086125
0
LINE
8
0
10
135.567625
20
517.086125
11
135.139109
21
517.721484
0
LINE
8
0
10
135.139109
20
517.721484
11
134.982000
21
518.500000
0
LINE
8
0
10
134.982000
20
795.000000
11
135.139109
21
795.778828
0
LINE
8
0
10
135.139109
20
795.778828
11
135.567625
21
796.414875
0
LINE
8
0
10
135.567625
20
796.414875
11
136.203328
21
796.843734
0
LINE
8
0
10
136.203328
20
796.843734
11
136.982000
21
797.001000
0
LINE
8
0
10
136.982000
20
797.001000
11
137.760250
21
796.843734
0
LINE
8
0
10
137.760250
20
796.843734
11
138.396000
21
796.414875
0
LINE
8
0
10
138.396000
20
796.414875
11
138.824750
21
795.778828
0
LINE
8
0
10
138.824750
20
795.778828
11
138.982000
21
795.000000
0
LINE
8
0
10
138.982000
20
795.000000
11
138.824750
21
794.221750
0
LINE
8
0
10
138.824750
20
794.221750
11
138.396000
21
793.586000
0
LINE
8
0
10
138.396000
20
793.586000
11
137.760250
21
793.157250
0
LINE
8
0
10
137.760250
20
793.157250
11
136.982000
21
793.000000
0
LINE
8
0
10
136.982000
20
793.000000
11
136.203328
21
793.157250
0
LINE
8
0
10
136.203328
20
793.157250
11
135.567625
21
793.586000
0
LINE
8
0
10
135.567625
20
793.586000
11
135.139109
21
794.221750
0
LINE
8
0
10
135.139109
20
794.221750
11
134.982000
21
795.000000
0
LINE
8
0
10
145.018000
20
518.500000
11
145.175094
21
519.278828
0
LINE
8
0
10
145.175094
20
519.278828
11
145.603500
21
519.914875
0
LINE
8
0
10
145.603500
20
519.914875
11
146.238906
21
520.343734
0
LINE
8
0
10
146.238906
20
520.343734
11
147.017000
21
520.501000
0
LINE
8
0
10
147.017000
20
520.501000
11
147.795828
21
520.343594
0
LINE
8
0
10
147.795828
20
520.343594
11
148.431875
21
519.914500
0
LINE
8
0
10
148.431875
20
519.914500
11
148.860734
21
519.278406
0
LINE
8
0
10
148.860734
20
519.278406
11
149.018000
21
518.500000
0
LINE
8
0
10
149.018000
20
518.500000
11
148.860734
21
517.721906
0
LINE
8
0
10
148.860734
20
517.721906
11
148.431875
21
517.086500
0
LINE
8
0
10
148.431875
20
517.086500
11
147.795828
21
516.658094
0
LINE
8
0
10
147.795828
20
516.658094
11
147.017000
21
516.501000
0
LINE
8
0
10
147.017000
20
516.501000
11
146.238906
21
516.657953
0
LINE
8
0
10
146.238906
20
516.657953
11
145.603500
21
517.086125
0
LINE
8
0
10
145.603500
20
517.086125
11
145.175094
21
517.721484
0
LINE
8
0
10
145.175094
20
517.721484
11
145.018000
21
518.500000
0
LINE
8
0
10
145.018000
20
598.501000
11
145.175094
21
599.279250
0
LINE
8
0
10
145.175094
20
599.279250
11
145.603500
21
599.915000
0
LINE
8
0
10
145.603500
20
599.915000
11
146.238906
21
600.343750
0
LINE
8
0
10
146.238906
20
600.343750
11
147.017000
21
600.501000
0
LINE
8
0
10
147.017000
20
600.501000
11
147.795828
21
600.343750
0
LINE
8
0
10
147.795828
20
600.343750
11
148.431875
21
599.915000
0
LINE
8
0
10
148.431875
20
599.915000
11
148.860734
21
599.279250
0
LINE
8
0
10
148.860734
20
599.279250
11
149.018000
21
598.501000
0
LINE
8
0
10
149.018000
20
598.501000
11
148.860734
21
597.722312
0
LINE
8
0
10
148.860734
20
597.722312
11
148.431875
21
597.086500
0
LINE
8
0
10
148.431875
20
597.086500
11
147.795828
21
596.657688
0
LINE
8
0
10
147.795828
20
596.657688
11
147.017000
21
596.500000
0
LINE
8
0
10
147.017000
20
596.500000
11
146.238906
21
596.657266
0
LINE
8
0
10
146.238906
20
596.657266
11
145.603500
21
597.086125
0
LINE
8
0
10
145.603500
20
597.086125
11
145.175094
21
597.722172
0
LINE
8
0
10
145.175094
20
597.722172
11
145.018000
21
598.501000
0
LINE
8
0
10
145.018000
20
715.000000
11
145.175094
21
715.778828
0
LINE
8
0
10
145.175094
20
715.778828
11
145.603500
21
716.414875
0
LINE
8
0
10
145.603500
20
716.414875
11
146.238906
21
716.843734
0
LINE
8
0
10
146.238906
20
716.843734
11
147.017000
21
717.001000
0
LINE
8
0
10
147.017000
20
717.001000
11
147.795828
21
716.843734
0
LINE
8
0
10
147.795828
20
716.843734
11
148.431875
21
716.414875
0
LINE
8
0
10
148.431875
20
716.414875
11
148.860734
21
715.778828
0
LINE
8
0
10
148.860734
20
715.778828
11
149.018000
21
715.000000
0
LINE
8
0
10
149.018000
20
715.000000
11
148.860734
21
714.222047
0
LINE
8
0
10
148.860734
20
714.222047
11
148.431875
21
713.586875
0
LINE
8
0
10
148.431875
20
713.586875
11
147.795828
21
713.158516
0
LINE
8
0
10
147.795828
20
713.158516
11
147.017000
21
713.001000
0
LINE
8
0
10
147.017000
20
713.001000
11
146.238906
21
713.158094
0
LINE
8
0
10
146.238906
20
713.158094
11
145.603500
21
713.586500
0
LINE
8
0
10
145.603500
20
713.586500
11
145.175094
21
714.221906
0
LINE
8
0
10
145.175094
20
714.221906
11
145.018000
21
715.000000
0
LINE
8
0
10
145.018000
20
795.000000
11
145.175094
21
795.778828
0
LINE
8
0
10
145.175094
20
795.778828
11
145.603500
21
796.414875
0
LINE
8
0
10
145.603500
20
796.414875
11
146.238906
21
796.843734
0
LINE
8
0
10
146.238906
20
796.843734
11
147.017000
21
797.001000
0
LINE
8
0
10
147.017000
20
797.001000
11
147.795828
21
796.843734
0
LINE
8
0
10
147.795828
20
796.843734
11
148.431875
21
796.414875
0
LINE
8
0
10
148.431875
20
796.414875
11
148.860734
21
795.778828
0
LINE
8
0
10
148.860734
20
795.778828
11
149.018000
21
795.000000
0
LINE
8
0
10
149.018000
20
795.000000
11
148.860734
21
794.221750
0
LINE
8
0
10
148.860734
20
794.221750
11
148.431875
21
793.586000
0
LINE
8
0
10
148.431875
20
793.586000
11
147.795828
21
793.157250
0
LINE
8
0
10
147.795828
20
793.157250
11
147.017000
21
793.000000
0
LINE
8
0
10
147.017000
20
793.000000
11
146.238906
21
793.157250
0
LINE
8
0
10
146.238906
20
793.157250
11
145.603500
21
793.586000
0
LINE
8
0
10
145.603500
20
793.586000
11
145.175094
21
794.221750
0
LINE
8
0
10
145.175094
20
794.221750
11
145.018000
21
795.000000
0
LINE
8
0
10
154.000000
20
518.500000
11
154.101271
21
517.489863
0
LINE
8
0
10
154.101271
20
517.489863
11
154.391859
21
516.550156
0
LINE
8
0
10
154.391859
20
516.550156
11
154.851924
21
515.700684
0
LINE
8
0
10
154.851924
20
515.700684
11
155.461625
21
514.961250
0
LINE
8
0
10
155.461625
20
514.961250
11
156.201123
21
514.351660
0
LINE
8
0
10
156.201123
20
514.351660
11
157.050578
21
513.891719
0
LINE
8
0
10
157.050578
20
513.891719
11
157.990150
21
513.601230
0
LINE
8
0
10
157.990150
20
513.601230
11
159.000000
21
513.500000
0
LINE
8
0
10
309.000000
20
513.500000
11
310.010137
21
513.601230
0
LINE
8
0
10
310.010137
20
513.601230
11
310.949844
21
513.891719
0
LINE
8
0
10
310.949844
20
513.891719
11
311.799316
21
514.351660
0
LINE
8
0
10
311.799316
20
514.351660
11
312.538750
21
514.961250
0
LINE
8
0
10
312.538750
20
514.961250
11
313.148340
21
515.700684
0
LINE
8
0
10
313.148340
20
515.700684
11
313.608281
21
516.550156
0
LINE
8
0
10
313.608281
20
516.550156
11
313.898770
21
517.489863
0
LINE
8
0
10
313.898770
20
517.489863
11
314.000000
21
518.500000
0
LINE
8
0
10
159.000000
20
513.500000
11
309.000000
21
513.500000
0
LINE
8
0
10
314.000000
20
795.000000
11
313.898770
21
796.009807
0
LINE
8
0
10
313.898770
20
796.009807
11
313.608281
21
796.949266
0
LINE
8
0
10
313.608281
20
796.949266
11
313.148340
21
797.798561
0
LINE
8
0
10
313.148340
20
797.798561
11
312.538750
21
798.537875
0
LINE
8
0
10
312.538750
20
798.537875
11
311.799316
21
799.147393
0
LINE
8
0
10
311.799316
20
799.147393
11
310.949844
21
799.607297
0
LINE
8
0
10
310.949844
20
799.607297
11
310.010137
21
799.897771
0
LINE
8
0
10
310.010137
20
799.897771
11
309.000000
21
799.999000
0
LINE
8
0
10
314.000000
20
518.500000
11
314.000000
21
795.000000
0
LINE
8
0
10
159.000000
20
799.999000
11
157.990150
21
799.897771
0
LINE
8
0
10
157.990150
20
799.897771
11
157.050578
21
799.607297
0
LINE
8
0
10
157.050578
20
799.607297
11
156.201123
21
799.147393
0
LINE
8
0
10
156.201123
20
799.147393
11
155.461625
21
798.537875
0
LINE
8
0
10
155.461625
20
798.537875
11
154.851924
21
797.798561
0
LINE
8
0
10
154.851924
20
797.798561
11
154.391859
21
796.949266
0
LINE
8
0
10
154.391859
20
796.949266
11
154.101271
21
796.009807
0
LINE
8
0
10
154.101271
20
796.009807
11
154.000000
21
795.000000
0
LINE
8
0
10
309.000000
20
799.999000
11
159.000000
21
799.999000
0
LINE
8
0
10
157.018000
20
518.500000
11
157.175250
21
519.278250
0
LINE
8
0
10
157.175250
20
519.278250
11
157.604000
21
519.914000
0
LINE
8
0
10
157.604000
20
519.914000
11
158.239750
21
520.342750
0
LINE
8
0
10
158.239750
20
520.342750
11
159.018000
21
520.500000
0
LINE
8
0
10
159.018000
20
520.500000
11
159.796672
21
520.342891
0
LINE
8
0
10
159.796672
20
520.342891
11
160.432375
21
519.914375
0
LINE
8
0
10
160.432375
20
519.914375
11
160.860891
21
519.278672
0
LINE
8
0
10
160.860891
20
519.278672
11
161.018000
21
518.500000
0
LINE
8
0
10
161.018000
20
518.500000
11
160.860891
21
517.721328
0
LINE
8
0
10
160.860891
20
517.721328
11
160.432375
21
517.085625
0
LINE
8
0
10
160.432375
20
517.085625
11
159.796672
21
516.657109
0
LINE
8
0
10
159.796672
20
516.657109
11
159.018000
21
516.500000
0
LINE
8
0
10
159.018000
20
516.500000
11
158.239750
21
516.657109
0
LINE
8
0
10
158.239750
20
516.657109
11
157.604000
21
517.085625
0
LINE
8
0
10
157.604000
20
517.085625
11
157.175250
21
517.721328
0
LINE
8
0
10
157.175250
20
517.721328
11
157.018000
21
518.500000
0
LINE
8
0
10
154.000000
20
795.000000
11
154.000000
21
518.500000
0
LINE
8
0
10
157.018000
20
598.500000
11
157.175250
21
599.278828
0
LINE
8
0
10
157.175250
20
599.278828
11
157.604000
21
599.914875
0
LINE
8
0
10
157.604000
20
599.914875
11
158.239750
21
600.343734
0
LINE
8
0
10
158.239750
20
600.343734
11
159.018000
21
600.501000
0
LINE
8
0
10
159.018000
20
600.501000
11
159.796672
21
600.343734
0
LINE
8
0
10
159.796672
20
600.343734
11
160.432375
21
599.914875
0
LINE
8
0
10
160.432375
20
599.914875
11
160.860891
21
599.278828
0
LINE
8
0
10
160.860891
20
599.278828
11
161.018000
21
598.500000
0
LINE
8
0
10
161.018000
20
598.500000
11
160.860891
21
597.721328
0
LINE
8
0
10
160.860891
20
597.721328
11
160.432375
21
597.085625
0
LINE
8
0
10
160.432375
20
597.085625
11
159.796672
21
596.657109
0
LINE
8
0
10
159.796672
20
596.657109
11
159.018000
21
596.500000
0
LINE
8
0
10
159.018000
20
596.500000
11
158.239750
21
596.657250
0
LINE
8
0
10
158.239750
20
596.657250
11
157.604000
21
597.086000
0
LINE
8
0
10
157.604000
20
597.086000
11
157.175250
21
597.721750
0
LINE
8
0
10
157.175250
20
597.721750
11
157.018000
21
598.500000
0
LINE
8
0
10
157.018000
20
715.001000
11
157.175250
21
715.779094
0
LINE
8
0
10
157.175250
20
715.779094
11
157.604000
21
716.414500
0
LINE
8
0
10
157.604000
20
716.414500
11
158.239750
21
716.842906
0
LINE
8
0
10
158.239750
20
716.842906
11
159.018000
21
717.000000
0
LINE
8
0
10
159.018000
20
717.000000
11
159.796672
21
716.842906
0
LINE
8
0
10
159.796672
20
716.842906
11
160.432375
21
716.414500
0
LINE
8
0
10
160.432375
20
716.414500
11
160.860891
21
715.779094
0
LINE
8
0
10
160.860891
20
715.779094
11
161.018000
21
715.001000
0
LINE
8
0
10
161.018000
20
715.001000
11
160.860891
21
714.222187
0
LINE
8
0
10
160.860891
20
714.222187
11
160.432375
21
713.586250
0
LINE
8
0
10
160.432375
20
713.586250
11
159.796672
21
713.157687
0
LINE
8
0
10
159.796672
20
713.157687
11
159.018000
21
713.001000
0
LINE
8
0
10
159.018000
20
713.001000
11
158.239750
21
713.158109
0
LINE
8
0
10
158.239750
20
713.158109
11
157.604000
21
713.586625
0
LINE
8
0
10
157.604000
20
713.586625
11
157.175250
21
714.222328
0
LINE
8
0
10
157.175250
20
714.222328
11
157.018000
21
715.001000
0
LINE
8
0
10
157.018000
20
795.000000
11
157.175250
21
795.778672
0
LINE
8
0
10
157.175250
20
795.778672
11
157.604000
21
796.414375
0
LINE
8
0
10
157.604000
20
796.414375
11
158.239750
21
796.842891
0
LINE
8
0
10
158.239750
20
796.842891
11
159.018000
21
797.000000
0
LINE
8
0
10
159.018000
20
797.000000
11
159.796672
21
796.842891
0
LINE
8
0
10
159.796672
20
796.842891
11
160.432375
21
796.414375
0
LINE
8
0
10
160.432375
20
796.414375
11
160.860891
21
795.778672
0
LINE
8
0
10
160.860891
20
795.778672
11
161.018000
21
795.000000
0
LINE
8
0
10
161.018000
20
795.000000
11
160.860891
21
794.221328
0
LINE
8
0
10
160.860891
20
794.221328
11
160.432375
21
793.585625
0
LINE
8
0
10
160.432375
20
793.585625
11
159.796672
21
793.157109
0
LINE
8
0
10
159.796672
20
793.157109
11
159.018000
21
793.000000
0
LINE
8
0
10
159.018000
20
793.000000
11
158.239750
21
793.157250
0
LINE
8
0
10
158.239750
20
793.157250
11
157.604000
21
793.586000
0
LINE
8
0
10
157.604000
20
793.586000
11
157.175250
21
794.221750
0
LINE
8
0
10
157.175250
20
794.221750
11
157.018000
21
795.000000
0
LINE
8
0
10
167.054000
20
518.500000
11
167.211250
21
519.278250
0
LINE
8
0
10
167.211250
20
519.278250
11
167.640000
21
519.914000
0
LINE
8
0
10
167.640000
20
519.914000
11
168.275750
21
520.342750
0
LINE
8
0
10
168.275750
20
520.342750
11
169.054000
21
520.500000
0
LINE
8
0
10
169.054000
20
520.500000
11
169.832672
21
520.342891
0
LINE
8
0
10
169.832672
20
520.342891
11
170.468375
21
519.914375
0
LINE
8
0
10
170.468375
20
519.914375
11
170.896891
21
519.278672
0
LINE
8
0
10
170.896891
20
519.278672
11
171.054000
21
518.500000
0
LINE
8
0
10
171.054000
20
518.500000
11
170.896891
21
517.721328
0
LINE
8
0
10
170.896891
20
517.721328
11
170.468375
21
517.085625
0
LINE
8
0
10
170.468375
20
517.085625
11
169.832672
21
516.657109
0
LINE
8
0
10
169.832672
20
516.657109
11
169.054000
21
516.500000
0
LINE
8
0
10
169.054000
20
516.500000
11
168.275750
21
516.657109
0
LINE
8
0
10
168.275750
20
516.657109
11
167.640000
21
517.085625
0
LINE
8
0
10
167.640000
20
517.085625
11
167.211250
21
517.721328
0
LINE
8
0
10
167.211250
20
517.721328
11
167.054000
21
518.500000
0
LINE
8
0
10
167.054000
20
795.000000
11
167.211250
21
795.778672
0
LINE
8
0
10
167.211250
20
795.778672
11
167.640000
21
796.414375
0
LINE
8
0
10
167.640000
20
796.414375
11
168.275750
21
796.842891
0
LINE
8
0
10
168.275750
20
796.842891
11
169.054000
21
797.000000
0
LINE
8
0
10
169.054000
20
797.000000
11
169.832672
21
796.842891
0
LINE
8
0
10
169.832672
20
796.842891
11
170.468375
21
796.414375
0
LINE
8
0
10
170.468375
20
796.414375
11
170.896891
21
795.778672
0
LINE
8
0
10
170.896891
20
795.778672
11
171.054000
21
795.000000
0
LINE
8
0
10
171.054000
20
795.000000
11
170.896891
21
794.221328
0
LINE
8
0
10
170.896891
20
794.221328
11
170.468375
21
793.585625
0
LINE
8
0
10
170.468375
20
793.585625
11
169.832672
21
793.157109
0
LINE
8
0
10
169.832672
20
793.157109
11
169.054000
21
793.000000
0
LINE
8
0
10
169.054000
20
793.000000
11
168.275750
21
793.157250
0
LINE
8
0
10
168.275750
20
793.157250
11
167.640000
21
793.586000
0
LINE
8
0
10
167.640000
20
793.586000
11
167.211250
21
794.221750
0
LINE
8
0
10
167.211250
20
794.221750
11
167.054000
21
795.000000
0
LINE
8
0
10
184.371000
20
692.595000
11
184.660625
21
693.540250
0
LINE
8
0
10
184.660625
20
693.540250
11
185.368000
21
694.232000
0
LINE
8
0
10
185.368000
20
694.232000
11
186.121000
21
694.484938
0
LINE
8
0
10
186.121000
20
694.484938
11
186.886000
21
694.431500
0
LINE
8
0
10
186.886000
20
694.431500
11
187.575250
21
694.095313
0
LINE
8
0
10
187.575250
20
694.095313
11
188.101000
21
693.500000
0
LINE
8
0
10
188.101000
20
693.500000
11
188.353938
21
692.747000
0
LINE
8
0
10
188.353938
20
692.747000
11
188.300500
21
691.982000
0
LINE
8
0
10
188.300500
20
691.982000
11
187.964313
21
691.292750
0
LINE
8
0
10
187.964313
20
691.292750
11
187.369000
21
690.767000
0
LINE
8
0
10
187.369000
20
690.767000
11
186.616016
21
690.514078
0
LINE
8
0
10
186.616016
20
690.514078
11
185.851125
21
690.567625
0
LINE
8
0
10
185.851125
20
690.567625
11
185.162172
21
690.904109
0
LINE
8
0
10
185.162172
20
690.904109
11
184.637000
21
691.500000
0
LINE
8
0
10
184.637000
20
691.500000
11
184.425250
21
692.028375
0
LINE
8
0
10
184.425250
20
692.028375
11
184.371000
21
692.595000
0
LINE
8
0
10
184.371000
20
747.404000
11
184.424875
21
747.970625
0
LINE
8
0
10
184.424875
20
747.970625
11
184.637000
21
748.499000
0
LINE
8
0
10
184.637000
20
748.499000
11
185.162172
21
749.094875
0
LINE
8
0
10
185.162172
20
749.094875
11
185.851125
21
749.431250
0
LINE
8
0
10
185.851125
20
749.431250
11
186.616016
21
749.484500
0
LINE
8
0
10
186.616016
20
749.484500
11
187.369000
21
749.231000
0
LINE
8
0
10
187.369000
20
749.231000
11
187.964453
21
748.705828
0
LINE
8
0
10
187.964453
20
748.705828
11
188.300875
21
748.016875
0
LINE
8
0
10
188.300875
20
748.016875
11
188.354359
21
747.251984
0
LINE
8
0
10
188.354359
20
747.251984
11
188.101000
21
746.499000
0
LINE
8
0
10
188.101000
20
746.499000
11
187.575828
21
745.903266
0
LINE
8
0
10
187.575828
20
745.903266
11
186.886875
21
745.567125
0
LINE
8
0
10
186.886875
20
745.567125
11
186.121984
21
745.513922
0
LINE
8
0
10
186.121984
20
745.513922
11
185.369000
21
745.767000
0
LINE
8
0
10
185.369000
20
745.767000
11
184.661125
21
746.458000
0
LINE
8
0
10
184.661125
20
746.458000
11
184.371000
21
747.404000
0
LINE
8
0
10
187.500000
20
720.000000
11
187.727537
21
724.595789
0
LINE
8
0
10
187.727537
20
724.595789
11
188.401734
21
729.113812
0
LINE
8
0
10
188.401734
20
729.113812
11
189.509971
21
733.523555
0
LINE
8
0
10
189.509971
20
733.523555
11
191.039625
21
737.794500
0
LINE
8
0
10
191.039625
20
737.794500
11
192.978076
21
741.896133
0
LINE
8
0
10
192.978076
20
741.896133
11
195.312703
21
745.797937
0
LINE
8
0
10
195.312703
20
745.797937
11
198.030885
21
749.469398
0
LINE
8
0
10
198.030885
20
749.469398
11
201.120000
21
752.880000
0
LINE
8
0
10
201.120000
20
752.880000
11
204.530602
21
755.968826
0
LINE
8
0
10
204.530602
20
755.968826
11
208.202063
21
758.686859
0
LINE
8
0
10
208.202063
20
758.686859
11
212.103867
21
761.021432
0
LINE
8
0
10
212.103867
20
761.021432
11
216.205500
21
762.959875
0
LINE
8
0
10
216.205500
20
762.959875
11
220.476445
21
764.489521
0
LINE
8
0
10
220.476445
20
764.489521
11
224.886188
21
765.597703
0
LINE
8
0
10
224.886188
20
765.597703
11
229.404211
21
766.271752
0
LINE
8
0
10
229.404211
20
766.271752
11
234.000000
21
766.499000
0
LINE
8
0
10
234.000000
20
766.499000
11
238.754315
21
766.258934
0
LINE
8
0
10
238.754315
20
766.258934
11
243.371303
21
765.554318
0
LINE
8
0
10
243.371303
20
765.554318
11
247.827588
21
764.408524
0
LINE
8
0
10
247.827588
20
764.408524
11
252.099797
21
762.844922
0
LINE
8
0
10
252.099797
20
762.844922
11
256.164554
21
760.886885
0
LINE
8
0
10
256.164554
20
760.886885
11
259.998486
21
758.557783
0
LINE
8
0
10
259.998486
20
758.557783
11
263.578218
21
755.880990
0
LINE
8
0
10
263.578218
20
755.880990
11
266.880375
21
752.879875
0
LINE
8
0
10
266.880375
20
752.879875
11
269.881583
21
749.577811
0
LINE
8
0
10
269.881583
20
749.577811
11
272.558467
21
745.998170
0
LINE
8
0
10
272.558467
20
745.998170
11
274.887653
21
742.164323
0
LINE
8
0
10
274.887653
20
742.164323
11
276.845766
21
738.099641
0
LINE
8
0
10
276.845766
20
738.099641
11
278.409431
21
733.827496
0
LINE
8
0
10
278.409431
20
733.827496
11
279.555275
21
729.371260
0
LINE
8
0
10
279.555275
20
729.371260
11
280.259923
21
724.754304
0
LINE
8
0
10
280.259923
20
724.754304
11
280.500000
21
720.000000
0
LINE
8
0
10
280.500000
20
720.000000
11
280.259923
21
715.245520
0
LINE
8
0
10
280.259923
20
715.245520
11
279.555275
21
710.628410
0
LINE
8
0
10
279.555275
20
710.628410
11
278.409431
21
706.172041
0
LINE
8
0
10
278.409431
20
706.172041
11
276.845766
21
701.899781
0
LINE
8
0
10
276.845766
20
701.899781
11
274.887653
21
697.835002
0
LINE
8
0
10
274.887653
20
697.835002
11
272.558467
21
694.001074
0
LINE
8
0
10
272.558467
20
694.001074
11
269.881583
21
690.421367
0
LINE
8
0
10
269.881583
20
690.421367
11
266.880375
21
687.119250
0
LINE
8
0
10
266.880375
20
687.119250
11
263.578218
21
684.118094
0
LINE
8
0
10
263.578218
20
684.118094
11
259.998486
21
681.441270
0
LINE
8
0
10
259.998486
20
681.441270
11
256.164554
21
679.112146
0
LINE
8
0
10
256.164554
20
679.112146
11
252.099797
21
677.154094
0
LINE
8
0
10
252.099797
20
677.154094
11
247.827588
21
675.590483
0
LINE
8
0
10
247.827588
20
675.590483
11
243.371303
21
674.444684
0
LINE
8
0
10
243.371303
20
674.444684
11
238.754315
21
673.740066
0
LINE
8
0
10
238.754315
20
673.740066
11
234.000000
21
673.500000
0
LINE
8
0
10
234.000000
20
673.500000
11
229.404211
21
673.727535
0
LINE
8
0
10
229.404211
20
673.727535
11
224.886188
21
674.401719
0
LINE
8
0
10
224.886188
20
674.401719
11
220.476445
21
675.509918
0
LINE
8
0
10
220.476445
20
675.509918
11
216.205500
21
677.039500
0
LINE
8
0
10
216.205500
20
677.039500
11
212.103867
21
678.977832
0
LINE
8
0
10
212.103867
20
678.977832
11
208.202063
21
681.312281
0
LINE
8
0
10
208.202063
20
681.312281
11
204.530602
21
684.030215
0
LINE
8
0
10
204.530602
20
684.030215
11
201.120000
21
687.119000
0
LINE
8
0
10
201.120000
20
687.119000
11
198.030885
21
690.529891
0
LINE
8
0
10
198.030885
20
690.529891
11
195.312703
21
694.201500
0
LINE
8
0
10
195.312703
20
694.201500
11
192.978076
21
698.103359
0
LINE
8
0
10
192.978076
20
698.103359
11
191.039625
21
702.205000
0
LINE
8
0
10
191.039625
20
702.205000
11
189.509971
21
706.475953
0
LINE
8
0
10
189.509971
20
706.475953
11
188.401734
21
710.885750
0
LINE
8
0
10
188.401734
20
710.885750
11
187.727537
21
715.403922
0
LINE
8
0
10
187.727537
20
715.403922
11
187.500000
21
720.000000
0
LINE
8
0
10
232.000000
20
665.000000
11
232.157109
21
665.778094
0
LINE
8
0
10
232.157109
20
665.778094
11
232.585625
21
666.413500
0
LINE
8
0
10
232.585625
20
666.413500
11
233.221328
21
666.841906
0
LINE
8
0
10
233.221328
20
666.841906
11
234.000000
21
666.999000
0
LINE
8
0
10
234.000000
20
666.999000
11
234.778672
21
666.841906
0
LINE
8
0
10
234.778672
20
666.841906
11
235.414375
21
666.413500
0
LINE
8
0
10
235.414375
20
666.413500
11
235.842891
21
665.778094
0
LINE
8
0
10
235.842891
20
665.778094
11
236.000000
21
665.000000
0
LINE
8
0
10
236.000000
20
665.000000
11
235.842750
21
664.221328
0
LINE
8
0
10
235.842750
20
664.221328
11
235.414000
21
663.585625
0
LINE
8
0
10
235.414000
20
663.585625
11
234.778250
21
663.157109
0
LINE
8
0
10
234.778250
20
663.157109
11
234.000000
21
663.000000
0
LINE
8
0
10
234.000000
20
663.000000
11
233.221328
21
663.157109
0
LINE
8
0
10
233.221328
20
663.157109
11
232.585625
21
663.585625
0
LINE
8
0
10
232.585625
20
663.585625
11
232.157109
21
664.221328
0
LINE
8
0
10
232.157109
20
664.221328
11
232.000000
21
665.000000
0
LINE
8
0
10
232.000000
20
774.999000
11
232.157109
21
775.777672
0
LINE
8
0
10
232.157109
20
775.777672
11
232.585625
21
776.413375
0
LINE
8
0
10
232.585625
20
776.413375
11
233.221328
21
776.841891
0
LINE
8
0
10
233.221328
20
776.841891
11
234.000000
21
776.999000
0
LINE
8
0
10
234.000000
20
776.999000
11
234.778250
21
776.841891
0
LINE
8
0
10
234.778250
20
776.841891
11
235.414000
21
776.413375
0
LINE
8
0
10
235.414000
20
776.413375
11
235.842750
21
775.777672
0
LINE
8
0
10
235.842750
20
775.777672
11
236.000000
21
774.999000
0
LINE
8
0
10
236.000000
20
774.999000
11
235.842891
21
774.220328
0
LINE
8
0
10
235.842891
20
774.220328
11
235.414375
21
773.584625
0
LINE
8
0
10
235.414375
20
773.584625
11
234.778672
21
773.156109
0
LINE
8
0
10
234.778672
20
773.156109
11
234.000000
21
772.999000
0
LINE
8
0
10
234.000000
20
772.999000
11
233.221187
21
773.156109
0
LINE
8
0
10
233.221187
20
773.156109
11
232.585250
21
773.584625
0
LINE
8
0
10
232.585250
20
773.584625
11
232.156688
21
774.220328
0
LINE
8
0
10
232.156688
20
774.220328
11
232.000000
21
774.999000
0
LINE
8
0
10
279.633000
20
692.404000
11
279.687250
21
692.970750
0
LINE
8
0
10
279.687250
20
692.970750
11
279.899000
21
693.500000
0
LINE
8
0
10
279.899000
20
693.500000
11
280.424313
21
694.095297
0
LINE
8
0
10
280.424313
20
694.095297
11
281.113500
21
694.431375
0
LINE
8
0
10
281.113500
20
694.431375
11
281.878438
21
694.484516
0
LINE
8
0
10
281.878438
20
694.484516
11
282.631000
21
694.231000
0
LINE
8
0
10
282.631000
20
694.231000
11
283.226313
21
693.705844
0
LINE
8
0
10
283.226313
20
693.705844
11
283.562500
21
693.017000
0
LINE
8
0
10
283.562500
20
693.017000
11
283.615937
21
692.252406
0
LINE
8
0
10
283.615937
20
692.252406
11
283.363000
21
691.500000
0
LINE
8
0
10
283.363000
20
691.500000
11
282.837688
21
690.904109
0
LINE
8
0
10
282.837688
20
690.904109
11
282.148500
21
690.567625
0
LINE
8
0
10
282.148500
20
690.567625
11
281.383562
21
690.514078
0
LINE
8
0
10
281.383562
20
690.514078
11
280.631000
21
690.767000
0
LINE
8
0
10
280.631000
20
690.767000
11
279.923125
21
691.458375
0
LINE
8
0
10
279.923125
20
691.458375
11
279.633000
21
692.404000
0
LINE
8
0
10
279.633000
20
747.594000
11
279.922750
21
748.540000
0
LINE
8
0
10
279.922750
20
748.540000
11
280.631000
21
749.231000
0
LINE
8
0
10
280.631000
20
749.231000
11
281.383562
21
749.484500
0
LINE
8
0
10
281.383562
20
749.484500
11
282.148500
21
749.431250
0
LINE
8
0
10
282.148500
20
749.431250
11
282.837688
21
749.094875
0
LINE
8
0
10
282.837688
20
749.094875
11
283.363000
21
748.499000
0
LINE
8
0
10
283.363000
20
748.499000
11
283.615937
21
747.746016
0
LINE
8
0
10
283.615937
20
747.746016
11
283.562500
21
746.981125
0
LINE
8
0
10
283.562500
20
746.981125
11
283.226313
21
746.292172
0
LINE
8
0
10
283.226313
20
746.292172
11
282.631000
21
745.767000
0
LINE
8
0
10
282.631000
20
745.767000
11
281.878016
21
745.513922
0
LINE
8
0
10
281.878016
20
745.513922
11
281.113125
21
745.567125
0
LINE
8
0
10
281.113125
20
745.567125
11
280.424172
21
745.903266
0
LINE
8
0
10
280.424172
20
745.903266
11
279.899000
21
746.499000
0
LINE
8
0
10
279.899000
20
746.499000
11
279.687250
21
747.027375
0
LINE
8
0
10
279.687250
20
747.027375
11
279.633000
21
747.594000
0
LINE
8
0
10
296.982000
20
518.500000
11
297.138953
21
519.278828
0
LINE
8
0
10
297.138953
20
519.278828
11
297.567125
21
519.914875
0
LINE
8
0
10
297.567125
20
519.914875
11
298.202484
21
520.343734
0
LINE
8
0
10
298.202484
20
520.343734
11
298.981000
21
520.501000
0
LINE
8
0
10
298.981000
20
520.501000
11
299.759672
21
520.343734
0
LINE
8
0
10
299.759672
20
520.343734
11
300.395375
21
519.914875
0
LINE
8
0
10
300.395375
20
519.914875
11
300.823891
21
519.278828
0
LINE
8
0
10
300.823891
20
519.278828
11
300.981000
21
518.500000
0
LINE
8
0
10
300.981000
20
518.500000
11
300.823891
21
517.721906
0
LINE
8
0
10
300.823891
20
517.721906
11
300.395375
21
517.086500
0
LINE
8
0
10
300.395375
20
517.086500
11
299.759672
21
516.658094
0
LINE
8
0
10
299.759672
20
516.658094
11
298.981000
21
516.501000
0
LINE
8
0
10
298.981000
20
516.501000
11
298.202906
21
516.658094
0
LINE
8
0
10
298.202906
20
516.658094
11
297.567500
21
517.086500
0
LINE
8
0
10
297.567500
20
517.086500
11
297.139094
21
517.721906
0
LINE
8
0
10
297.139094
20
517.721906
11
296.982000
21
518.500000
0
LINE
8
0
10
296.982000
20
795.001000
11
297.138953
21
795.779672
0
LINE
8
0
10
297.138953
20
795.779672
11
297.567125
21
796.415375
0
LINE
8
0
10
297.567125
20
796.415375
11
298.202484
21
796.843891
0
LINE
8
0
10
298.202484
20
796.843891
11
298.981000
21
797.001000
0
LINE
8
0
10
298.981000
20
797.001000
11
299.759672
21
796.843750
0
LINE
8
0
10
299.759672
20
796.843750
11
300.395375
21
796.415000
0
LINE
8
0
10
300.395375
20
796.415000
11
300.823891
21
795.779250
0
LINE
8
0
10
300.823891
20
795.779250
11
300.981000
21
795.001000
0
LINE
8
0
10
300.981000
20
795.001000
11
300.823891
21
794.222328
0
LINE
8
0
10
300.823891
20
794.222328
11
300.395375
21
793.586625
0
LINE
8
0
10
300.395375
20
793.586625
11
299.759672
21
793.158109
0
LINE
8
0
10
299.759672
20
793.158109
11
298.981000
21
793.001000
0
LINE
8
0
10
298.981000
20
793.001000
11
298.202906
21
793.158109
0
LINE
8
0
10
298.202906
20
793.158109
11
297.567500
21
793.586625
0
LINE
8
0
10
297.567500
20
793.586625
11
297.139094
21
794.222328
0
LINE
8
0
10
297.139094
20
794.222328
11
296.982000
21
795.001000
0
LINE
8
0
10
307.018000
20
518.500000
11
307.174953
21
519.278828
0
LINE
8
0
10
307.174953
20
519.278828
11
307.603125
21
519.914875
0
LINE
8
0
10
307.603125
20
519.914875
11
308.238484
21
520.343734
0
LINE
8
0
10
308.238484
20
520.343734
11
309.017000
21
520.501000
0
LINE
8
0
10
309.017000
20
520.501000
11
309.795672
21
520.343734
0
LINE
8
0
10
309.795672
20
520.343734
11
310.431375
21
519.914875
0
LINE
8
0
10
310.431375
20
519.914875
11
310.859891
21
519.278828
0
LINE
8
0
10
310.859891
20
519.278828
11
311.017000
21
518.500000
0
LINE
8
0
10
311.017000
20
518.500000
11
310.859750
21
517.721906
0
LINE
8
0
10
310.859750
20
517.721906
11
310.431000
21
517.086500
0
LINE
8
0
10
310.431000
20
517.086500
11
309.795250
21
516.658094
0
LINE
8
0
10
309.795250
20
516.658094
11
309.017000
21
516.501000
0
LINE
8
0
10
309.017000
20
516.501000
11
308.238906
21
516.658094
0
LINE
8
0
10
308.238906
20
516.658094
11
307.603500
21
517.086500
0
LINE
8
0
10
307.603500
20
517.086500
11
307.175094
21
517.721906
0
LINE
8
0
10
307.175094
20
517.721906
11
307.018000
21
518.500000
0
LINE
8
0
10
307.018000
20
598.501000
11
307.174953
21
599.279672
0
LINE
8
0
10
307.174953
20
599.279672
11
307.603125
21
599.915375
0
LINE
8
0
10
307.603125
20
599.915375
11
308.238484
21
600.343891
0
LINE
8
0
10
308.238484
20
600.343891
11
309.017000
21
600.501000
0
LINE
8
0
10
309.017000
20
600.501000
11
309.795672
21
600.343750
0
LINE
8
0
10
309.795672
20
600.343750
11
310.431375
21
599.915000
0
LINE
8
0
10
310.431375
20
599.915000
11
310.859891
21
599.279250
0
LINE
8
0
10
310.859891
20
599.279250
11
311.017000
21
598.501000
0
LINE
8
0
10
311.017000
20
598.501000
11
310.859750
21
597.722328
0
LINE
8
0
10
310.859750
20
597.722328
11
310.431000
21
597.086625
0
LINE
8
0
10
310.431000
20
597.086625
11
309.795250
21
596.658109
0
LINE
8
0
10
309.795250
20
596.658109
11
309.017000
21
596.501000
0
LINE
8
0
10
309.017000
20
596.501000
11
308.238906
21
596.658109
0
LINE
8
0
10
308.238906
20
596.658109
11
307.603500
21
597.086625
0
LINE
8
0
10
307.603500
20
597.086625
11
307.175094
21
597.722328
0
LINE
8
0
10
307.175094
20
597.722328
11
307.018000
21
598.501000
0
LINE
8
0
10
307.018000
20
715.001000
11
307.174953
21
715.779250
0
LINE
8
0
10
307.174953
20
715.779250
11
307.603125
21
716.415000
0
LINE
8
0
10
307.603125
20
716.415000
11
308.238484
21
716.843750
0
LINE
8
0
10
308.238484
20
716.843750
11
309.017000
21
717.001000
0
LINE
8
0
10
309.017000
20
717.001000
11
309.795672
21
716.843750
0
LINE
8
0
10
309.795672
20
716.843750
11
310.431375
21
716.415000
0
LINE
8
0
10
310.431375
20
716.415000
11
310.859891
21
715.779250
0
LINE
8
0
10
310.859891
20
715.779250
11
311.017000
21
715.001000
0
LINE
8
0
10
311.017000
20
715.001000
11
310.859750
21
714.222484
0
LINE
8
0
10
310.859750
20
714.222484
11
310.431000
21
713.587125
0
LINE
8
0
10
310.431000
20
713.587125
11
309.795250
21
713.158953
0
LINE
8
0
10
309.795250
20
713.158953
11
309.017000
21
713.002000
0
LINE
8
0
10
309.017000
20
713.002000
11
308.238906
21
713.158953
0
LINE
8
0
10
308.238906
20
713.158953
11
307.603500
21
713.587125
0
LINE
8
0
10
307.603500
20
713.587125
11
307.175094
21
714.222484
0
LINE
8
0
10
307.175094
20
714.222484
11
307.018000
21
715.001000
0
LINE
8
0
10
307.018000
20
795.001000
11
307.174953
21
795.779672
0
LINE
8
0
10
307.174953
20
795.779672
11
307.603125
21
796.415375
0
LINE
8
0
10
307.603125
20
796.415375
11
308.238484
21
796.843891
0
LINE
8
0
10
308.238484
20
796.843891
11
309.017000
21
797.001000
0
LINE
8
0
10
309.017000
20
797.001000
11
309.795672
21
796.843750
0
LINE
8
0
10
309.795672
20
796.843750
11
310.431375
21
796.415000
0
LINE
8
0
10
310.431375
20
796.415000
11
310.859891
21
795.779250
0
LINE
8
0
10
310.859891
20
795.779250
11
311.017000
21
795.001000
0
LINE
8
0
10
311.017000
20
795.001000
11
310.859750
21
794.222328
0
LINE
8
0
10
310.859750
20
794.222328
11
310.431000
21
793.586625
0
LINE
8
0
10
310.431000
20
793.586625
11
309.795250
21
793.158109
0
LINE
8
0
10
309.795250
20
793.158109
11
309.017000
21
793.001000
0
LINE
8
0
10
309.017000
20
793.001000
11
308.238906
21
793.158109
0
LINE
8
0
10
308.238906
20
793.158109
11
307.603500
21
793.586625
0
LINE
8
0
10
307.603500
20
793.586625
11
307.175094
21
794.222328
0
LINE
8
0
10
307.175094
20
794.222328
11
307.018000
21
795.001000
0
LINE
8
0
10
316.000000
20
230.000000
11
316.101230
21
228.989863
0
LINE
8
0
10
316.101230
20
228.989863
11
316.391719
21
228.050156
0
LINE
8
0
10
316.391719
20
228.050156
11
316.851660
21
227.200684
0
LINE
8
0
10
316.851660
20
227.200684
11
317.461250
21
226.461250
0
LINE
8
0
10
317.461250
20
226.461250
11
318.200684
21
225.851660
0
LINE
8
0
10
318.200684
20
225.851660
11
319.050156
21
225.391719
0
LINE
8
0
10
319.050156
20
225.391719
11
319.989863
21
225.101230
0
LINE
8
0
10
319.989863
20
225.101230
11
321.000000
21
225.000000
0
LINE
8
0
10
471.000000
20
225.000000
11
472.010137
21
225.101230
0
LINE
8
0
10
472.010137
20
225.101230
11
472.949844
21
225.391719
0
LINE
8
0
10
472.949844
20
225.391719
11
473.799316
21
225.851660
0
LINE
8
0
10
473.799316
20
225.851660
11
474.538750
21
226.461250
0
LINE
8
0
10
474.538750
20
226.461250
11
475.148340
21
227.200684
0
LINE
8
0
10
475.148340
20
227.200684
11
475.608281
21
228.050156
0
LINE
8
0
10
475.608281
20
228.050156
11
475.898770
21
228.989863
0
LINE
8
0
10
475.898770
20
228.989863
11
476.000000
21
230.000000
0
LINE
8
0
10
321.000000
20
225.000000
11
471.000000
21
225.000000
0
LINE
8
0
10
476.000000
20
506.500000
11
475.898770
21
507.510094
0
LINE
8
0
10
475.898770
20
507.510094
11
475.608281
21
508.449687
0
LINE
8
0
10
475.608281
20
508.449687
11
475.148340
21
509.299000
0
LINE
8
0
10
475.148340
20
509.299000
11
474.538750
21
510.038250
0
LINE
8
0
10
474.538750
20
510.038250
11
473.799316
21
510.647656
0
LINE
8
0
10
473.799316
20
510.647656
11
472.949844
21
511.107438
0
LINE
8
0
10
472.949844
20
511.107438
11
472.010137
21
511.397813
0
LINE
8
0
10
472.010137
20
511.397813
11
471.000000
21
511.499000
0
LINE
8
0
10
476.000000
20
230.000000
11
476.000000
21
506.500000
0
LINE
8
0
10
321.000000
20
511.499000
11
319.989863
21
511.397813
0
LINE
8
0
10
319.989863
20
511.397813
11
319.050156
21
511.107438
0
LINE
8
0
10
319.050156
20
511.107438
11
318.200684
21
510.647656
0
LINE
8
0
10
318.200684
20
510.647656
11
317.461250
21
510.038250
0
LINE
8
0
10
317.461250
20
510.038250
11
316.851660
21
509.299000
0
LINE
8
0
10
316.851660
20
509.299000
11
316.391719
21
508.449687
0
LINE
8
0
10
316.391719
20
508.449687
11
316.101230
21
507.510094
0
LINE
8
0
10
316.101230
20
507.510094
11
316.000000
21
506.500000
0
LINE
8
0
10
471.000000
20
511.499000
11
321.000000
21
511.499000
0
LINE
8
0
10
319.018000
20
230.000000
11
319.175109
21
230.778687
0
LINE
8
0
10
319.175109
20
230.778687
11
319.603625
21
231.414500
0
LINE
8
0
10
319.603625
20
231.414500
11
320.239328
21
231.843312
0
LINE
8
0
10
320.239328
20
231.843312
11
321.018000
21
232.001000
0
LINE
8
0
10
321.018000
20
232.001000
11
321.796672
21
231.843734
0
LINE
8
0
10
321.796672
20
231.843734
11
322.432375
21
231.414875
0
LINE
8
0
10
322.432375
20
231.414875
11
322.860891
21
230.778828
0
LINE
8
0
10
322.860891
20
230.778828
11
323.018000
21
230.000000
0
LINE
8
0
10
323.018000
20
230.000000
11
322.860750
21
229.221906
0
LINE
8
0
10
322.860750
20
229.221906
11
322.432000
21
228.586500
0
LINE
8
0
10
322.432000
20
228.586500
11
321.796250
21
228.158094
0
LINE
8
0
10
321.796250
20
228.158094
11
321.018000
21
228.001000
0
LINE
8
0
10
321.018000
20
228.001000
11
320.239750
21
228.158094
0
LINE
8
0
10
320.239750
20
228.158094
11
319.604000
21
228.586500
0
LINE
8
0
10
319.604000
20
228.586500
11
319.175250
21
229.221906
0
LINE
8
0
10
319.175250
20
229.221906
11
319.018000
21
230.000000
0
LINE
8
0
10
316.000000
20
506.500000
11
316.000000
21
230.000000
0
LINE
8
0
10
319.018000
20
310.001000
11
319.175109
21
310.779250
0
LINE
8
0
10
319.175109
20
310.779250
11
319.603625
21
311.415000
0
LINE
8
0
10
319.603625
20
311.415000
11
320.239328
21
311.843750
0
LINE
8
0
10
320.239328
20
311.843750
11
321.018000
21
312.001000
0
LINE
8
0
10
321.018000
20
312.001000
11
321.796672
21
311.843750
0
LINE
8
0
10
321.796672
20
311.843750
11
322.432375
21
311.415000
0
LINE
8
0
10
322.432375
20
311.415000
11
322.860891
21
310.779250
0
LINE
8
0
10
322.860891
20
310.779250
11
323.018000
21
310.001000
0
LINE
8
0
10
323.018000
20
310.001000
11
322.860750
21
309.222172
0
LINE
8
0
10
322.860750
20
309.222172
11
322.432000
21
308.586125
0
LINE
8
0
10
322.432000
20
308.586125
11
321.796250
21
308.157266
0
LINE
8
0
10
321.796250
20
308.157266
11
321.018000
21
308.000000
0
LINE
8
0
10
321.018000
20
308.000000
11
320.239750
21
308.157266
0
LINE
8
0
10
320.239750
20
308.157266
11
319.604000
21
308.586125
0
LINE
8
0
10
319.604000
20
308.586125
11
319.175250
21
309.222172
0
LINE
8
0
10
319.175250
20
309.222172
11
319.018000
21
310.001000
0
LINE
8
0
10
319.018000
20
426.501000
11
319.175109
21
427.279109
0
LINE
8
0
10
319.175109
20
427.279109
11
319.603625
21
427.914625
0
LINE
8
0
10
319.603625
20
427.914625
11
320.239328
21
428.343328
0
LINE
8
0
10
320.239328
20
428.343328
11
321.018000
21
428.501000
0
LINE
8
0
10
321.018000
20
428.501000
11
321.796672
21
428.343891
0
LINE
8
0
10
321.796672
20
428.343891
11
322.432375
21
427.915375
0
LINE
8
0
10
322.432375
20
427.915375
11
322.860891
21
427.279672
0
LINE
8
0
10
322.860891
20
427.279672
11
323.018000
21
426.501000
0
LINE
8
0
10
323.018000
20
426.501000
11
322.860750
21
425.722328
0
LINE
8
0
10
322.860750
20
425.722328
11
322.432000
21
425.086625
0
LINE
8
0
10
322.432000
20
425.086625
11
321.796250
21
424.658109
0
LINE
8
0
10
321.796250
20
424.658109
11
321.018000
21
424.501000
0
LINE
8
0
10
321.018000
20
424.501000
11
320.239750
21
424.658250
0
LINE
8
0
10
320.239750
20
424.658250
11
319.604000
21
425.087000
0
LINE
8
0
10
319.604000
20
425.087000
11
319.175250
21
425.722750
0
LINE
8
0
10
319.175250
20
425.722750
11
319.018000
21
426.501000
0
LINE
8
0
10
319.018000
20
506.500000
11
319.175109
21
507.278688
0
LINE
8
0
10
319.175109
20
507.278688
11
319.603625
21
507.914500
0
LINE
8
0
10
319.603625
20
507.914500
11
320.239328
21
508.343313
0
LINE
8
0
10
320.239328
20
508.343313
11
321.018000
21
508.501000
0
LINE
8
0
10
321.018000
20
508.501000
11
321.796672
21
508.343734
0
LINE
8
0
10
321.796672
20
508.343734
11
322.432375
21
507.914875
0
LINE
8
0
10
322.432375
20
507.914875
11
322.860891
21
507.278828
0
LINE
8
0
10
322.860891
20
507.278828
11
323.018000
21
506.500000
0
LINE
8
0
10
323.018000
20
506.500000
11
322.860750
21
505.721750
0
LINE
8
0
10
322.860750
20
505.721750
11
322.432000
21
505.086000
0
LINE
8
0
10
322.432000
20
505.086000
11
321.796250
21
504.657250
0
LINE
8
0
10
321.796250
20
504.657250
11
321.018000
21
504.500000
0
LINE
8
0
10
321.018000
20
504.500000
11
320.239750
21
504.657250
0
LINE
8
0
10
320.239750
20
504.657250
11
319.604000
21
505.086000
0
LINE
8
0
10
319.604000
20
505.086000
11
319.175250
21
505.721750
0
LINE
8
0
10
319.175250
20
505.721750
11
319.018000
21
506.500000
0
LINE
8
0
10
329.054000
20
230.000000
11
329.211109
21
230.778687
0
LINE
8
0
10
329.211109
20
230.778687
11
329.639625
21
231.414500
0
LINE
8
0
10
329.639625
20
231.414500
11
330.275328
21
231.843312
0
LINE
8
0
10
330.275328
20
231.843312
11
331.054000
21
232.001000
0
LINE
8
0
10
331.054000
20
232.001000
11
331.832672
21
231.843734
0
LINE
8
0
10
331.832672
20
231.843734
11
332.468375
21
231.414875
0
LINE
8
0
10
332.468375
20
231.414875
11
332.896891
21
230.778828
0
LINE
8
0
10
332.896891
20
230.778828
11
333.054000
21
230.000000
0
LINE
8
0
10
333.054000
20
230.000000
11
332.896750
21
229.221906
0
LINE
8
0
10
332.896750
20
229.221906
11
332.468000
21
228.586500
0
LINE
8
0
10
332.468000
20
228.586500
11
331.832250
21
228.158094
0
LINE
8
0
10
331.832250
20
228.158094
11
331.054000
21
228.001000
0
LINE
8
0
10
331.054000
20
228.001000
11
330.275328
21
228.158094
0
LINE
8
0
10
330.275328
20
228.158094
11
329.639625
21
228.586500
0
LINE
8
0
10
329.639625
20
228.586500
11
329.211109
21
229.221906
0
LINE
8
0
10
329.211109
20
229.221906
11
329.054000
21
230.000000
0
LINE
8
0
10
329.054000
20
506.500000
11
329.211109
21
507.278688
0
LINE
8
0
10
329.211109
20
507.278688
11
329.639625
21
507.914500
0
LINE
8
0
10
329.639625
20
507.914500
11
330.275328
21
508.343313
0
LINE
8
0
10
330.275328
20
508.343313
11
331.054000
21
508.501000
0
LINE
8
0
10
331.054000
20
508.501000
11
331.832672
21
508.343734
0
LINE
8
0
10
331.832672
20
508.343734
11
332.468375
21
507.914875
0
LINE
8
0
10
332.468375
20
507.914875
11
332.896891
21
507.278828
0
LINE
8
0
10
332.896891
20
507.278828
11
333.054000
21
506.500000
0
LINE
8
0
10
333.054000
20
506.500000
11
332.896750
21
505.721750
0
LINE
8
0
10
332.896750
20
505.721750
11
332.468000
21
505.086000
0
LINE
8
0
10
332.468000
20
505.086000
11
331.832250
21
504.657250
0
LINE
8
0
10
331.832250
20
504.657250
11
331.054000
21
504.500000
0
LINE
8
0
10
331.054000
20
504.500000
11
330.275328
21
504.657250
0
LINE
8
0
10
330.275328
20
504.657250
11
329.639625
21
505.086000
0
LINE
8
0
10
329.639625
20
505.086000
11
329.211109
21
505.721750
0
LINE
8
0
10
329.211109
20
505.721750
11
329.054000
21
506.500000
0
LINE
8
0
10
346.371000
20
404.095000
11
346.660625
21
405.041000
0
LINE
8
0
10
346.660625
20
405.041000
11
347.368000
21
405.732000
0
LINE
8
0
10
347.368000
20
405.732000
11
348.120984
21
405.985078
0
LINE
8
0
10
348.120984
20
405.985078
11
348.885875
21
405.931875
0
LINE
8
0
10
348.885875
20
405.931875
11
349.574828
21
405.595734
0
LINE
8
0
10
349.574828
20
405.595734
11
350.100000
21
405.000000
0
LINE
8
0
10
350.100000
20
405.000000
11
350.353500
21
404.247016
0
LINE
8
0
10
350.353500
20
404.247016
11
350.300250
21
403.482125
0
LINE
8
0
10
350.300250
20
403.482125
11
349.963875
21
402.793172
0
LINE
8
0
10
349.963875
20
402.793172
11
349.368000
21
402.268000
0
LINE
8
0
10
349.368000
20
402.268000
11
348.615578
21
402.014500
0
LINE
8
0
10
348.615578
20
402.014500
11
347.850875
21
402.067750
0
LINE
8
0
10
347.850875
20
402.067750
11
347.161734
21
402.404125
0
LINE
8
0
10
347.161734
20
402.404125
11
346.636000
21
403.000000
0
LINE
8
0
10
346.636000
20
403.000000
11
346.424750
21
403.528375
0
LINE
8
0
10
346.424750
20
403.528375
11
346.371000
21
404.095000
0
LINE
8
0
10
346.371000
20
458.904000
11
346.424750
21
459.470750
0
LINE
8
0
10
346.424750
20
459.470750
11
346.636000
21
460.000000
0
LINE
8
0
10
346.636000
20
460.000000
11
347.161734
21
460.595313
0
LINE
8
0
10
347.161734
20
460.595313
11
347.850875
21
460.931500
0
LINE
8
0
10
347.850875
20
460.931500
11
348.615578
21
460.984938
0
LINE
8
0
10
348.615578
20
460.984938
11
349.368000
21
460.732000
0
LINE
8
0
10
349.368000
20
460.732000
11
349.963891
21
460.206266
0
LINE
8
0
10
349.963891
20
460.206266
11
350.300375
21
459.517125
0
LINE
8
0
10
350.300375
20
459.517125
11
350.353922
21
458.752422
0
LINE
8
0
10
350.353922
20
458.752422
11
350.101000
21
458.000000
0
LINE
8
0
10
350.101000
20
458.000000
11
349.575687
21
457.404109
0
LINE
8
0
10
349.575687
20
457.404109
11
348.886500
21
457.067625
0
LINE
8
0
10
348.886500
20
457.067625
11
348.121562
21
457.014078
0
LINE
8
0
10
348.121562
20
457.014078
11
347.369000
21
457.267000
0
LINE
8
0
10
347.369000
20
457.267000
11
346.660750
21
457.958375
0
LINE
8
0
10
346.660750
20
457.958375
11
346.371000
21
458.904000
0
LINE
8
0
10
349.500000
20
431.500000
11
349.727535
21
436.096076
0
LINE
8
0
10
349.727535
20
436.096076
11
350.401719
21
440.614234
0
LINE
8
0
10
350.401719
20
440.614234
11
351.509918
21
445.023994
0
LINE
8
0
10
351.509918
20
445.023994
11
353.039500
21
449.294875
0
LINE
8
0
10
353.039500
20
449.294875
11
354.977832
21
453.396396
0
LINE
8
0
10
354.977832
20
453.396396
11
357.312281
21
457.298078
0
LINE
8
0
10
357.312281
20
457.298078
11
360.030215
21
460.969439
0
LINE
8
0
10
360.030215
20
460.969439
11
363.119000
21
464.380000
0
LINE
8
0
10
363.119000
20
464.380000
11
366.529891
21
467.469115
0
LINE
8
0
10
366.529891
20
467.469115
11
370.201500
21
470.187297
0
LINE
8
0
10
370.201500
20
470.187297
11
374.103359
21
472.521924
0
LINE
8
0
10
374.103359
20
472.521924
11
378.205000
21
474.460375
0
LINE
8
0
10
378.205000
20
474.460375
11
382.475953
21
475.990029
0
LINE
8
0
10
382.475953
20
475.990029
11
386.885750
21
477.098266
0
LINE
8
0
10
386.885750
20
477.098266
11
391.403922
21
477.772463
0
LINE
8
0
10
391.403922
20
477.772463
11
396.000000
21
478.000000
0
LINE
8
0
10
396.000000
20
478.000000
11
400.754315
21
477.759923
0
LINE
8
0
10
400.754315
20
477.759923
11
405.371303
21
477.055275
0
LINE
8
0
10
405.371303
20
477.055275
11
409.827588
21
475.909431
0
LINE
8
0
10
409.827588
20
475.909431
11
414.099797
21
474.345766
0
LINE
8
0
10
414.099797
20
474.345766
11
418.164554
21
472.387653
0
LINE
8
0
10
418.164554
20
472.387653
11
421.998486
21
470.058467
0
LINE
8
0
10
421.998486
20
470.058467
11
425.578218
21
467.381583
0
LINE
8
0
10
425.578218
20
467.381583
11
428.880375
21
464.380375
0
LINE
8
0
10
428.880375
20
464.380375
11
431.881583
21
461.078218
0
LINE
8
0
10
431.881583
20
461.078218
11
434.558467
21
457.498486
0
LINE
8
0
10
434.558467
20
457.498486
11
436.887653
21
453.664554
0
LINE
8
0
10
436.887653
20
453.664554
11
438.845766
21
449.599797
0
LINE
8
0
10
438.845766
20
449.599797
11
440.409431
21
445.327588
0
LINE
8
0
10
440.409431
20
445.327588
11
441.555275
21
440.871303
0
LINE
8
0
10
441.555275
20
440.871303
11
442.259923
21
436.254315
0
LINE
8
0
10
442.259923
20
436.254315
11
442.500000
21
431.500000
0
LINE
8
0
10
442.500000
20
431.500000
11
442.259923
21
426.745685
0
LINE
8
0
10
442.259923
20
426.745685
11
441.555275
21
422.128697
0
LINE
8
0
10
441.555275
20
422.128697
11
440.409431
21
417.672412
0
LINE
8
0
10
440.409431
20
417.672412
11
438.845766
21
413.400203
0
LINE
8
0
10
438.845766
20
413.400203
11
436.887653
21
409.335446
0
LINE
8
0
10
436.887653
20
409.335446
11
434.558467
21
405.501514
0
LINE
8
0
10
434.558467
20
405.501514
11
431.881583
21
401.921782
0
LINE
8
0
10
431.881583
20
401.921782
11
428.880375
21
398.619625
0
LINE
8
0
10
428.880375
20
398.619625
11
425.578218
21
395.618417
0
LINE
8
0
10
425.578218
20
395.618417
11
421.998486
21
392.941533
0
LINE
8
0
10
421.998486
20
392.941533
11
418.164554
21
390.612347
0
LINE
8
0
10
418.164554
20
390.612347
11
414.099797
21
388.654234
0
LINE
8
0
10
414.099797
20
388.654234
11
409.827588
21
387.090569
0
LINE
8
0
10
409.827588
20
387.090569
11
405.371303
21
385.944725
0
LINE
8
0
10
405.371303
20
385.944725
11
400.754315
21
385.240077
0
LINE
8
0
10
400.754315
20
385.240077
11
396.000000
21
385.000000
0
LINE
8
0
10
396.000000
20
385.000000
11
391.403922
21
385.227537
0
LINE
8
0
10
391.403922
20
385.227537
11
386.885750
21
385.901734
0
LINE
8
0
10
386.885750
20
385.901734
11
382.475953
21
387.009971
0
LINE
8
0
10
382.475953
20
387.009971
11
378.205000
21
388.539625
0
LINE
8
0
10
378.205000
20
388.539625
11
374.103359
21
390.478076
0
LINE
8
0
10
374.103359
20
390.478076
11
370.201500
21
392.812703
0
LINE
8
0
10
370.201500
20
392.812703
11
366.529891
21
395.530885
0
LINE
8
0
10
366.529891
20
395.530885
11
363.119000
21
398.620000
0
LINE
8
0
10
363.119000
20
398.620000
11
360.030215
21
402.030561
0
LINE
8
0
10
360.030215
20
402.030561
11
357.312281
21
405.701922
0
LINE
8
0
10
357.312281
20
405.701922
11
354.977832
21
409.603604
0
LINE
8
0
10
354.977832
20
409.603604
11
353.039500
21
413.705125
0
LINE
8
0
10
353.039500
20
413.705125
11
351.509918
21
417.976006
0
LINE
8
0
10
351.509918
20
417.976006
11
350.401719
21
422.385766
0
LINE
8
0
10
350.401719
20
422.385766
11
349.727535
21
426.903924
0
LINE
8
0
10
349.727535
20
426.903924
11
349.500000
21
431.500000
0
LINE
8
0
10
393.999000
20
376.500000
11
394.156266
21
377.278672
0
LINE
8
0
10
394.156266
20
377.278672
11
394.585125
21
377.914375
0
LINE
8
0
10
394.585125
20
377.914375
11
395.221172
21
378.342891
0
LINE
8
0
10
395.221172
20
378.342891
11
396.000000
21
378.500000
0
LINE
8
0
10
396.000000
20
378.500000
11
396.778250
21
378.342750
0
LINE
8
0
10
396.778250
20
378.342750
11
397.414000
21
377.914000
0
LINE
8
0
10
397.414000
20
377.914000
11
397.842750
21
377.278250
0
LINE
8
0
10
397.842750
20
377.278250
11
398.000000
21
376.500000
0
LINE
8
0
10
398.000000
20
376.500000
11
397.842750
21
375.721328
0
LINE
8
0
10
397.842750
20
375.721328
11
397.414000
21
375.085625
0
LINE
8
0
10
397.414000
20
375.085625
11
396.778250
21
374.657109
0
LINE
8
0
10
396.778250
20
374.657109
11
396.000000
21
374.500000
0
LINE
8
0
10
396.000000
20
374.500000
11
395.221312
21
374.657109
0
LINE
8
0
10
395.221312
20
374.657109
11
394.585500
21
375.085625
0
LINE
8
0
10
394.585500
20
375.085625
11
394.156687
21
375.721328
0
LINE
8
0
10
394.156687
20
375.721328
11
393.999000
21
376.500000
0
LINE
8
0
10
393.999000
20
486.500000
11
394.156266
21
487.278234
0
LINE
8
0
10
394.156266
20
487.278234
11
394.585125
21
487.913875
0
LINE
8
0
10
394.585125
20
487.913875
11
395.221172
21
488.342328
0
LINE
8
0
10
395.221172
20
488.342328
11
396.000000
21
488.499000
0
LINE
8
0
10
396.000000
20
488.499000
11
396.778250
21
488.341906
0
LINE
8
0
10
396.778250
20
488.341906
11
397.414000
21
487.913500
0
LINE
8
0
10
397.414000
20
487.913500
11
397.842750
21
487.278094
0
LINE
8
0
10
397.842750
20
487.278094
11
398.000000
21
486.500000
0
LINE
8
0
10
398.000000
20
486.500000
11
397.842891
21
485.721172
0
LINE
8
0
10
397.842891
20
485.721172
11
397.414375
21
485.085125
0
LINE
8
0
10
397.414375
20
485.085125
11
396.778672
21
484.656266
0
LINE
8
0
10
396.778672
20
484.656266
11
396.000000
21
484.499000
0
LINE
8
0
10
396.000000
20
484.499000
11
395.221172
21
484.656266
0
LINE
8
0
10
395.221172
20
484.656266
11
394.585125
21
485.085125
0
LINE
8
0
10
394.585125
20
485.085125
11
394.156266
21
485.721172
0
LINE
8
0
10
394.156266
20
485.721172
11
393.999000
21
486.500000
0
LINE
8
0
10
441.633000
20
403.904000
11
441.686875
21
404.471125
0
LINE
8
0
10
441.686875
20
404.471125
11
441.899000
21
405.000000
0
LINE
8
0
10
441.899000
20
405.000000
11
442.424172
21
405.595313
0
LINE
8
0
10
442.424172
20
405.595313
11
443.113125
21
405.931500
0
LINE
8
0
10
443.113125
20
405.931500
11
443.878016
21
405.984938
0
LINE
8
0
10
443.878016
20
405.984938
11
444.631000
21
405.732000
0
LINE
8
0
10
444.631000
20
405.732000
11
445.226297
21
405.206266
0
LINE
8
0
10
445.226297
20
405.206266
11
445.562375
21
404.517125
0
LINE
8
0
10
445.562375
20
404.517125
11
445.615516
21
403.752422
0
LINE
8
0
10
445.615516
20
403.752422
11
445.362000
21
403.000000
0
LINE
8
0
10
445.362000
20
403.000000
11
444.836828
21
402.404125
0
LINE
8
0
10
444.836828
20
402.404125
11
444.147875
21
402.067750
0
LINE
8
0
10
444.147875
20
402.067750
11
443.382984
21
402.014500
0
LINE
8
0
10
443.382984
20
402.014500
11
442.630000
21
402.268000
0
LINE
8
0
10
442.630000
20
402.268000
11
441.922625
21
402.958875
0
LINE
8
0
10
441.922625
20
402.958875
11
441.633000
21
403.904000
0
LINE
8
0
10
441.633000
20
459.095000
11
441.922625
21
460.040625
0
LINE
8
0
10
441.922625
20
460.040625
11
442.630000
21
460.732000
0
LINE
8
0
10
442.630000
20
460.732000
11
443.382984
21
460.984938
0
LINE
8
0
10
443.382984
20
460.984938
11
444.147875
21
460.931500
0
LINE
8
0
10
444.147875
20
460.931500
11
444.836828
21
460.595313
0
LINE
8
0
10
444.836828
20
460.595313
11
445.362000
21
460.000000
0
LINE
8
0
10
445.362000
20
460.000000
11
445.615516
21
459.247000
0
LINE
8
0
10
445.615516
20
459.247000
11
445.562375
21
458.482000
0
LINE
8
0
10
445.562375
20
458.482000
11
445.226297
21
457.792750
0
LINE
8
0
10
445.226297
20
457.792750
11
444.631000
21
457.267000
0
LINE
8
0
10
444.631000
20
457.267000
11
443.878016
21
457.014078
0
LINE
8
0
10
443.878016
20
457.014078
11
443.113125
21
457.067625
0
LINE
8
0
10
443.113125
20
457.067625
11
442.424172
21
457.404109
0
LINE
8
0
10
442.424172
20
457.404109
11
441.899000
21
458.000000
0
LINE
8
0
10
441.899000
20
458.000000
11
441.687250
21
458.528375
0
LINE
8
0
10
441.687250
20
458.528375
11
441.633000
21
459.095000
0
LINE
8
0
10
458.981000
20
230.001000
11
459.138109
21
230.779250
0
LINE
8
0
10
459.138109
20
230.779250
11
459.566625
21
231.415000
0
LINE
8
0
10
459.566625
20
231.415000
11
460.202328
21
231.843750
0
LINE
8
0
10
460.202328
20
231.843750
11
460.981000
21
232.001000
0
LINE
8
0
10
460.981000
20
232.001000
11
461.759250
21
231.843750
0
LINE
8
0
10
461.759250
20
231.843750
11
462.395000
21
231.415000
0
LINE
8
0
10
462.395000
20
231.415000
11
462.823750
21
230.779250
0
LINE
8
0
10
462.823750
20
230.779250
11
462.981000
21
230.001000
0
LINE
8
0
10
462.981000
20
230.001000
11
462.823750
21
229.222469
0
LINE
8
0
10
462.823750
20
229.222469
11
462.395000
21
228.587000
0
LINE
8
0
10
462.395000
20
228.587000
11
461.759250
21
228.158531
0
LINE
8
0
10
461.759250
20
228.158531
11
460.981000
21
228.001000
0
LINE
8
0
10
460.981000
20
228.001000
11
460.202328
21
228.158109
0
LINE
8
0
10
460.202328
20
228.158109
11
459.566625
21
228.586625
0
LINE
8
0
10
459.566625
20
228.586625
11
459.138109
21
229.222328
0
LINE
8
0
10
459.138109
20
229.222328
11
458.981000
21
230.001000
0
LINE
8
0
10
458.981000
20
506.501000
11
459.138109
21
507.279672
0
LINE
8
0
10
459.138109
20
507.279672
11
459.566625
21
507.915375
0
LINE
8
0
10
459.566625
20
507.915375
11
460.202328
21
508.343891
0
LINE
8
0
10
460.202328
20
508.343891
11
460.981000
21
508.501000
0
LINE
8
0
10
460.981000
20
508.501000
11
461.759250
21
508.343891
0
LINE
8
0
10
461.759250
20
508.343891
11
462.395000
21
507.915375
0
LINE
8
0
10
462.395000
20
507.915375
11
462.823750
21
507.279672
0
LINE
8
0
10
462.823750
20
507.279672
11
462.981000
21
506.501000
0
LINE
8
0
10
462.981000
20
506.501000
11
462.823750
21
505.722750
0
LINE
8
0
10
462.823750
20
505.722750
11
462.395000
21
505.087000
0
LINE
8
0
10
462.395000
20
505.087000
11
461.759250
21
504.658250
0
LINE
8
0
10
461.759250
20
504.658250
11
460.981000
21
504.501000
0
LINE
8
0
10
460.981000
20
504.501000
11
460.202328
21
504.658109
0
LINE
8
0
10
460.202328
20
504.658109
11
459.566625
21
505.086625
0
LINE
8
0
10
459.566625
20
505.086625
11
459.138109
21
505.722328
0
LINE
8
0
10
459.138109
20
505.722328
11
458.981000
21
506.501000
0
LINE
8
0
10
469.017000
20
230.001000
11
469.174109
21
230.779250
0
LINE
8
0
10
469.174109
20
230.779250
11
469.602625
21
231.415000
0
LINE
8
0
10
469.602625
20
231.415000
11
470.238328
21
231.843750
0
LINE
8
0
10
470.238328
20
231.843750
11
471.017000
21
232.001000
0
LINE
8
0
10
471.017000
20
232.001000
11
471.795250
21
231.843750
0
LINE
8
0
10
471.795250
20
231.843750
11
472.431000
21
231.415000
0
LINE
8
0
10
472.431000
20
231.415000
11
472.859750
21
230.779250
0
LINE
8
0
10
472.859750
20
230.779250
11
473.017000
21
230.001000
0
LINE
8
0
10
473.017000
20
230.001000
11
472.859750
21
229.222469
0
LINE
8
0
10
472.859750
20
229.222469
11
472.431000
21
228.587000
0
LINE
8
0
10
472.431000
20
228.587000
11
471.795250
21
228.158531
0
LINE
8
0
10
471.795250
20
228.158531
11
471.017000
21
228.001000
0
LINE
8
0
10
471.017000
20
228.001000
11
470.238328
21
228.158109
0
LINE
8
0
10
470.238328
20
228.158109
11
469.602625
21
228.586625
0
LINE
8
0
10
469.602625
20
228.586625
11
469.174109
21
229.222328
0
LINE
8
0
10
469.174109
20
229.222328
11
469.017000
21
230.001000
0
LINE
8
0
10
469.017000
20
310.001000
11
469.174109
21
310.779828
0
LINE
8
0
10
469.174109
20
310.779828
11
469.602625
21
311.415875
0
LINE
8
0
10
469.602625
20
311.415875
11
470.238328
21
311.844734
0
LINE
8
0
10
470.238328
20
311.844734
11
471.017000
21
312.002000
0
LINE
8
0
10
471.017000
20
312.002000
11
471.795250
21
311.844734
0
LINE
8
0
10
471.795250
20
311.844734
11
472.431000
21
311.415875
0
LINE
8
0
10
472.431000
20
311.415875
11
472.859750
21
310.779828
0
LINE
8
0
10
472.859750
20
310.779828
11
473.017000
21
310.001000
0
LINE
8
0
10
473.017000
20
310.001000
11
472.859750
21
309.222750
0
LINE
8
0
10
472.859750
20
309.222750
11
472.431000
21
308.587000
0
LINE
8
0
10
472.431000
20
308.587000
11
471.795250
21
308.158250
0
LINE
8
0
10
471.795250
20
308.158250
11
471.017000
21
308.001000
0
LINE
8
0
10
471.017000
20
308.001000
11
470.238328
21
308.158109
0
LINE
8
0
10
470.238328
20
308.158109
11
469.602625
21
308.586625
0
LINE
8
0
10
469.602625
20
308.586625
11
469.174109
21
309.222328
0
LINE
8
0
10
469.174109
20
309.222328
11
469.017000
21
310.001000
0
LINE
8
0
10
469.017000
20
426.501000
11
469.174109
21
427.279672
0
LINE
8
0
10
469.174109
20
427.279672
11
469.602625
21
427.915375
0
LINE
8
0
10
469.602625
20
427.915375
11
470.238328
21
428.343891
0
LINE
8
0
10
470.238328
20
428.343891
11
471.017000
21
428.501000
0
LINE
8
0
10
471.017000
20
428.501000
11
471.795250
21
428.343891
0
LINE
8
0
10
471.795250
20
428.343891
11
472.431000
21
427.915375
0
LINE
8
0
10
472.431000
20
427.915375
11
472.859750
21
427.279672
0
LINE
8
0
10
472.859750
20
427.279672
11
473.017000
21
426.501000
0
LINE
8
0
10
473.017000
20
426.501000
11
472.859750
21
425.722906
0
LINE
8
0
10
472.859750
20
425.722906
11
472.431000
21
425.087500
0
LINE
8
0
10
472.431000
20
425.087500
11
471.795250
21
424.659094
0
LINE
8
0
10
471.795250
20
424.659094
11
471.017000
21
424.502000
0
LINE
8
0
10
471.017000
20
424.502000
11
470.238328
21
424.658953
0
LINE
8
0
10
470.238328
20
424.658953
11
469.602625
21
425.087125
0
LINE
8
0
10
469.602625
20
425.087125
11
469.174109
21
425.722484
0
LINE
8
0
10
469.174109
20
425.722484
11
469.017000
21
426.501000
0
LINE
8
0
10
469.017000
20
506.501000
11
469.174109
21
507.279672
0
LINE
8
0
10
469.174109
20
507.279672
11
469.602625
21
507.915375
0
LINE
8
0
10
469.602625
20
507.915375
11
470.238328
21
508.343891
0
LINE
8
0
10
470.238328
20
508.343891
11
471.017000
21
508.501000
0
LINE
8
0
10
471.017000
20
508.501000
11
471.795250
21
508.343891
0
LINE
8
0
10
471.795250
20
508.343891
11
472.431000
21
507.915375
0
LINE
8
0
10
472.431000
20
507.915375
11
472.859750
21
507.279672
0
LINE
8
0
10
472.859750
20
507.279672
11
473.017000
21
506.501000
0
LINE
8
0
10
473.017000
20
506.501000
11
472.859750
21
505.722750
0
LINE
8
0
10
472.859750
20
505.722750
11
472.431000
21
505.087000
0
LINE
8
0
10
472.431000
20
505.087000
11
471.795250
21
504.658250
0
LINE
8
0
10
471.795250
20
504.658250
11
471.017000
21
504.501000
0
LINE
8
0
10
471.017000
20
504.501000
11
470.238328
21
504.658109
0
LINE
8
0
10
470.238328
20
504.658109
11
469.602625
21
505.086625
0
LINE
8
0
10
469.602625
20
505.086625
11
469.174109
21
505.722328
0
LINE
8
0
10
469.174109
20
505.722328
11
469.017000
21
506.501000
0
LINE
8
0
10
478.000000
20
230.000000
11
478.101230
21
228.990150
0
LINE
8
0
10
478.101230
20
228.990150
11
478.391719
21
228.050578
0
LINE
8
0
10
478.391719
20
228.050578
11
478.851660
21
227.201123
0
LINE
8
0
10
478.851660
20
227.201123
11
479.461250
21
226.461625
0
LINE
8
0
10
479.461250
20
226.461625
11
480.200684
21
225.851924
0
LINE
8
0
10
480.200684
20
225.851924
11
481.050156
21
225.391859
0
LINE
8
0
10
481.050156
20
225.391859
11
481.989863
21
225.101271
0
LINE
8
0
10
481.989863
20
225.101271
11
483.000000
21
225.000000
0
LINE
8
0
10
632.999000
20
225.000000
11
634.009137
21
225.101271
0
LINE
8
0
10
634.009137
20
225.101271
11
634.948844
21
225.391859
0
LINE
8
0
10
634.948844
20
225.391859
11
635.798316
21
225.851924
0
LINE
8
0
10
635.798316
20
225.851924
11
636.537750
21
226.461625
0
LINE
8
0
10
636.537750
20
226.461625
11
637.147340
21
227.201123
0
LINE
8
0
10
637.147340
20
227.201123
11
637.607281
21
228.050578
0
LINE
8
0
10
637.607281
20
228.050578
11
637.897770
21
228.990150
0
LINE
8
0
10
637.897770
20
228.990150
11
637.999000
21
230.000000
0
LINE
8
0
10
483.000000
20
225.000000
11
632.999000
21
225.000000
0
LINE
8
0
10
637.999000
20
506.500000
11
637.897770
21
507.510137
0
LINE
8
0
10
637.897770
20
507.510137
11
637.607281
21
508.449844
0
LINE
8
0
10
637.607281
20
508.449844
11
637.147340
21
509.299316
0
LINE
8
0
10
637.147340
20
509.299316
11
636.537750
21
510.038750
0
LINE
8
0
10
636.537750
20
510.038750
11
635.798316
21
510.648340
0
LINE
8
0
10
635.798316
20
510.648340
11
634.948844
21
511.108281
0
LINE
8
0
10
634.948844
20
511.108281
11
634.009137
21
511.398770
0
LINE
8
0
10
634.009137
20
511.398770
11
632.999000
21
511.500000
0
LINE
8
0
10
637.999000
20
230.000000
11
637.999000
21
506.500000
0
LINE
8
0
10
483.000000
20
511.500000
11
481.989863
21
511.398770
0
LINE
8
0
10
481.989863
20
511.398770
11
481.050156
21
511.108281
0
LINE
8
0
10
481.050156
20
511.108281
11
480.200684
21
510.648340
0
LINE
8
0
10
480.200684
20
510.648340
11
479.461250
21
510.038750
0
LINE
8
0
10
479.461250
20
510.038750
11
478.851660
21
509.299316
0
LINE
8
0
10
478.851660
20
509.299316
11
478.391719
21
508.449844
0
LINE
8
0
10
478.391719
20
508.449844
11
478.101230
21
507.510137
0
LINE
8
0
10
478.101230
20
507.510137
11
478.000000
21
506.500000
0
LINE
8
0
10
632.999000
20
511.500000
11
483.000000
21
511.500000
0
LINE
8
0
10
481.017000
20
230.000000
11
481.174250
21
230.778828
0
LINE
8
0
10
481.174250
20
230.778828
11
481.603000
21
231.414875
0
LINE
8
0
10
481.603000
20
231.414875
11
482.238750
21
231.843734
0
LINE
8
0
10
482.238750
20
231.843734
11
483.017000
21
232.001000
0
LINE
8
0
10
483.017000
20
232.001000
11
483.795672
21
231.843734
0
LINE
8
0
10
483.795672
20
231.843734
11
484.431375
21
231.414875
0
LINE
8
0
10
484.431375
20
231.414875
11
484.859891
21
230.778828
0
LINE
8
0
10
484.859891
20
230.778828
11
485.017000
21
230.000000
0
LINE
8
0
10
485.017000
20
230.000000
11
484.859891
21
229.221906
0
LINE
8
0
10
484.859891
20
229.221906
11
484.431375
21
228.586500
0
LINE
8
0
10
484.431375
20
228.586500
11
483.795672
21
228.158094
0
LINE
8
0
10
483.795672
20
228.158094
11
483.017000
21
228.001000
0
LINE
8
0
10
483.017000
20
228.001000
11
482.238750
21
228.158094
0
LINE
8
0
10
482.238750
20
228.158094
11
481.603000
21
228.586500
0
LINE
8
0
10
481.603000
20
228.586500
11
481.174250
21
229.221906
0
LINE
8
0
10
481.174250
20
229.221906
11
481.017000
21
230.000000
0
LINE
8
0
10
478.000000
20
506.500000
11
478.000000
21
230.000000
0
LINE
8
0
10
481.017000
20
310.001000
11
481.174250
21
310.779672
0
LINE
8
0
10
481.174250
20
310.779672
11
481.603000
21
311.415375
0
LINE
8
0
10
481.603000
20
311.415375
11
482.238750
21
311.843891
0
LINE
8
0
10
482.238750
20
311.843891
11
483.017000
21
312.001000
0
LINE
8
0
10
483.017000
20
312.001000
11
483.795672
21
311.843891
0
LINE
8
0
10
483.795672
20
311.843891
11
484.431375
21
311.415375
0
LINE
8
0
10
484.431375
20
311.415375
11
484.859891
21
310.779672
0
LINE
8
0
10
484.859891
20
310.779672
11
485.017000
21
310.001000
0
LINE
8
0
10
485.017000
20
310.001000
11
484.859891
21
309.222187
0
LINE
8
0
10
484.859891
20
309.222187
11
484.431375
21
308.586250
0
LINE
8
0
10
484.431375
20
308.586250
11
483.795672
21
308.157687
0
LINE
8
0
10
483.795672
20
308.157687
11
483.017000
21
308.001000
0
LINE
8
0
10
483.017000
20
308.001000
11
482.238750
21
308.158109
0
LINE
8
0
10
482.238750
20
308.158109
11
481.603000
21
308.586625
0
LINE
8
0
10
481.603000
20
308.586625
11
481.174250
21
309.222328
0
LINE
8
0
10
481.174250
20
309.222328
11
481.017000
21
310.001000
0
LINE
8
0
10
481.017000
20
426.501000
11
481.174250
21
427.279672
0
LINE
8
0
10
481.174250
20
427.279672
11
481.603000
21
427.915375
0
LINE
8
0
10
481.603000
20
427.915375
11
482.238750
21
428.343891
0
LINE
8
0
10
482.238750
20
428.343891
11
483.017000
21
428.501000
0
LINE
8
0
10
483.017000
20
428.501000
11
483.795672
21
428.343891
0
LINE
8
0
10
483.795672
20
428.343891
11
484.431375
21
427.915375
0
LINE
8
0
10
484.431375
20
427.915375
11
484.859891
21
427.279672
0
LINE
8
0
10
484.859891
20
427.279672
11
485.017000
21
426.501000
0
LINE
8
0
10
485.017000
20
426.501000
11
484.859891
21
425.722328
0
LINE
8
0
10
484.859891
20
425.722328
11
484.431375
21
425.086625
0
LINE
8
0
10
484.431375
20
425.086625
11
483.795672
21
424.658109
0
LINE
8
0
10
483.795672
20
424.658109
11
483.017000
21
424.501000
0
LINE
8
0
10
483.017000
20
424.501000
11
482.238750
21
424.658250
0
LINE
8
0
10
482.238750
20
424.658250
11
481.603000
21
425.087000
0
LINE
8
0
10
481.603000
20
425.087000
11
481.174250
21
425.722750
0
LINE
8
0
10
481.174250
20
425.722750
11
481.017000
21
426.501000
0
LINE
8
0
10
481.017000
20
506.501000
11
481.174250
21
507.279250
0
LINE
8
0
10
481.174250
20
507.279250
11
481.603000
21
507.915000
0
LINE
8
0
10
481.603000
20
507.915000
11
482.238750
21
508.343750
0
LINE
8
0
10
482.238750
20
508.343750
11
483.017000
21
508.501000
0
LINE
8
0
10
483.017000
20
508.501000
11
483.795672
21
508.343891
0
LINE
8
0
10
483.795672
20
508.343891
11
484.431375
21
507.915375
0
LINE
8
0
10
484.431375
20
507.915375
11
484.859891
21
507.279672
0
LINE
8
0
10
484.859891
20
507.279672
11
485.017000
21
506.501000
0
LINE
8
0
10
485.017000
20
506.501000
11
484.859891
21
505.722187
0
LINE
8
0
10
484.859891
20
505.722187
11
484.431375
21
505.086250
0
LINE
8
0
10
484.431375
20
505.086250
11
483.795672
21
504.657687
0
LINE
8
0
10
483.795672
20
504.657687
11
483.017000
21
504.501000
0
LINE
8
0
10
483.017000
20
504.501000
11
482.238750
21
504.658109
0
LINE
8
0
10
482.238750
20
504.658109
11
481.603000
21
505.086625
0
LINE
8
0
10
481.603000
20
505.086625
11
481.174250
21
505.722328
0
LINE
8
0
10
481.174250
20
505.722328
11
481.017000
21
506.501000
0
LINE
8
0
10
491.054000
20
230.000000
11
491.211094
21
230.778828
0
LINE
8
0
10
491.211094
20
230.778828
11
491.639500
21
231.414875
0
LINE
8
0
10
491.639500
20
231.414875
11
492.274906
21
231.843734
0
LINE
8
0
10
492.274906
20
231.843734
11
493.053000
21
232.001000
0
LINE
8
0
10
493.053000
20
232.001000
11
493.831672
21
231.843734
0
LINE
8
0
10
493.831672
20
231.843734
11
494.467375
21
231.414875
0
LINE
8
0
10
494.467375
20
231.414875
11
494.895891
21
230.778828
0
LINE
8
0
10
494.895891
20
230.778828
11
495.053000
21
230.000000
0
LINE
8
0
10
495.053000
20
230.000000
11
494.895891
21
229.221906
0
LINE
8
0
10
494.895891
20
229.221906
11
494.467375
21
228.586500
0
LINE
8
0
10
494.467375
20
228.586500
11
493.831672
21
228.158094
0
LINE
8
0
10
493.831672
20
228.158094
11
493.053000
21
228.001000
0
LINE
8
0
10
493.053000
20
228.001000
11
492.274906
21
228.158094
0
LINE
8
0
10
492.274906
20
228.158094
11
491.639500
21
228.586500
0
LINE
8
0
10
491.639500
20
228.586500
11
491.211094
21
229.221906
0
LINE
8
0
10
491.211094
20
229.221906
11
491.054000
21
230.000000
0
LINE
8
0
10
491.054000
20
506.501000
11
491.211094
21
507.279250
0
LINE
8
0
10
491.211094
20
507.279250
11
491.639500
21
507.915000
0
LINE
8
0
10
491.639500
20
507.915000
11
492.274906
21
508.343750
0
LINE
8
0
10
492.274906
20
508.343750
11
493.053000
21
508.501000
0
LINE
8
0
10
493.053000
20
508.501000
11
493.831672
21
508.343891
0
LINE
8
0
10
493.831672
20
508.343891
11
494.467375
21
507.915375
0
LINE
8
0
10
494.467375
20
507.915375
11
494.895891
21
507.279672
0
LINE
8
0
10
494.895891
20
507.279672
11
495.053000
21
506.501000
0
LINE
8
0
10
495.053000
20
506.501000
11
494.895891
21
505.722187
0
LINE
8
0
10
494.895891
20
505.722187
11
494.467375
21
505.086250
0
LINE
8
0
10
494.467375
20
505.086250
11
493.831672
21
504.657687
0
LINE
8
0
10
493.831672
20
504.657687
11
493.053000
21
504.501000
0
LINE
8
0
10
493.053000
20
504.501000
11
492.274906
21
504.658109
0
LINE
8
0
10
492.274906
20
504.658109
11
491.639500
21
505.086625
0
LINE
8
0
10
491.639500
20
505.086625
11
491.211094
21
505.722328
0
LINE
8
0
10
491.211094
20
505.722328
11
491.054000
21
506.501000
0
LINE
8
0
10
508.370000
20
404.095000
11
508.659750
21
405.041000
0
LINE
8
0
10
508.659750
20
405.041000
11
509.368000
21
405.732000
0
LINE
8
0
10
509.368000
20
405.732000
11
510.120563
21
405.985078
0
LINE
8
0
10
510.120563
20
405.985078
11
510.885500
21
405.931875
0
LINE
8
0
10
510.885500
20
405.931875
11
511.574687
21
405.595734
0
LINE
8
0
10
511.574687
20
405.595734
11
512.100000
21
405.000000
0
LINE
8
0
10
512.100000
20
405.000000
11
512.352938
21
404.247578
0
LINE
8
0
10
512.352938
20
404.247578
11
512.299500
21
403.482875
0
LINE
8
0
10
512.299500
20
403.482875
11
511.963312
21
402.793734
0
LINE
8
0
10
511.963312
20
402.793734
11
511.368000
21
402.268000
0
LINE
8
0
10
511.368000
20
402.268000
11
510.615016
21
402.014922
0
LINE
8
0
10
510.615016
20
402.014922
11
509.850125
21
402.068125
0
LINE
8
0
10
509.850125
20
402.068125
11
509.161172
21
402.404266
0
LINE
8
0
10
509.161172
20
402.404266
11
508.636000
21
403.000000
0
LINE
8
0
10
508.636000
20
403.000000
11
508.424250
21
403.528375
0
LINE
8
0
10
508.424250
20
403.528375
11
508.370000
21
404.095000
0
LINE
8
0
10
508.370000
20
458.905000
11
508.424250
21
459.471625
0
LINE
8
0
10
508.424250
20
459.471625
11
508.636000
21
460.000000
0
LINE
8
0
10
508.636000
20
460.000000
11
509.161172
21
460.595734
0
LINE
8
0
10
509.161172
20
460.595734
11
509.850125
21
460.931875
0
LINE
8
0
10
509.850125
20
460.931875
11
510.615016
21
460.985078
0
LINE
8
0
10
510.615016
20
460.985078
11
511.368000
21
460.732000
0
LINE
8
0
10
511.368000
20
460.732000
11
511.963875
21
460.206828
0
LINE
8
0
10
511.963875
20
460.206828
11
512.300250
21
459.517875
0
LINE
8
0
10
512.300250
20
459.517875
11
512.353500
21
458.752984
0
LINE
8
0
10
512.353500
20
458.752984
11
512.100000
21
458.000000
0
LINE
8
0
10
512.100000
20
458.000000
11
511.574828
21
457.404125
0
LINE
8
0
10
511.574828
20
457.404125
11
510.885875
21
457.067750
0
LINE
8
0
10
510.885875
20
457.067750
11
510.120984
21
457.014500
0
LINE
8
0
10
510.120984
20
457.014500
11
509.368000
21
457.268000
0
LINE
8
0
10
509.368000
20
457.268000
11
508.660125
21
457.959000
0
LINE
8
0
10
508.660125
20
457.959000
11
508.370000
21
458.905000
0
LINE
8
0
10
511.499000
20
431.500000
11
511.726537
21
436.096078
0
LINE
8
0
10
511.726537
20
436.096078
11
512.400734
21
440.614250
0
LINE
8
0
10
512.400734
20
440.614250
11
513.508971
21
445.024047
0
LINE
8
0
10
513.508971
20
445.024047
11
515.038625
21
449.295000
0
LINE
8
0
10
515.038625
20
449.295000
11
516.977076
21
453.396641
0
LINE
8
0
10
516.977076
20
453.396641
11
519.311703
21
457.298500
0
LINE
8
0
10
519.311703
20
457.298500
11
522.029885
21
460.970109
0
LINE
8
0
10
522.029885
20
460.970109
11
525.119000
21
464.381000
0
LINE
8
0
10
525.119000
20
464.381000
11
528.529602
21
467.469785
0
LINE
8
0
10
528.529602
20
467.469785
11
532.201063
21
470.187719
0
LINE
8
0
10
532.201063
20
470.187719
11
536.102867
21
472.522168
0
LINE
8
0
10
536.102867
20
472.522168
11
540.204500
21
474.460500
0
LINE
8
0
10
540.204500
20
474.460500
11
544.475445
21
475.990082
0
LINE
8
0
10
544.475445
20
475.990082
11
548.885188
21
477.098281
0
LINE
8
0
10
548.885188
20
477.098281
11
553.403211
21
477.772465
0
LINE
8
0
10
553.403211
20
477.772465
11
557.999000
21
478.000000
0
LINE
8
0
10
557.999000
20
478.000000
11
562.753315
21
477.759923
0
LINE
8
0
10
562.753315
20
477.759923
11
567.370303
21
477.055275
0
LINE
8
0
10
567.370303
20
477.055275
11
571.826588
21
475.909431
0
LINE
8
0
10
571.826588
20
475.909431
11
576.098797
21
474.345766
0
LINE
8
0
10
576.098797
20
474.345766
11
580.163554
21
472.387653
0
LINE
8
0
10
580.163554
20
472.387653
11
583.997486
21
470.058467
0
LINE
8
0
10
583.997486
20
470.058467
11
587.577218
21
467.381583
0
LINE
8
0
10
587.577218
20
467.381583
11
590.879375
21
464.380375
0
LINE
8
0
10
590.879375
20
464.380375
11
593.880583
21
461.078218
0
LINE
8
0
10
593.880583
20
461.078218
11
596.557467
21
457.498486
0
LINE
8
0
10
596.557467
20
457.498486
11
598.886653
21
453.664554
0
LINE
8
0
10
598.886653
20
453.664554
11
600.844766
21
449.599797
0
LINE
8
0
10
600.844766
20
449.599797
11
602.408431
21
445.327588
0
LINE
8
0
10
602.408431
20
445.327588
11
603.554275
21
440.871303
0
LINE
8
0
10
603.554275
20
440.871303
11
604.258923
21
436.254315
0
LINE
8
0
10
604.258923
20
436.254315
11
604.499000
21
431.500000
0
LINE
8
0
10
604.499000
20
431.500000
11
604.258923
21
426.745685
0
LINE
8
0
10
604.258923
20
426.745685
11
603.554275
21
422.128697
0
LINE
8
0
10
603.554275
20
422.128697
11
602.408431
21
417.672412
0
LINE
8
0
10
602.408431
20
417.672412
11
600.844766
21
413.400203
0
LINE
8
0
10
600.844766
20
413.400203
11
598.886653
21
409.335446
0
LINE
8
0
10
598.886653
20
409.335446
11
596.557467
21
405.501514
0
LINE
8
0
10
596.557467
20
405.501514
11
593.880583
21
401.921782
0
LINE
8
0
10
593.880583
20
401.921782
11
590.879375
21
398.619625
0
LINE
8
0
10
590.879375
20
398.619625
11
587.577218
21
395.618417
0
LINE
8
0
10
587.577218
20
395.618417
11
583.997486
21
392.941533
0
LINE
8
0
10
583.997486
20
392.941533
11
580.163554
21
390.612347
0
LINE
8
0
10
580.163554
20
390.612347
11
576.098797
21
388.654234
0
LINE
8
0
10
576.098797
20
388.654234
11
571.826588
21
387.090569
0
LINE
8
0
10
571.826588
20
387.090569
11
567.370303
21
385.944725
0
LINE
8
0
10
567.370303
20
385.944725
11
562.753315
21
385.240077
0
LINE
8
0
10
562.753315
20
385.240077
11
557.999000
21
385.000000
0
LINE
8
0
10
557.999000
20
385.000000
11
553.403211
21
385.227537
0
LINE
8
0
10
553.403211
20
385.227537
11
548.885188
21
385.901734
0
LINE
8
0
10
548.885188
20
385.901734
11
544.475445
21
387.009971
0
LINE
8
0
10
544.475445
20
387.009971
11
540.204500
21
388.539625
0
LINE
8
0
10
540.204500
20
388.539625
11
536.102867
21
390.478076
0
LINE
8
0
10
536.102867
20
390.478076
11
532.201063
21
392.812703
0
LINE
8
0
10
532.201063
20
392.812703
11
528.529602
21
395.530885
0
LINE
8
0
10
528.529602
20
395.530885
11
525.119000
21
398.620000
0
LINE
8
0
10
525.119000
20
398.620000
11
522.029885
21
402.030602
0
LINE
8
0
10
522.029885
20
402.030602
11
519.311703
21
405.702063
0
LINE
8
0
10
519.311703
20
405.702063
11
516.977076
21
409.603867
0
LINE
8
0
10
516.977076
20
409.603867
11
515.038625
21
413.705500
0
LINE
8
0
10
515.038625
20
413.705500
11
513.508971
21
417.976445
0
LINE
8
0
10
513.508971
20
417.976445
11
512.400734
21
422.386188
0
LINE
8
0
10
512.400734
20
422.386188
11
511.726537
21
426.904211
0
LINE
8
0
10
511.726537
20
426.904211
11
511.499000
21
431.500000
0
LINE
8
0
10
555.999000
20
376.500000
11
556.156250
21
377.278672
0
LINE
8
0
10
556.156250
20
377.278672
11
556.585000
21
377.914375
0
LINE
8
0
10
556.585000
20
377.914375
11
557.220750
21
378.342891
0
LINE
8
0
10
557.220750
20
378.342891
11
557.999000
21
378.500000
0
LINE
8
0
10
557.999000
20
378.500000
11
558.777672
21
378.342891
0
LINE
8
0
10
558.777672
20
378.342891
11
559.413375
21
377.914375
0
LINE
8
0
10
559.413375
20
377.914375
11
559.841891
21
377.278672
0
LINE
8
0
10
559.841891
20
377.278672
11
559.999000
21
376.500000
0
LINE
8
0
10
559.999000
20
376.500000
11
559.841891
21
375.721750
0
LINE
8
0
10
559.841891
20
375.721750
11
559.413375
21
375.086000
0
LINE
8
0
10
559.413375
20
375.086000
11
558.777672
21
374.657250
0
LINE
8
0
10
558.777672
20
374.657250
11
557.999000
21
374.500000
0
LINE
8
0
10
557.999000
20
374.500000
11
557.220750
21
374.657250
0
LINE
8
0
10
557.220750
20
374.657250
11
556.585000
21
375.086000
0
LINE
8
0
10
556.585000
20
375.086000
11
556.156250
21
375.721750
0
LINE
8
0
10
556.156250
20
375.721750
11
555.999000
21
376.500000
0
LINE
8
0
10
555.999000
20
486.500000
11
556.156250
21
487.278250
0
LINE
8
0
10
556.156250
20
487.278250
11
556.585000
21
487.914000
0
LINE
8
0
10
556.585000
20
487.914000
11
557.220750
21
488.342750
0
LINE
8
0
10
557.220750
20
488.342750
11
557.999000
21
488.500000
0
LINE
8
0
10
557.999000
20
488.500000
11
558.777672
21
488.342750
0
LINE
8
0
10
558.777672
20
488.342750
11
559.413375
21
487.914000
0
LINE
8
0
10
559.413375
20
487.914000
11
559.841891
21
487.278250
0
LINE
8
0
10
559.841891
20
487.278250
11
559.999000
21
486.500000
0
LINE
8
0
10
559.999000
20
486.500000
11
559.841891
21
485.721172
0
LINE
8
0
10
559.841891
20
485.721172
11
559.413375
21
485.085125
0
LINE
8
0
10
559.413375
20
485.085125
11
558.777672
21
484.656266
0
LINE
8
0
10
558.777672
20
484.656266
11
557.999000
21
484.499000
0
LINE
8
0
10
557.999000
20
484.499000
11
557.220328
21
484.656266
0
LINE
8
0
10
557.220328
20
484.656266
11
556.584625
21
485.085125
0
LINE
8
0
10
556.584625
20
485.085125
11
556.156109
21
485.721172
0
LINE
8
0
10
556.156109
20
485.721172
11
555.999000
21
486.500000
0
LINE
8
0
10
603.632000
20
403.905000
11
603.686250
21
404.471625
0
LINE
8
0
10
603.686250
20
404.471625
11
603.898000
21
405.000000
0
LINE
8
0
10
603.898000
20
405.000000
11
604.423313
21
405.595734
0
LINE
8
0
10
604.423313
20
405.595734
11
605.112500
21
405.931875
0
LINE
8
0
10
605.112500
20
405.931875
11
605.877438
21
405.985078
0
LINE
8
0
10
605.877438
20
405.985078
11
606.630000
21
405.732000
0
LINE
8
0
10
606.630000
20
405.732000
11
607.225734
21
405.206828
0
LINE
8
0
10
607.225734
20
405.206828
11
607.561875
21
404.517875
0
LINE
8
0
10
607.561875
20
404.517875
11
607.615078
21
403.752984
0
LINE
8
0
10
607.615078
20
403.752984
11
607.362000
21
403.000000
0
LINE
8
0
10
607.362000
20
403.000000
11
606.836828
21
402.404266
0
LINE
8
0
10
606.836828
20
402.404266
11
606.147875
21
402.068125
0
LINE
8
0
10
606.147875
20
402.068125
11
605.382984
21
402.014922
0
LINE
8
0
10
605.382984
20
402.014922
11
604.630000
21
402.268000
0
LINE
8
0
10
604.630000
20
402.268000
11
603.922500
21
402.959000
0
LINE
8
0
10
603.922500
20
402.959000
11
603.632000
21
403.905000
0
LINE
8
0
10
603.632000
20
459.095000
11
603.922125
21
460.041000
0
LINE
8
0
10
603.922125
20
460.041000
11
604.630000
21
460.732000
0
LINE
8
0
10
604.630000
20
460.732000
11
605.382984
21
460.985078
0
LINE
8
0
10
605.382984
20
460.985078
11
606.147875
21
460.931875
0
LINE
8
0
10
606.147875
20
460.931875
11
606.836828
21
460.595734
0
LINE
8
0
10
606.836828
20
460.595734
11
607.362000
21
460.000000
0
LINE
8
0
10
607.362000
20
460.000000
11
607.615078
21
459.247016
0
LINE
8
0
10
607.615078
20
459.247016
11
607.561875
21
458.482125
0
LINE
8
0
10
607.561875
20
458.482125
11
607.225734
21
457.793172
0
LINE
8
0
10
607.225734
20
457.793172
11
606.630000
21
457.268000
0
LINE
8
0
10
606.630000
20
457.268000
11
605.877438
21
457.014500
0
LINE
8
0
10
605.877438
20
457.014500
11
605.112500
21
457.067750
0
LINE
8
0
10
605.112500
20
457.067750
11
604.423313
21
457.404125
0
LINE
8
0
10
604.423313
20
457.404125
11
603.898000
21
458.000000
0
LINE
8
0
10
603.898000
20
458.000000
11
603.686250
21
458.528375
0
LINE
8
0
10
603.686250
20
458.528375
11
603.632000
21
459.095000
0
LINE
8
0
10
620.981000
20
230.001000
11
621.138109
21
230.779828
0
LINE
8
0
10
621.138109
20
230.779828
11
621.566625
21
231.415875
0
LINE
8
0
10
621.566625
20
231.415875
11
622.202328
21
231.844734
0
LINE
8
0
10
622.202328
20
231.844734
11
622.981000
21
232.002000
0
LINE
8
0
10
622.981000
20
232.002000
11
623.759094
21
231.844594
0
LINE
8
0
10
623.759094
20
231.844594
11
624.394500
21
231.415500
0
LINE
8
0
10
624.394500
20
231.415500
11
624.822906
21
230.779406
0
LINE
8
0
10
624.822906
20
230.779406
11
624.980000
21
230.001000
0
LINE
8
0
10
624.980000
20
230.001000
11
624.822906
21
229.222906
0
LINE
8
0
10
624.822906
20
229.222906
11
624.394500
21
228.587500
0
LINE
8
0
10
624.394500
20
228.587500
11
623.759094
21
228.159094
0
LINE
8
0
10
623.759094
20
228.159094
11
622.981000
21
228.002000
0
LINE
8
0
10
622.981000
20
228.002000
11
622.202328
21
228.158953
0
LINE
8
0
10
622.202328
20
228.158953
11
621.566625
21
228.587125
0
LINE
8
0
10
621.566625
20
228.587125
11
621.138109
21
229.222484
0
LINE
8
0
10
621.138109
20
229.222484
11
620.981000
21
230.001000
0
LINE
8
0
10
620.981000
20
506.501000
11
621.138109
21
507.279828
0
LINE
8
0
10
621.138109
20
507.279828
11
621.566625
21
507.915875
0
LINE
8
0
10
621.566625
20
507.915875
11
622.202328
21
508.344734
0
LINE
8
0
10
622.202328
20
508.344734
11
622.981000
21
508.502000
0
LINE
8
0
10
622.981000
20
508.502000
11
623.759094
21
508.344734
0
LINE
8
0
10
623.759094
20
508.344734
11
624.394500
21
507.915875
0
LINE
8
0
10
624.394500
20
507.915875
11
624.822906
21
507.279828
0
LINE
8
0
10
624.822906
20
507.279828
11
624.980000
21
506.501000
0
LINE
8
0
10
624.980000
20
506.501000
11
624.822906
21
505.722750
0
LINE
8
0
10
624.822906
20
505.722750
11
624.394500
21
505.087000
0
LINE
8
0
10
624.394500
20
505.087000
11
623.759094
21
504.658250
0
LINE
8
0
10
623.759094
20
504.658250
11
622.981000
21
504.501000
0
LINE
8
0
10
622.981000
20
504.501000
11
622.202328
21
504.658250
0
LINE
8
0
10
622.202328
20
504.658250
11
621.566625
21
505.087000
0
LINE
8
0
10
621.566625
20
505.087000
11
621.138109
21
505.722750
0
LINE
8
0
10
621.138109
20
505.722750
11
620.981000
21
506.501000
0
LINE
8
0
10
631.017000
20
230.001000
11
631.174094
21
230.779828
0
LINE
8
0
10
631.174094
20
230.779828
11
631.602500
21
231.415875
0
LINE
8
0
10
631.602500
20
231.415875
11
632.237906
21
231.844734
0
LINE
8
0
10
632.237906
20
231.844734
11
633.016000
21
232.002000
0
LINE
8
0
10
633.016000
20
232.002000
11
633.794828
21
231.844594
0
LINE
8
0
10
633.794828
20
231.844594
11
634.430875
21
231.415500
0
LINE
8
0
10
634.430875
20
231.415500
11
634.859734
21
230.779406
0
LINE
8
0
10
634.859734
20
230.779406
11
635.017000
21
230.001000
0
LINE
8
0
10
635.017000
20
230.001000
11
634.859734
21
229.222906
0
LINE
8
0
10
634.859734
20
229.222906
11
634.430875
21
228.587500
0
LINE
8
0
10
634.430875
20
228.587500
11
633.794828
21
228.159094
0
LINE
8
0
10
633.794828
20
228.159094
11
633.016000
21
228.002000
0
LINE
8
0
10
633.016000
20
228.002000
11
632.237906
21
228.158953
0
LINE
8
0
10
632.237906
20
228.158953
11
631.602500
21
228.587125
0
LINE
8
0
10
631.602500
20
228.587125
11
631.174094
21
229.222484
0
LINE
8
0
10
631.174094
20
229.222484
11
631.017000
21
230.001000
0
LINE
8
0
10
631.017000
20
310.002000
11
631.174094
21
310.780250
0
LINE
8
0
10
631.174094
20
310.780250
11
631.602500
21
311.416000
0
LINE
8
0
10
631.602500
20
311.416000
11
632.237906
21
311.844750
0
LINE
8
0
10
632.237906
20
311.844750
11
633.016000
21
312.002000
0
LINE
8
0
10
633.016000
20
312.002000
11
633.794828
21
311.844750
0
LINE
8
0
10
633.794828
20
311.844750
11
634.430875
21
311.416000
0
LINE
8
0
10
634.430875
20
311.416000
11
634.859734
21
310.780250
0
LINE
8
0
10
634.859734
20
310.780250
11
635.017000
21
310.002000
0
LINE
8
0
10
635.017000
20
310.002000
11
634.859734
21
309.223313
0
LINE
8
0
10
634.859734
20
309.223313
11
634.430875
21
308.587500
0
LINE
8
0
10
634.430875
20
308.587500
11
633.794828
21
308.158687
0
LINE
8
0
10
633.794828
20
308.158687
11
633.016000
21
308.001000
0
LINE
8
0
10
633.016000
20
308.001000
11
632.237906
21
308.158266
0
LINE
8
0
10
632.237906
20
308.158266
11
631.602500
21
308.587125
0
LINE
8
0
10
631.602500
20
308.587125
11
631.174094
21
309.223172
0
LINE
8
0
10
631.174094
20
309.223172
11
631.017000
21
310.002000
0
LINE
8
0
10
631.017000
20
426.501000
11
631.174094
21
427.279812
0
LINE
8
0
10
631.174094
20
427.279812
11
631.602500
21
427.915750
0
LINE
8
0
10
631.602500
20
427.915750
11
632.237906
21
428.344313
0
LINE
8
0
10
632.237906
20
428.344313
11
633.016000
21
428.501000
0
LINE
8
0
10
633.016000
20
428.501000
11
633.794828
21
428.343891
0
LINE
8
0
10
633.794828
20
428.343891
11
634.430875
21
427.915375
0
LINE
8
0
10
634.430875
20
427.915375
11
634.859734
21
427.279672
0
LINE
8
0
10
634.859734
20
427.279672
11
635.017000
21
426.501000
0
LINE
8
0
10
635.017000
20
426.501000
11
634.859734
21
425.723047
0
LINE
8
0
10
634.859734
20
425.723047
11
634.430875
21
425.087875
0
LINE
8
0
10
634.430875
20
425.087875
11
633.794828
21
424.659516
0
LINE
8
0
10
633.794828
20
424.659516
11
633.016000
21
424.502000
0
LINE
8
0
10
633.016000
20
424.502000
11
632.237906
21
424.659094
0
LINE
8
0
10
632.237906
20
424.659094
11
631.602500
21
425.087500
0
LINE
8
0
10
631.602500
20
425.087500
11
631.174094
21
425.722906
0
LINE
8
0
10
631.174094
20
425.722906
11
631.017000
21
426.501000
0
LINE
8
0
10
631.017000
20
506.501000
11
631.174094
21
507.279828
0
LINE
8
0
10
631.174094
20
507.279828
11
631.602500
21
507.915875
0
LINE
8
0
10
631.602500
20
507.915875
11
632.237906
21
508.344734
0
LINE
8
0
10
632.237906
20
508.344734
11
633.016000
21
508.502000
0
LINE
8
0
10
633.016000
20
508.502000
11
633.794828
21
508.344734
0
LINE
8
0
10
633.794828
20
508.344734
11
634.430875
21
507.915875
0
LINE
8
0
10
634.430875
20
507.915875
11
634.859734
21
507.279828
0
LINE
8
0
10
634.859734
20
507.279828
11
635.017000
21
506.501000
0
LINE
8
0
10
635.017000
20
506.501000
11
634.859734
21
505.722750
0
LINE
8
0
10
634.859734
20
505.722750
11
634.430875
21
505.087000
0
LINE
8
0
10
634.430875
20
505.087000
11
633.794828
21
504.658250
0
LINE
8
0
10
633.794828
20
504.658250
11
633.016000
21
504.501000
0
LINE
8
0
10
633.016000
20
504.501000
11
632.237906
21
504.658250
0
LINE
8
0
10
632.237906
20
504.658250
11
631.602500
21
505.087000
0
LINE
8
0
10
631.602500
20
505.087000
11
631.174094
21
505.722750
0
LINE
8
0
10
631.174094
20
505.722750
11
631.017000
21
506.501000
0
LINE
8
0
10
640.000000
20
230.000000
11
640.101230
21
228.990150
0
LINE
8
0
10
640.101230
20
228.990150
11
640.391719
21
228.050578
0
LINE
8
0
10
640.391719
20
228.050578
11
640.851660
21
227.201123
0
LINE
8
0
10
640.851660
20
227.201123
11
641.461250
21
226.461625
0
LINE
8
0
10
641.461250
20
226.461625
11
642.200684
21
225.851924
0
LINE
8
0
10
642.200684
20
225.851924
11
643.050156
21
225.391859
0
LINE
8
0
10
643.050156
20
225.391859
11
643.989863
21
225.101271
0
LINE
8
0
10
643.989863
20
225.101271
11
645.000000
21
225.000000
0
LINE
8
0
10
794.999000
20
225.000000
11
796.009137
21
225.101271
0
LINE
8
0
10
796.009137
20
225.101271
11
796.948844
21
225.391859
0
LINE
8
0
10
796.948844
20
225.391859
11
797.798316
21
225.851924
0
LINE
8
0
10
797.798316
20
225.851924
11
798.537750
21
226.461625
0
LINE
8
0
10
798.537750
20
226.461625
11
799.147340
21
227.201123
0
LINE
8
0
10
799.147340
20
227.201123
11
799.607281
21
228.050578
0
LINE
8
0
10
799.607281
20
228.050578
11
799.897770
21
228.990150
0
LINE
8
0
10
799.897770
20
228.990150
11
799.999000
21
230.000000
0
LINE
8
0
10
645.000000
20
225.000000
11
794.999000
21
225.000000
0
LINE
8
0
10
799.999000
20
506.500000
11
799.897770
21
507.510137
0
LINE
8
0
10
799.897770
20
507.510137
11
799.607281
21
508.449844
0
LINE
8
0
10
799.607281
20
508.449844
11
799.147340
21
509.299316
0
LINE
8
0
10
799.147340
20
509.299316
11
798.537750
21
510.038750
0
LINE
8
0
10
798.537750
20
510.038750
11
797.798316
21
510.648340
0
LINE
8
0
10
797.798316
20
510.648340
11
796.948844
21
511.108281
0
LINE
8
0
10
796.948844
20
511.108281
11
796.009137
21
511.398770
0
LINE
8
0
10
796.009137
20
511.398770
11
794.999000
21
511.500000
0
LINE
8
0
10
799.999000
20
230.000000
11
799.999000
21
506.500000
0
LINE
8
0
10
645.000000
20
511.500000
11
643.989863
21
511.398770
0
LINE
8
0
10
643.989863
20
511.398770
11
643.050156
21
511.108281
0
LINE
8
0
10
643.050156
20
511.108281
11
642.200684
21
510.648340
0
LINE
8
0
10
642.200684
20
510.648340
11
641.461250
21
510.038750
0
LINE
8
0
10
641.461250
20
510.038750
11
640.851660
21
509.299316
0
LINE
8
0
10
640.851660
20
509.299316
11
640.391719
21
508.449844
0
LINE
8
0
10
640.391719
20
508.449844
11
640.101230
21
507.510137
0
LINE
8
0
10
640.101230
20
507.510137
11
640.000000
21
506.500000
0
LINE
8
0
10
794.999000
20
511.500000
11
645.000000
21
511.500000
0
LINE
8
0
10
643.017000
20
230.000000
11
643.174250
21
230.778828
0
LINE
8
0
10
643.174250
20
230.778828
11
643.603000
21
231.414875
0
LINE
8
0
10
643.603000
20
231.414875
11
644.238750
21
231.843734
0
LINE
8
0
10
644.238750
20
231.843734
11
645.017000
21
232.001000
0
LINE
8
0
10
645.017000
20
232.001000
11
645.795672
21
231.843734
0
LINE
8
0
10
645.795672
20
231.843734
11
646.431375
21
231.414875
0
LINE
8
0
10
646.431375
20
231.414875
11
646.859891
21
230.778828
0
LINE
8
0
10
646.859891
20
230.778828
11
647.017000
21
230.000000
0
LINE
8
0
10
647.017000
20
230.000000
11
646.859891
21
229.221906
0
LINE
8
0
10
646.859891
20
229.221906
11
646.431375
21
228.586500
0
LINE
8
0
10
646.431375
20
228.586500
11
645.795672
21
228.158094
0
LINE
8
0
10
645.795672
20
228.158094
11
645.017000
21
228.001000
0
LINE
8
0
10
645.017000
20
228.001000
11
644.238750
21
228.158094
0
LINE
8
0
10
644.238750
20
228.158094
11
643.603000
21
228.586500
0
LINE
8
0
10
643.603000
20
228.586500
11
643.174250
21
229.221906
0
LINE
8
0
10
643.174250
20
229.221906
11
643.017000
21
230.000000
0
LINE
8
0
10
640.000000
20
506.500000
11
640.000000
21
230.000000
0
LINE
8
0
10
643.017000
20
310.001000
11
643.174250
21
310.779672
0
LINE
8
0
10
643.174250
20
310.779672
11
643.603000
21
311.415375
0
LINE
8
0
10
643.603000
20
311.415375
11
644.238750
21
311.843891
0
LINE
8
0
10
644.238750
20
311.843891
11
645.017000
21
312.001000
0
LINE
8
0
10
645.017000
20
312.001000
11
645.795672
21
311.843891
0
LINE
8
0
10
645.795672
20
311.843891
11
646.431375
21
311.415375
0
LINE
8
0
10
646.431375
20
311.415375
11
646.859891
21
310.779672
0
LINE
8
0
10
646.859891
20
310.779672
11
647.017000
21
310.001000
0
LINE
8
0
10
647.017000
20
310.001000
11
646.859891
21
309.222187
0
LINE
8
0
10
646.859891
20
309.222187
11
646.431375
21
308.586250
0
LINE
8
0
10
646.431375
20
308.586250
11
645.795672
21
308.157687
0
LINE
8
0
10
645.795672
20
308.157687
11
645.017000
21
308.001000
0
LINE
8
0
10
645.017000
20
308.001000
11
644.238750
21
308.158109
0
LINE
8
0
10
644.238750
20
308.158109
11
643.603000
21
308.586625
0
LINE
8
0
10
643.603000
20
308.586625
11
643.174250
21
309.222328
0
LINE
8
0
10
643.174250
20
309.222328
11
643.017000
21
310.001000
0
LINE
8
0
10
643.017000
20
426.501000
11
643.174250
21
427.279672
0
LINE
8
0
10
643.174250
20
427.279672
11
643.603000
21
427.915375
0
LINE
8
0
10
643.603000
20
427.915375
11
644.238750
21
428.343891
0
LINE
8
0
10
644.238750
20
428.343891
11
645.017000
21
428.501000
0
LINE
8
0
10
645.017000
20
428.501000
11
645.795672
21
428.343891
0
LINE
8
0
10
645.795672
20
428.343891
11
646.431375
21
427.915375
0
LINE
8
0
10
646.431375
20
427.915375
11
646.859891
21
427.279672
0
LINE
8
0
10
646.859891
20
427.279672
11
647.017000
21
426.501000
0
LINE
8
0
10
647.017000
20
426.501000
11
646.859891
21
425.722328
0
LINE
8
0
10
646.859891
20
425.722328
11
646.431375
21
425.086625
0
LINE
8
0
10
646.431375
20
425.086625
11
645.795672
21
424.658109
0
LINE
8
0
10
645.795672
20
424.658109
11
645.017000
21
424.501000
0
LINE
8
0
10
645.017000
20
424.501000
11
644.238750
21
424.658250
0
LINE
8
0
10
644.238750
20
424.658250
11
643.603000
21
425.087000
0
LINE
8
0
10
643.603000
20
425.087000
11
643.174250
21
425.722750
0
LINE
8
0
10
643.174250
20
425.722750
11
643.017000
21
426.501000
0
LINE
8
0
10
643.017000
20
506.501000
11
643.174250
21
507.279250
0
LINE
8
0
10
643.174250
20
507.279250
11
643.603000
21
507.915000
0
LINE
8
0
10
643.603000
20
507.915000
11
644.238750
21
508.343750
0
LINE
8
0
10
644.238750
20
508.343750
11
645.017000
21
508.501000
0
LINE
8
0
10
645.017000
20
508.501000
11
645.795672
21
508.343891
0
LINE
8
0
10
645.795672
20
508.343891
11
646.431375
21
507.915375
0
LINE
8
0
10
646.431375
20
507.915375
11
646.859891
21
507.279672
0
LINE
8
0
10
646.859891
20
507.279672
11
647.017000
21
506.501000
0
LINE
8
0
10
647.017000
20
506.501000
11
646.859891
21
505.722187
0
LINE
8
0
10
646.859891
20
505.722187
11
646.431375
21
505.086250
0
LINE
8
0
10
646.431375
20
505.086250
11
645.795672
21
504.657687
0
LINE
8
0
10
645.795672
20
504.657687
11
645.017000
21
504.501000
0
LINE
8
0
10
645.017000
20
504.501000
11
644.238750
21
504.658109
0
LINE
8
0
10
644.238750
20
504.658109
11
643.603000
21
505.086625
0
LINE
8
0
10
643.603000
20
505.086625
11
643.174250
21
505.722328
0
LINE
8
0
10
643.174250
20
505.722328
11
643.017000
21
506.501000
0
LINE
8
0
10
653.054000
20
230.000000
11
653.211094
21
230.778828
0
LINE
8
0
10
653.211094
20
230.778828
11
653.639500
21
231.414875
0
LINE
8
0
10
653.639500
20
231.414875
11
654.274906
21
231.843734
0
LINE
8
0
10
654.274906
20
231.843734
11
655.053000
21
232.001000
0
LINE
8
0
10
655.053000
20
232.001000
11
655.831672
21
231.843734
0
LINE
8
0
10
655.831672
20
231.843734
11
656.467375
21
231.414875
0
LINE
8
0
10
656.467375
20
231.414875
11
656.895891
21
230.778828
0
LINE
8
0
10
656.895891
20
230.778828
11
657.053000
21
230.000000
0
LINE
8
0
10
657.053000
20
230.000000
11
656.895891
21
229.221906
0
LINE
8
0
10
656.895891
20
229.221906
11
656.467375
21
228.586500
0
LINE
8
0
10
656.467375
20
228.586500
11
655.831672
21
228.158094
0
LINE
8
0
10
655.831672
20
228.158094
11
655.053000
21
228.001000
0
LINE
8
0
10
655.053000
20
228.001000
11
654.274906
21
228.158094
0
LINE
8
0
10
654.274906
20
228.158094
11
653.639500
21
228.586500
0
LINE
8
0
10
653.639500
20
228.586500
11
653.211094
21
229.221906
0
LINE
8
0
10
653.211094
20
229.221906
11
653.054000
21
230.000000
0
LINE
8
0
10
653.054000
20
506.501000
11
653.211094
21
507.279250
0
LINE
8
0
10
653.211094
20
507.279250
11
653.639500
21
507.915000
0
LINE
8
0
10
653.639500
20
507.915000
11
654.274906
21
508.343750
0
LINE
8
0
10
654.274906
20
508.343750
11
655.053000
21
508.501000
0
LINE
8
0
10
655.053000
20
508.501000
11
655.831672
21
508.343891
0
LINE
8
0
10
655.831672
20
508.343891
11
656.467375
21
507.915375
0
LINE
8
0
10
656.467375
20
507.915375
11
656.895891
21
507.279672
0
LINE
8
0
10
656.895891
20
507.279672
11
657.053000
21
506.501000
0
LINE
8
0
10
657.053000
20
506.501000
11
656.895891
21
505.722187
0
LINE
8
0
10
656.895891
20
505.722187
11
656.467375
21
505.086250
0
LINE
8
0
10
656.467375
20
505.086250
11
655.831672
21
504.657687
0
LINE
8
0
10
655.831672
20
504.657687
11
655.053000
21
504.501000
0
LINE
8
0
10
655.053000
20
504.501000
11
654.274906
21
504.658109
0
LINE
8
0
10
654.274906
20
504.658109
11
653.639500
21
505.086625
0
LINE
8
0
10
653.639500
20
505.086625
11
653.211094
21
505.722328
0
LINE
8
0
10
653.211094
20
505.722328
11
653.054000
21
506.501000
0
LINE
8
0
10
670.370000
20
404.095000
11
670.659750
21
405.041000
0
LINE
8
0
10
670.659750
20
405.041000
11
671.368000
21
405.732000
0
LINE
8
0
10
671.368000
20
405.732000
11
672.120563
21
405.985078
0
LINE
8
0
10
672.120563
20
405.985078
11
672.885500
21
405.931875
0
LINE
8
0
10
672.885500
20
405.931875
11
673.574687
21
405.595734
0
LINE
8
0
10
673.574687
20
405.595734
11
674.100000
21
405.000000
0
LINE
8
0
10
674.100000
20
405.000000
11
674.352938
21
404.247578
0
LINE
8
0
10
674.352938
20
404.247578
11
674.299500
21
403.482875
0
LINE
8
0
10
674.299500
20
403.482875
11
673.963313
21
402.793734
0
LINE
8
0
10
673.963313
20
402.793734
11
673.368000
21
402.268000
0
LINE
8
0
10
673.368000
20
402.268000
11
672.615016
21
402.014922
0
LINE
8
0
10
672.615016
20
402.014922
11
671.850125
21
402.068125
0
LINE
8
0
10
671.850125
20
402.068125
11
671.161172
21
402.404266
0
LINE
8
0
10
671.161172
20
402.404266
11
670.636000
21
403.000000
0
LINE
8
0
10
670.636000
20
403.000000
11
670.424250
21
403.528375
0
LINE
8
0
10
670.424250
20
403.528375
11
670.370000
21
404.095000
0
LINE
8
0
10
670.370000
20
458.905000
11
670.424250
21
459.471625
0
LINE
8
0
10
670.424250
20
459.471625
11
670.636000
21
460.000000
0
LINE
8
0
10
670.636000
20
460.000000
11
671.161172
21
460.595734
0
LINE
8
0
10
671.161172
20
460.595734
11
671.850125
21
460.931875
0
LINE
8
0
10
671.850125
20
460.931875
11
672.615016
21
460.985078
0
LINE
8
0
10
672.615016
20
460.985078
11
673.368000
21
460.732000
0
LINE
8
0
10
673.368000
20
460.732000
11
673.963875
21
460.206828
0
LINE
8
0
10
673.963875
20
460.206828
11
674.300250
21
459.517875
0
LINE
8
0
10
674.300250
20
459.517875
11
674.353500
21
458.752984
0
LINE
8
0
10
674.353500
20
458.752984
11
674.100000
21
458.000000
0
LINE
8
0
10
674.100000
20
458.000000
11
673.574828
21
457.404125
0
LINE
8
0
10
673.574828
20
457.404125
11
672.885875
21
457.067750
0
LINE
8
0
10
672.885875
20
457.067750
11
672.120984
21
457.014500
0
LINE
8
0
10
672.120984
20
457.014500
11
671.368000
21
457.268000
0
LINE
8
0
10
671.368000
20
457.268000
11
670.660125
21
457.959000
0
LINE
8
0
10
670.660125
20
457.959000
11
670.370000
21
458.905000
0
LINE
8
0
10
673.499000
20
431.500000
11
673.726537
21
436.096078
0
LINE
8
0
10
673.726537
20
436.096078
11
674.400734
21
440.614250
0
LINE
8
0
10
674.400734
20
440.614250
11
675.508971
21
445.024047
0
LINE
8
0
10
675.508971
20
445.024047
11
677.038625
21
449.295000
0
LINE
8
0
10
677.038625
20
449.295000
11
678.977076
21
453.396641
0
LINE
8
0
10
678.977076
20
453.396641
11
681.311703
21
457.298500
0
LINE
8
0
10
681.311703
20
457.298500
11
684.029885
21
460.970109
0
LINE
8
0
10
684.029885
20
460.970109
11
687.119000
21
464.381000
0
LINE
8
0
10
687.119000
20
464.381000
11
690.529602
21
467.469785
0
LINE
8
0
10
690.529602
20
467.469785
11
694.201063
21
470.187719
0
LINE
8
0
10
694.201063
20
470.187719
11
698.102867
21
472.522168
0
LINE
8
0
10
698.102867
20
472.522168
11
702.204500
21
474.460500
0
LINE
8
0
10
702.204500
20
474.460500
11
706.475445
21
475.990082
0
LINE
8
0
10
706.475445
20
475.990082
11
710.885188
21
477.098281
0
LINE
8
0
10
710.885188
20
477.098281
11
715.403211
21
477.772465
0
LINE
8
0
10
715.403211
20
477.772465
11
719.999000
21
478.000000
0
LINE
8
0
10
719.999000
20
478.000000
11
724.753315
21
477.759923
0
LINE
8
0
10
724.753315
20
477.759923
11
729.370303
21
477.055275
0
LINE
8
0
10
729.370303
20
477.055275
11
733.826588
21
475.909431
0
LINE
8
0
10
733.826588
20
475.909431
11
738.098797
21
474.345766
0
LINE
8
0
10
738.098797
20
474.345766
11
742.163554
21
472.387653
0
LINE
8
0
10
742.163554
20
472.387653
11
745.997486
21
470.058467
0
LINE
8
0
10
745.997486
20
470.058467
11
749.577218
21
467.381583
0
LINE
8
0
10
749.577218
20
467.381583
11
752.879375
21
464.380375
0
LINE
8
0
10
752.879375
20
464.380375
11
755.880583
21
461.078218
0
LINE
8
0
10
755.880583
20
461.078218
11
758.557467
21
457.498486
0
LINE
8
0
10
758.557467
20
457.498486
11
760.886653
21
453.664554
0
LINE
8
0
10
760.886653
20
453.664554
11
762.844766
21
449.599797
0
LINE
8
0
10
762.844766
20
449.599797
11
764.408431
21
445.327588
0
LINE
8
0
10
764.408431
20
445.327588
11
765.554275
21
440.871303
0
LINE
8
0
10
765.554275
20
440.871303
11
766.258923
21
436.254315
0
LINE
8
0
10
766.258923
20
436.254315
11
766.499000
21
431.500000
0
LINE
8
0
10
766.499000
20
431.500000
11
766.258923
21
426.745696
0
LINE
8
0
10
766.258923
20
426.745696
11
765.554275
21
422.128738
0
LINE
8
0
10
765.554275
20
422.128738
11
764.408431
21
417.672498
0
LINE
8
0
10
764.408431
20
417.672498
11
762.844766
21
413.400344
0
LINE
8
0
10
762.844766
20
413.400344
11
760.886653
21
409.335647
0
LINE
8
0
10
760.886653
20
409.335647
11
758.557467
21
405.501777
0
LINE
8
0
10
758.557467
20
405.501777
11
755.880583
21
401.922105
0
LINE
8
0
10
755.880583
20
401.922105
11
752.879375
21
398.620000
0
LINE
8
0
10
752.879375
20
398.620000
11
749.577218
21
395.618833
0
LINE
8
0
10
749.577218
20
395.618833
11
745.997486
21
392.941973
0
LINE
8
0
10
745.997486
20
392.941973
11
742.163554
21
390.612791
0
LINE
8
0
10
742.163554
20
390.612791
11
738.098797
21
388.654656
0
LINE
8
0
10
738.098797
20
388.654656
11
733.826588
21
387.090940
0
LINE
8
0
10
733.826588
20
387.090940
11
729.370303
21
385.945012
0
LINE
8
0
10
729.370303
20
385.945012
11
724.753315
21
385.240242
0
LINE
8
0
10
724.753315
20
385.240242
11
719.999000
21
385.000000
0
LINE
8
0
10
719.999000
20
385.000000
11
715.403211
21
385.227537
0
LINE
8
0
10
715.403211
20
385.227537
11
710.885188
21
385.901734
0
LINE
8
0
10
710.885188
20
385.901734
11
706.475445
21
387.009971
0
LINE
8
0
10
706.475445
20
387.009971
11
702.204500
21
388.539625
0
LINE
8
0
10
702.204500
20
388.539625
11
698.102867
21
390.478076
0
LINE
8
0
10
698.102867
20
390.478076
11
694.201063
21
392.812703
0
LINE
8
0
10
694.201063
20
392.812703
11
690.529602
21
395.530885
0
LINE
8
0
10
690.529602
20
395.530885
11
687.119000
21
398.620000
0
LINE
8
0
10
687.119000
20
398.620000
11
684.029885
21
402.030602
0
LINE
8
0
10
684.029885
20
402.030602
11
681.311703
21
405.702063
0
LINE
8
0
10
681.311703
20
405.702063
11
678.977076
21
409.603867
0
LINE
8
0
10
678.977076
20
409.603867
11
677.038625
21
413.705500
0
LINE
8
0
10
677.038625
20
413.705500
11
675.508971
21
417.976445
0
LINE
8
0
10
675.508971
20
417.976445
11
674.400734
21
422.386188
0
LINE
8
0
10
674.400734
20
422.386188
11
673.726537
21
426.904211
0
LINE
8
0
10
673.726537
20
426.904211
11
673.499000
21
431.500000
0
LINE
8
0
10
717.999000
20
376.500000
11
718.156250
21
377.278672
0
LINE
8
0
10
718.156250
20
377.278672
11
718.585000
21
377.914375
0
LINE
8
0
10
718.585000
20
377.914375
11
719.220750
21
378.342891
0
LINE
8
0
10
719.220750
20
378.342891
11
719.999000
21
378.500000
0
LINE
8
0
10
719.999000
20
378.500000
11
720.777672
21
378.342891
0
LINE
8
0
10
720.777672
20
378.342891
11
721.413375
21
377.914375
0
LINE
8
0
10
721.413375
20
377.914375
11
721.841891
21
377.278672
0
LINE
8
0
10
721.841891
20
377.278672
11
721.999000
21
376.500000
0
LINE
8
0
10
721.999000
20
376.500000
11
721.841891
21
375.721750
0
LINE
8
0
10
721.841891
20
375.721750
11
721.413375
21
375.086000
0
LINE
8
0
10
721.413375
20
375.086000
11
720.777672
21
374.657250
0
LINE
8
0
10
720.777672
20
374.657250
11
719.999000
21
374.500000
0
LINE
8
0
10
719.999000
20
374.500000
11
719.220750
21
374.657250
0
LINE
8
0
10
719.220750
20
374.657250
11
718.585000
21
375.086000
0
LINE
8
0
10
718.585000
20
375.086000
11
718.156250
21
375.721750
0
LINE
8
0
10
718.156250
20
375.721750
11
717.999000
21
376.500000
0
LINE
8
0
10
717.999000
20
486.500000
11
718.156250
21
487.278250
0
LINE
8
0
10
718.156250
20
487.278250
11
718.585000
21
487.914000
0
LINE
8
0
10
718.585000
20
487.914000
11
719.220750
21
488.342750
0
LINE
8
0
10
719.220750
20
488.342750
11
719.999000
21
488.500000
0
LINE
8
0
10
719.999000
20
488.500000
11
720.777672
21
488.342750
0
LINE
8
0
10
720.777672
20
488.342750
11
721.413375
21
487.914000
0
LINE
8
0
10
721.413375
20
487.914000
11
721.841891
21
487.278250
0
LINE
8
0
10
721.841891
20
487.278250
11
721.999000
21
486.500000
0
LINE
8
0
10
721.999000
20
486.500000
11
721.841891
21
485.721172
0
LINE
8
0
10
721.841891
20
485.721172
11
721.413375
21
485.085125
0
LINE
8
0
10
721.413375
20
485.085125
11
720.777672
21
484.656266
0
LINE
8
0
10
720.777672
20
484.656266
11
719.999000
21
484.499000
0
LINE
8
0
10
719.999000
20
484.499000
11
719.220328
21
484.656266
0
LINE
8
0
10
719.220328
20
484.656266
11
718.584625
21
485.085125
0
LINE
8
0
10
718.584625
20
485.085125
11
718.156109
21
485.721172
0
LINE
8
0
10
718.156109
20
485.721172
11
717.999000
21
486.500000
0
LINE
8
0
10
765.632000
20
403.905000
11
765.686250
21
404.471625
0
LINE
8
0
10
765.686250
20
404.471625
11
765.898000
21
405.000000
0
LINE
8
0
10
765.898000
20
405.000000
11
766.423313
21
405.595734
0
LINE
8
0
10
766.423313
20
405.595734
11
767.112500
21
405.931875
0
LINE
8
0
10
767.112500
20
405.931875
11
767.877438
21
405.985078
0
LINE
8
0
10
767.877438
20
405.985078
11
768.630000
21
405.732000
0
LINE
8
0
10
768.630000
20
405.732000
11
769.225312
21
405.206828
0
LINE
8
0
10
769.225312
20
405.206828
11
769.561500
21
404.517875
0
LINE
8
0
10
769.561500
20
404.517875
11
769.614937
21
403.752984
0
LINE
8
0
10
769.614937
20
403.752984
11
769.362000
21
403.000000
0
LINE
8
0
10
769.362000
20
403.000000
11
768.836687
21
402.404266
0
LINE
8
0
10
768.836687
20
402.404266
11
768.147500
21
402.068125
0
LINE
8
0
10
768.147500
20
402.068125
11
767.382562
21
402.014922
0
LINE
8
0
10
767.382562
20
402.014922
11
766.630000
21
402.268000
0
LINE
8
0
10
766.630000
20
402.268000
11
765.922125
21
402.959000
0
LINE
8
0
10
765.922125
20
402.959000
11
765.632000
21
403.905000
0
LINE
8
0
10
765.632000
20
459.095000
11
765.921750
21
460.041000
0
LINE
8
0
10
765.921750
20
460.041000
11
766.630000
21
460.732000
0
LINE
8
0
10
766.630000
20
460.732000
11
767.382562
21
460.985078
0
LINE
8
0
10
767.382562
20
460.985078
11
768.147500
21
460.931875
0
LINE
8
0
10
768.147500
20
460.931875
11
768.836687
21
460.595734
0
LINE
8
0
10
768.836687
20
460.595734
11
769.362000
21
460.000000
0
LINE
8
0
10
769.362000
20
460.000000
11
769.614937
21
459.247016
0
LINE
8
0
10
769.614937
20
459.247016
11
769.561500
21
458.482125
0
LINE
8
0
10
769.561500
20
458.482125
11
769.225312
21
457.793172
0
LINE
8
0
10
769.225312
20
457.793172
11
768.630000
21
457.268000
0
LINE
8
0
10
768.630000
20
457.268000
11
767.877016
21
457.014500
0
LINE
8
0
10
767.877016
20
457.014500
11
767.112125
21
457.067750
0
LINE
8
0
10
767.112125
20
457.067750
11
766.423172
21
457.404125
0
LINE
8
0
10
766.423172
20
457.404125
11
765.898000
21
458.000000
0
LINE
8
0
10
765.898000
20
458.000000
11
765.686250
21
458.528375
0
LINE
8
0
10
765.686250
20
458.528375
11
765.632000
21
459.095000
0
LINE
8
0
10
782.981000
20
230.001000
11
783.137953
21
230.779828
0
LINE
8
0
10
783.137953
20
230.779828
11
783.566125
21
231.415875
0
LINE
8
0
10
783.566125
20
231.415875
11
784.201484
21
231.844734
0
LINE
8
0
10
784.201484
20
231.844734
11
784.980000
21
232.002000
0
LINE
8
0
10
784.980000
20
232.002000
11
785.758672
21
231.844594
0
LINE
8
0
10
785.758672
20
231.844594
11
786.394375
21
231.415500
0
LINE
8
0
10
786.394375
20
231.415500
11
786.822891
21
230.779406
0
LINE
8
0
10
786.822891
20
230.779406
11
786.980000
21
230.001000
0
LINE
8
0
10
786.980000
20
230.001000
11
786.822891
21
229.222906
0
LINE
8
0
10
786.822891
20
229.222906
11
786.394375
21
228.587500
0
LINE
8
0
10
786.394375
20
228.587500
11
785.758672
21
228.159094
0
LINE
8
0
10
785.758672
20
228.159094
11
784.980000
21
228.002000
0
LINE
8
0
10
784.980000
20
228.002000
11
784.201906
21
228.158953
0
LINE
8
0
10
784.201906
20
228.158953
11
783.566500
21
228.587125
0
LINE
8
0
10
783.566500
20
228.587125
11
783.138094
21
229.222484
0
LINE
8
0
10
783.138094
20
229.222484
11
782.981000
21
230.001000
0
LINE
8
0
10
782.981000
20
506.501000
11
783.137953
21
507.279828
0
LINE
8
0
10
783.137953
20
507.279828
11
783.566125
21
507.915875
0
LINE
8
0
10
783.566125
20
507.915875
11
784.201484
21
508.344734
0
LINE
8
0
10
784.201484
20
508.344734
11
784.980000
21
508.502000
0
LINE
8
0
10
784.980000
20
508.502000
11
785.758672
21
508.344734
0
LINE
8
0
10
785.758672
20
508.344734
11
786.394375
21
507.915875
0
LINE
8
0
10
786.394375
20
507.915875
11
786.822891
21
507.279828
0
LINE
8
0
10
786.822891
20
507.279828
11
786.980000
21
506.501000
0
LINE
8
0
10
786.980000
20
506.501000
11
786.822891
21
505.722750
0
LINE
8
0
10
786.822891
20
505.722750
11
786.394375
21
505.087000
0
LINE
8
0
10
786.394375
20
505.087000
11
785.758672
21
504.658250
0
LINE
8
0
10
785.758672
20
504.658250
11
784.980000
21
504.501000
0
LINE
8
0
10
784.980000
20
504.501000
11
784.201906
21
504.658250
0
LINE
8
0
10
784.201906
20
504.658250
11
783.566500
21
505.087000
0
LINE
8
0
10
783.566500
20
505.087000
11
783.138094
21
505.722750
0
LINE
8
0
10
783.138094
20
505.722750
11
782.981000
21
506.501000
0
LINE
8
0
10
793.017000
20
230.001000
11
793.173953
21
230.779828
0
LINE
8
0
10
793.173953
20
230.779828
11
793.602125
21
231.415875
0
LINE
8
0
10
793.602125
20
231.415875
11
794.237484
21
231.844734
0
LINE
8
0
10
794.237484
20
231.844734
11
795.016000
21
232.002000
0
LINE
8
0
10
795.016000
20
232.002000
11
795.794672
21
231.844594
0
LINE
8
0
10
795.794672
20
231.844594
11
796.430375
21
231.415500
0
LINE
8
0
10
796.430375
20
231.415500
11
796.858891
21
230.779406
0
LINE
8
0
10
796.858891
20
230.779406
11
797.016000
21
230.001000
0
LINE
8
0
10
797.016000
20
230.001000
11
796.858750
21
229.222906
0
LINE
8
0
10
796.858750
20
229.222906
11
796.430000
21
228.587500
0
LINE
8
0
10
796.430000
20
228.587500
11
795.794250
21
228.159094
0
LINE
8
0
10
795.794250
20
228.159094
11
795.016000
21
228.002000
0
LINE
8
0
10
795.016000
20
228.002000
11
794.237906
21
228.158953
0
LINE
8
0
10
794.237906
20
228.158953
11
793.602500
21
228.587125
0
LINE
8
0
10
793.602500
20
228.587125
11
793.174094
21
229.222484
0
LINE
8
0
10
793.174094
20
229.222484
11
793.017000
21
230.001000
0
LINE
8
0
10
793.017000
20
310.002000
11
793.173953
21
310.780250
0
LINE
8
0
10
793.173953
20
310.780250
11
793.602125
21
311.416000
0
LINE
8
0
10
793.602125
20
311.416000
11
794.237484
21
311.844750
0
LINE
8
0
10
794.237484
20
311.844750
11
795.016000
21
312.002000
0
LINE
8
0
10
795.016000
20
312.002000
11
795.794672
21
311.844750
0
LINE
8
0
10
795.794672
20
311.844750
11
796.430375
21
311.416000
0
LINE
8
0
10
796.430375
20
311.416000
11
796.858891
21
310.780250
0
LINE
8
0
10
796.858891
20
310.780250
11
797.016000
21
310.002000
0
LINE
8
0
10
797.016000
20
310.002000
11
796.858750
21
309.223313
0
LINE
8
0
10
796.858750
20
309.223313
11
796.430000
21
308.587500
0
LINE
8
0
10
796.430000
20
308.587500
11
795.794250
21
308.158687
0
LINE
8
0
10
795.794250
20
308.158687
11
795.016000
21
308.001000
0
LINE
8
0
10
795.016000
20
308.001000
11
794.237906
21
308.158266
0
LINE
8
0
10
794.237906
20
308.158266
11
793.602500
21
308.587125
0
LINE
8
0
10
793.602500
20
308.587125
11
793.174094
21
309.223172
0
LINE
8
0
10
793.174094
20
309.223172
11
793.017000
21
310.002000
0
LINE
8
0
10
793.017000
20
426.501000
11
793.173953
21
427.279812
0
LINE
8
0
10
793.173953
20
427.279812
11
793.602125
21
427.915750
0
LINE
8
0
10
793.602125
20
427.915750
11
794.237484
21
428.344313
0
LINE
8
0
10
794.237484
20
428.344313
11
795.016000
21
428.501000
0
LINE
8
0
10
795.016000
20
428.501000
11
795.794672
21
428.343891
0
LINE
8
0
10
795.794672
20
428.343891
11
796.430375
21
427.915375
0
LINE
8
0
10
796.430375
20
427.915375
11
796.858891
21
427.279672
0
LINE
8
0
10
796.858891
20
427.279672
11
797.016000
21
426.501000
0
LINE
8
0
10
797.016000
20
426.501000
11
796.858750
21
425.723047
0
LINE
8
0
10
796.858750
20
425.723047
11
796.430000
21
425.087875
0
LINE
8
0
10
796.430000
20
425.087875
11
795.794250
21
424.659516
0
LINE
8
0
10
795.794250
20
424.659516
11
795.016000
21
424.502000
0
LINE
8
0
10
795.016000
20
424.502000
11
794.237906
21
424.659094
0
LINE
8
0
10
794.237906
20
424.659094
11
793.602500
21
425.087500
0
LINE
8
0
10
793.602500
20
425.087500
11
793.174094
21
425.722906
0
LINE
8
0
10
793.174094
20
425.722906
11
793.017000
21
426.501000
0
LINE
8
0
10
793.017000
20
506.501000
11
793.173953
21
507.279828
0
LINE
8
0
10
793.173953
20
507.279828
11
793.602125
21
507.915875
0
LINE
8
0
10
793.602125
20
507.915875
11
794.237484
21
508.344734
0
LINE
8
0
10
794.237484
20
508.344734
11
795.016000
21
508.502000
0
LINE
8
0
10
795.016000
20
508.502000
11
795.794672
21
508.344734
0
LINE
8
0
10
795.794672
20
508.344734
11
796.430375
21
507.915875
0
LINE
8
0
10
796.430375
20
507.915875
11
796.858891
21
507.279828
0
LINE
8
0
10
796.858891
20
507.279828
11
797.016000
21
506.501000
0
LINE
8
0
10
797.016000
20
506.501000
11
796.858750
21
505.722750
0
LINE
8
0
10
796.858750
20
505.722750
11
796.430000
21
505.087000
0
LINE
8
0
10
796.430000
20
505.087000
11
795.794250
21
504.658250
0
LINE
8
0
10
795.794250
20
504.658250
11
795.016000
21
504.501000
0
LINE
8
0
10
795.016000
20
504.501000
11
794.237906
21
504.658250
0
LINE
8
0
10
794.237906
20
504.658250
11
793.602500
21
505.087000
0
LINE
8
0
10
793.602500
20
505.087000
11
793.174094
21
505.722750
0
LINE
8
0
10
793.174094
20
505.722750
11
793.017000
21
506.501000
0
LINE
8
0
10
-7.998860
20
230.000000
11
-7.897622
21
228.989863
0
LINE
8
0
10
-7.897622
20
228.989863
11
-7.607116
21
228.050156
0
LINE
8
0
10
-7.607116
20
228.050156
11
-7.147151
21
227.200684
0
LINE
8
0
10
-7.147151
20
227.200684
11
-6.537536
21
226.461250
0
LINE
8
0
10
-6.537536
20
226.461250
11
-5.798082
21
225.851660
0
LINE
8
0
10
-5.798082
20
225.851660
11
-4.948598
21
225.391719
0
LINE
8
0
10
-4.948598
20
225.391719
11
-4.008894
21
225.101230
0
LINE
8
0
10
-4.008894
20
225.101230
11
-2.998780
21
225.000000
0
LINE
8
0
10
147.001000
20
225.000000
11
148.010850
21
225.101230
0
LINE
8
0
10
148.010850
20
225.101230
11
148.950422
21
225.391719
0
LINE
8
0
10
148.950422
20
225.391719
11
149.799877
21
225.851660
0
LINE
8
0
10
149.799877
20
225.851660
11
150.539375
21
226.461250
0
LINE
8
0
10
150.539375
20
226.461250
11
151.149076
21
227.200684
0
LINE
8
0
10
151.149076
20
227.200684
11
151.609141
21
228.050156
0
LINE
8
0
10
151.609141
20
228.050156
11
151.899729
21
228.989863
0
LINE
8
0
10
151.899729
20
228.989863
11
152.001000
21
230.000000
0
LINE
8
0
10
-2.998780
20
225.000000
11
147.001000
21
225.000000
0
LINE
8
0
10
152.001000
20
506.500000
11
151.899729
21
507.510094
0
LINE
8
0
10
151.899729
20
507.510094
11
151.609141
21
508.449687
0
LINE
8
0
10
151.609141
20
508.449687
11
151.149076
21
509.299000
0
LINE
8
0
10
151.149076
20
509.299000
11
150.539375
21
510.038250
0
LINE
8
0
10
150.539375
20
510.038250
11
149.799877
21
510.647656
0
LINE
8
0
10
149.799877
20
510.647656
11
148.950422
21
511.107438
0
LINE
8
0
10
148.950422
20
511.107438
11
148.010850
21
511.397813
0
LINE
8
0
10
148.010850
20
511.397813
11
147.001000
21
511.499000
0
LINE
8
0
10
152.001000
20
230.000000
11
152.001000
21
506.500000
0
LINE
8
0
10
-2.998780
20
511.499000
11
-4.008894
21
511.397813
0
LINE
8
0
10
-4.008894
20
511.397813
11
-4.948598
21
511.107438
0
LINE
8
0
10
-4.948598
20
511.107438
11
-5.798082
21
510.647656
0
LINE
8
0
10
-5.798082
20
510.647656
11
-6.537536
21
510.038250
0
LINE
8
0
10
-6.537536
20
510.038250
11
-7.147151
21
509.299000
0
LINE
8
0
10
-7.147151
20
509.299000
11
-7.607116
21
508.449687
0
LINE
8
0
10
-7.607116
20
508.449687
11
-7.897622
21
507.510094
0
LINE
8
0
10
-7.897622
20
507.510094
11
-7.998860
21
506.500000
0
LINE
8
0
10
147.001000
20
511.499000
11
-2.998780
21
511.499000
0
LINE
8
0
10
-4.980760
20
230.000000
11
-4.823607
21
230.778672
0
LINE
8
0
10
-4.823607
20
230.778672
11
-4.395044
21
231.414375
0
LINE
8
0
10
-4.395044
20
231.414375
11
-3.759411
21
231.842891
0
LINE
8
0
10
-3.759411
20
231.842891
11
-2.981050
21
232.000000
0
LINE
8
0
10
-2.981050
20
232.000000
11
-2.202537
21
231.842891
0
LINE
8
0
10
-2.202537
20
231.842891
11
-1.566823
21
231.414375
0
LINE
8
0
10
-1.566823
20
231.414375
11
-1.138227
21
230.778672
0
LINE
8
0
10
-1.138227
20
230.778672
11
-0.981068
21
230.000000
0
LINE
8
0
10
-0.981068
20
230.000000
11
-1.138227
21
229.221328
0
LINE
8
0
10
-1.138227
20
229.221328
11
-1.566823
21
228.585625
0
LINE
8
0
10
-1.566823
20
228.585625
11
-2.202537
21
228.157109
0
LINE
8
0
10
-2.202537
20
228.157109
11
-2.981050
21
228.000000
0
LINE
8
0
10
-2.981050
20
228.000000
11
-3.759411
21
228.157250
0
LINE
8
0
10
-3.759411
20
228.157250
11
-4.395044
21
228.586000
0
LINE
8
0
10
-4.395044
20
228.586000
11
-4.823607
21
229.221750
0
LINE
8
0
10
-4.823607
20
229.221750
11
-4.980760
21
230.000000
0
LINE
8
0
10
-7.998860
20
506.500000
11
-7.998860
21
230.000000
0
LINE
8
0
10
-4.980760
20
310.000000
11
-4.823607
21
310.778828
0
LINE
8
0
10
-4.823607
20
310.778828
11
-4.395044
21
311.414875
0
LINE
8
0
10
-4.395044
20
311.414875
11
-3.759411
21
311.843734
0
LINE
8
0
10
-3.759411
20
311.843734
11
-2.981050
21
312.001000
0
LINE
8
0
10
-2.981050
20
312.001000
11
-2.202537
21
311.843734
0
LINE
8
0
10
-2.202537
20
311.843734
11
-1.566823
21
311.414875
0
LINE
8
0
10
-1.566823
20
311.414875
11
-1.138227
21
310.778828
0
LINE
8
0
10
-1.138227
20
310.778828
11
-0.981068
21
310.000000
0
LINE
8
0
10
-0.981068
20
310.000000
11
-1.138227
21
309.221750
0
LINE
8
0
10
-1.138227
20
309.221750
11
-1.566823
21
308.586000
0
LINE
8
0
10
-1.566823
20
308.586000
11
-2.202537
21
308.157250
0
LINE
8
0
10
-2.202537
20
308.157250
11
-2.981050
21
308.000000
0
LINE
8
0
10
-2.981050
20
308.000000
11
-3.759411
21
308.157250
0
LINE
8
0
10
-3.759411
20
308.157250
11
-4.395044
21
308.586000
0
LINE
8
0
10
-4.395044
20
308.586000
11
-4.823607
21
309.221750
0
LINE
8
0
10
-4.823607
20
309.221750
11
-4.980760
21
310.000000
0
LINE
8
0
10
-4.980760
20
426.501000
11
-4.823607
21
427.279094
0
LINE
8
0
10
-4.823607
20
427.279094
11
-4.395044
21
427.914500
0
LINE
8
0
10
-4.395044
20
427.914500
11
-3.759411
21
428.342906
0
LINE
8
0
10
-3.759411
20
428.342906
11
-2.981050
21
428.500000
0
LINE
8
0
10
-2.981050
20
428.500000
11
-2.202537
21
428.342906
0
LINE
8
0
10
-2.202537
20
428.342906
11
-1.566823
21
427.914500
0
LINE
8
0
10
-1.566823
20
427.914500
11
-1.138227
21
427.279094
0
LINE
8
0
10
-1.138227
20
427.279094
11
-0.981068
21
426.501000
0
LINE
8
0
10
-0.981068
20
426.501000
11
-1.138227
21
425.722187
0
LINE
8
0
10
-1.138227
20
425.722187
11
-1.566823
21
425.086250
0
LINE
8
0
10
-1.566823
20
425.086250
11
-2.202537
21
424.657687
0
LINE
8
0
10
-2.202537
20
424.657687
11
-2.981050
21
424.501000
0
LINE
8
0
10
-2.981050
20
424.501000
11
-3.759411
21
424.658109
0
LINE
8
0
10
-3.759411
20
424.658109
11
-4.395044
21
425.086625
0
LINE
8
0
10
-4.395044
20
425.086625
11
-4.823607
21
425.722328
0
LINE
8
0
10
-4.823607
20
425.722328
11
-4.980760
21
426.501000
0
LINE
8
0
10
-4.980760
20
506.500000
11
-4.823607
21
507.278672
0
LINE
8
0
10
-4.823607
20
507.278672
11
-4.395044
21
507.914375
0
LINE
8
0
10
-4.395044
20
507.914375
11
-3.759411
21
508.342891
0
LINE
8
0
10
-3.759411
20
508.342891
11
-2.981050
21
508.500000
0
LINE
8
0
10
-2.981050
20
508.500000
11
-2.202537
21
508.342891
0
LINE
8
0
10
-2.202537
20
508.342891
11
-1.566823
21
507.914375
0
LINE
8
0
10
-1.566823
20
507.914375
11
-1.138227
21
507.278672
0
LINE
8
0
10
-1.138227
20
507.278672
11
-0.981068
21
506.500000
0
LINE
8
0
10
-0.981068
20
506.500000
11
-1.138227
21
505.721750
0
LINE
8
0
10
-1.138227
20
505.721750
11
-1.566823
21
505.086000
0
LINE
8
0
10
-1.566823
20
505.086000
11
-2.202537
21
504.657250
0
LINE
8
0
10
-2.202537
20
504.657250
11
-2.981050
21
504.500000
0
LINE
8
0
10
-2.981050
20
504.500000
11
-3.759411
21
504.657250
0
LINE
8
0
10
-3.759411
20
504.657250
11
-4.395044
21
505.086000
0
LINE
8
0
10
-4.395044
20
505.086000
11
-4.823607
21
505.721750
0
LINE
8
0
10
-4.823607
20
505.721750
11
-4.980760
21
506.500000
0
LINE
8
0
10
5.055390
20
230.000000
11
5.212543
21
230.778672
0
LINE
8
0
10
5.212543
20
230.778672
11
5.641106
21
231.414375
0
LINE
8
0
10
5.641106
20
231.414375
11
6.276739
21
231.842891
0
LINE
8
0
10
6.276739
20
231.842891
11
7.055100
21
232.000000
0
LINE
8
0
10
7.055100
20
232.000000
11
7.833727
21
231.842891
0
LINE
8
0
10
7.833727
20
231.842891
11
8.469428
21
231.414375
0
LINE
8
0
10
8.469428
20
231.414375
11
8.897960
21
230.778672
0
LINE
8
0
10
8.897960
20
230.778672
11
9.055080
21
230.000000
0
LINE
8
0
10
9.055080
20
230.000000
11
8.897922
21
229.221328
0
LINE
8
0
10
8.897922
20
229.221328
11
8.469326
21
228.585625
0
LINE
8
0
10
8.469326
20
228.585625
11
7.833613
21
228.157109
0
LINE
8
0
10
7.833613
20
228.157109
11
7.055100
21
228.000000
0
LINE
8
0
10
7.055100
20
228.000000
11
6.276739
21
228.157250
0
LINE
8
0
10
6.276739
20
228.157250
11
5.641106
21
228.586000
0
LINE
8
0
10
5.641106
20
228.586000
11
5.212543
21
229.221750
0
LINE
8
0
10
5.212543
20
229.221750
11
5.055390
21
230.000000
0
LINE
8
0
10
5.055390
20
506.500000
11
5.212543
21
507.278672
0
LINE
8
0
10
5.212543
20
507.278672
11
5.641106
21
507.914375
0
LINE
8
0
10
5.641106
20
507.914375
11
6.276739
21
508.342891
0
LINE
8
0
10
6.276739
20
508.342891
11
7.055100
21
508.500000
0
LINE
8
0
10
7.055100
20
508.500000
11
7.833727
21
508.342891
0
LINE
8
0
10
7.833727
20
508.342891
11
8.469428
21
507.914375
0
LINE
8
0
10
8.469428
20
507.914375
11
8.897960
21
507.278672
0
LINE
8
0
10
8.897960
20
507.278672
11
9.055080
21
506.500000
0
LINE
8
0
10
9.055080
20
506.500000
11
8.897922
21
505.721750
0
LINE
8
0
10
8.897922
20
505.721750
11
8.469326
21
505.086000
0
LINE
8
0
10
8.469326
20
505.086000
11
7.833613
21
504.657250
0
LINE
8
0
10
7.833613
20
504.657250
11
7.055100
21
504.500000
0
LINE
8
0
10
7.055100
20
504.500000
11
6.276739
21
504.657250
0
LINE
8
0
10
6.276739
20
504.657250
11
5.641106
21
505.086000
0
LINE
8
0
10
5.641106
20
505.086000
11
5.212543
21
505.721750
0
LINE
8
0
10
5.212543
20
505.721750
11
5.055390
21
506.500000
0
LINE
8
0
10
22.372100
20
404.095000
11
22.661925
21
405.040625
0
LINE
8
0
10
22.661925
20
405.040625
11
23.369500
21
405.732000
0
LINE
8
0
10
23.369500
20
405.732000
11
24.122387
21
405.984938
0
LINE
8
0
10
24.122387
20
405.984938
11
24.887275
21
405.931500
0
LINE
8
0
10
24.887275
20
405.931500
11
25.576300
21
405.595313
0
LINE
8
0
10
25.576300
20
405.595313
11
26.101600
21
405.000000
0
LINE
8
0
10
26.101600
20
405.000000
11
26.354836
21
404.247016
0
LINE
8
0
10
26.354836
20
404.247016
11
26.301538
21
403.482125
0
LINE
8
0
10
26.301538
20
403.482125
11
25.965320
21
402.793172
0
LINE
8
0
10
25.965320
20
402.793172
11
25.369800
21
402.268000
0
LINE
8
0
10
25.369800
20
402.268000
11
24.617044
21
402.014500
0
LINE
8
0
10
24.617044
20
402.014500
11
23.852175
21
402.067750
0
LINE
8
0
10
23.852175
20
402.067750
11
23.163169
21
402.404125
0
LINE
8
0
10
23.163169
20
402.404125
11
22.638000
21
403.000000
0
LINE
8
0
10
22.638000
20
403.000000
11
22.426338
21
403.528375
0
LINE
8
0
10
22.426338
20
403.528375
11
22.372100
21
404.095000
0
LINE
8
0
10
22.372100
20
458.904000
11
22.426225
21
459.470625
0
LINE
8
0
10
22.426225
20
459.470625
11
22.638000
21
459.999000
0
LINE
8
0
10
22.638000
20
459.999000
11
23.163127
21
460.594875
0
LINE
8
0
10
23.163127
20
460.594875
11
23.852063
21
460.931250
0
LINE
8
0
10
23.852063
20
460.931250
11
24.616917
21
460.984500
0
LINE
8
0
10
24.616917
20
460.984500
11
25.369800
21
460.731000
0
LINE
8
0
10
25.369800
20
460.731000
11
25.965525
21
460.205828
0
LINE
8
0
10
25.965525
20
460.205828
11
26.301900
21
459.516875
0
LINE
8
0
10
26.301900
20
459.516875
11
26.355300
21
458.751984
0
LINE
8
0
10
26.355300
20
458.751984
11
26.102100
21
457.999000
0
LINE
8
0
10
26.102100
20
457.999000
11
25.576889
21
457.403687
0
LINE
8
0
10
25.576889
20
457.403687
11
24.887963
21
457.067500
0
LINE
8
0
10
24.887963
20
457.067500
11
24.123155
21
457.014063
0
LINE
8
0
10
24.123155
20
457.014063
11
23.370300
21
457.267000
0
LINE
8
0
10
23.370300
20
457.267000
11
22.662325
21
457.958000
0
LINE
8
0
10
22.662325
20
457.958000
11
22.372100
21
458.904000
0
LINE
8
0
10
25.501000
20
431.500000
11
25.728540
21
436.095789
0
LINE
8
0
10
25.728540
20
436.095789
11
26.402742
21
440.613812
0
LINE
8
0
10
26.402742
20
440.613812
11
27.510976
21
445.023555
0
LINE
8
0
10
27.510976
20
445.023555
11
29.040613
21
449.294500
0
LINE
8
0
10
29.040613
20
449.294500
11
30.979022
21
453.396133
0
LINE
8
0
10
30.979022
20
453.396133
11
33.313577
21
457.297937
0
LINE
8
0
10
33.313577
20
457.297937
11
36.031646
21
460.969398
0
LINE
8
0
10
36.031646
20
460.969398
11
39.120600
21
464.380000
0
LINE
8
0
10
39.120600
20
464.380000
11
42.531346
21
467.469115
0
LINE
8
0
10
42.531346
20
467.469115
11
46.202883
21
470.187297
0
LINE
8
0
10
46.202883
20
470.187297
11
50.104719
21
472.521924
0
LINE
8
0
10
50.104719
20
472.521924
11
54.206363
21
474.460375
0
LINE
8
0
10
54.206363
20
474.460375
11
58.477324
21
475.990029
0
LINE
8
0
10
58.477324
20
475.990029
11
62.887111
21
477.098266
0
LINE
8
0
10
62.887111
20
477.098266
11
67.405233
21
477.772463
0
LINE
8
0
10
67.405233
20
477.772463
11
72.001200
21
478.000000
0
LINE
8
0
10
72.001200
20
478.000000
11
76.755485
21
477.759758
0
LINE
8
0
10
76.755485
20
477.759758
11
81.372422
21
477.054988
0
LINE
8
0
10
81.372422
20
477.054988
11
85.828640
21
475.909060
0
LINE
8
0
10
85.828640
20
475.909060
11
90.100767
21
474.345344
0
LINE
8
0
10
90.100767
20
474.345344
11
94.165432
21
472.387209
0
LINE
8
0
10
94.165432
20
472.387209
11
97.999263
21
470.058027
0
LINE
8
0
10
97.999263
20
470.058027
11
101.578888
21
467.381167
0
LINE
8
0
10
101.578888
20
467.381167
11
104.880938
21
464.380000
0
LINE
8
0
10
104.880938
20
464.380000
11
107.882039
21
461.077895
0
LINE
8
0
10
107.882039
20
461.077895
11
110.558820
21
457.498223
0
LINE
8
0
10
110.558820
20
457.498223
11
112.887911
21
453.664353
0
LINE
8
0
10
112.887911
20
453.664353
11
114.845939
21
449.599656
0
LINE
8
0
10
114.845939
20
449.599656
11
116.409534
21
445.327502
0
LINE
8
0
10
116.409534
20
445.327502
11
117.555323
21
440.871262
0
LINE
8
0
10
117.555323
20
440.871262
11
118.259935
21
436.254304
0
LINE
8
0
10
118.259935
20
436.254304
11
118.500000
21
431.500000
0
LINE
8
0
10
118.500000
20
431.500000
11
118.259935
21
426.745685
0
LINE
8
0
10
118.259935
20
426.745685
11
117.555323
21
422.128697
0
LINE
8
0
10
117.555323
20
422.128697
11
116.409534
21
417.672412
0
LINE
8
0
10
116.409534
20
417.672412
11
114.845939
21
413.400203
0
LINE
8
0
10
114.845939
20
413.400203
11
112.887911
21
409.335446
0
LINE
8
0
10
112.887911
20
409.335446
11
110.558820
21
405.501514
0
LINE
8
0
10
110.558820
20
405.501514
11
107.882039
21
401.921782
0
LINE
8
0
10
107.882039
20
401.921782
11
104.880938
21
398.619625
0
LINE
8
0
10
104.880938
20
398.619625
11
101.578888
21
395.618417
0
LINE
8
0
10
101.578888
20
395.618417
11
97.999263
21
392.941533
0
LINE
8
0
10
97.999263
20
392.941533
11
94.165432
21
390.612347
0
LINE
8
0
10
94.165432
20
390.612347
11
90.100767
21
388.654234
0
LINE
8
0
10
90.100767
20
388.654234
11
85.828640
21
387.090569
0
LINE
8
0
10
85.828640
20
387.090569
11
81.372422
21
385.944725
0
LINE
8
0
10
81.372422
20
385.944725
11
76.755485
21
385.240077
0
LINE
8
0
10
76.755485
20
385.240077
11
72.001200
21
385.000000
0
LINE
8
0
10
72.001200
20
385.000000
11
67.405233
21
385.227535
0
LINE
8
0
10
67.405233
20
385.227535
11
62.887111
21
385.901719
0
LINE
8
0
10
62.887111
20
385.901719
11
58.477324
21
387.009918
0
LINE
8
0
10
58.477324
20
387.009918
11
54.206363
21
388.539500
0
LINE
8
0
10
54.206363
20
388.539500
11
50.104719
21
390.477832
0
LINE
8
0
10
50.104719
20
390.477832
11
46.202883
21
392.812281
0
LINE
8
0
10
46.202883
20
392.812281
11
42.531346
21
395.530215
0
LINE
8
0
10
42.531346
20
395.530215
11
39.120600
21
398.619000
0
LINE
8
0
10
39.120600
20
398.619000
11
36.031646
21
402.029891
0
LINE
8
0
10
36.031646
20
402.029891
11
33.313577
21
405.701500
0
LINE
8
0
10
33.313577
20
405.701500
11
30.979022
21
409.603359
0
LINE
8
0
10
30.979022
20
409.603359
11
29.040613
21
413.705000
0
LINE
8
0
10
29.040613
20
413.705000
11
27.510976
21
417.975953
0
LINE
8
0
10
27.510976
20
417.975953
11
26.402742
21
422.385750
0
LINE
8
0
10
26.402742
20
422.385750
11
25.728540
21
426.903922
0
LINE
8
0
10
25.728540
20
426.903922
11
25.501000
21
431.500000
0
LINE
8
0
10
70.000600
20
376.500000
11
70.157845
21
377.278250
0
LINE
8
0
10
70.157845
20
377.278250
11
70.586638
21
377.914000
0
LINE
8
0
10
70.586638
20
377.914000
11
71.222561
21
378.342750
0
LINE
8
0
10
71.222561
20
378.342750
11
72.001200
21
378.500000
0
LINE
8
0
10
72.001200
20
378.500000
11
72.779530
21
378.342750
0
LINE
8
0
10
72.779530
20
378.342750
11
73.415163
21
377.914000
0
LINE
8
0
10
73.415163
20
377.914000
11
73.843739
21
377.278250
0
LINE
8
0
10
73.843739
20
377.278250
11
74.000900
21
376.500000
0
LINE
8
0
10
74.000900
20
376.500000
11
73.843739
21
375.721328
0
LINE
8
0
10
73.843739
20
375.721328
11
73.415163
21
375.085625
0
LINE
8
0
10
73.415163
20
375.085625
11
72.779530
21
374.657109
0
LINE
8
0
10
72.779530
20
374.657109
11
72.001200
21
374.500000
0
LINE
8
0
10
72.001200
20
374.500000
11
71.222603
21
374.657109
0
LINE
8
0
10
71.222603
20
374.657109
11
70.586750
21
375.085625
0
LINE
8
0
10
70.586750
20
375.085625
11
70.157972
21
375.721328
0
LINE
8
0
10
70.157972
20
375.721328
11
70.000600
21
376.500000
0
LINE
8
0
10
70.000600
20
486.499000
11
70.157845
21
487.277672
0
LINE
8
0
10
70.157845
20
487.277672
11
70.586638
21
487.913375
0
LINE
8
0
10
70.586638
20
487.913375
11
71.222561
21
488.341891
0
LINE
8
0
10
71.222561
20
488.341891
11
72.001200
21
488.499000
0
LINE
8
0
10
72.001200
20
488.499000
11
72.779530
21
488.341891
0
LINE
8
0
10
72.779530
20
488.341891
11
73.415163
21
487.913375
0
LINE
8
0
10
73.415163
20
487.913375
11
73.843739
21
487.277672
0
LINE
8
0
10
73.843739
20
487.277672
11
74.000900
21
486.499000
0
LINE
8
0
10
74.000900
20
486.499000
11
73.843809
21
485.720328
0
LINE
8
0
10
73.843809
20
485.720328
11
73.415350
21
485.084625
0
LINE
8
0
10
73.415350
20
485.084625
11
72.779741
21
484.656109
0
LINE
8
0
10
72.779741
20
484.656109
11
72.001200
21
484.499000
0
LINE
8
0
10
72.001200
20
484.499000
11
71.222448
21
484.656109
0
LINE
8
0
10
71.222448
20
484.656109
11
70.586488
21
485.084625
0
LINE
8
0
10
70.586488
20
485.084625
11
70.157733
21
485.720328
0
LINE
8
0
10
70.157733
20
485.720328
11
70.000600
21
486.499000
0
LINE
8
0
10
117.634000
20
403.904000
11
117.687875
21
404.470750
0
LINE
8
0
10
117.687875
20
404.470750
11
117.900000
21
405.000000
0
LINE
8
0
10
117.900000
20
405.000000
11
118.425312
21
405.595313
0
LINE
8
0
10
118.425312
20
405.595313
11
119.114500
21
405.931500
0
LINE
8
0
10
119.114500
20
405.931500
11
119.879437
21
405.984938
0
LINE
8
0
10
119.879437
20
405.984938
11
120.632000
21
405.732000
0
LINE
8
0
10
120.632000
20
405.732000
11
121.227297
21
405.206266
0
LINE
8
0
10
121.227297
20
405.206266
11
121.563375
21
404.517125
0
LINE
8
0
10
121.563375
20
404.517125
11
121.616516
21
403.752422
0
LINE
8
0
10
121.616516
20
403.752422
11
121.363000
21
403.000000
0
LINE
8
0
10
121.363000
20
403.000000
11
120.837828
21
402.404125
0
LINE
8
0
10
120.837828
20
402.404125
11
120.148875
21
402.067750
0
LINE
8
0
10
120.148875
20
402.067750
11
119.383984
21
402.014500
0
LINE
8
0
10
119.383984
20
402.014500
11
118.631000
21
402.268000
0
LINE
8
0
10
118.631000
20
402.268000
11
117.923625
21
402.958500
0
LINE
8
0
10
117.923625
20
402.958500
11
117.634000
21
403.904000
0
LINE
8
0
10
117.634000
20
459.094000
11
117.923625
21
460.040000
0
LINE
8
0
10
117.923625
20
460.040000
11
118.631000
21
460.731000
0
LINE
8
0
10
118.631000
20
460.731000
11
119.383984
21
460.984500
0
LINE
8
0
10
119.383984
20
460.984500
11
120.148875
21
460.931250
0
LINE
8
0
10
120.148875
20
460.931250
11
120.837828
21
460.594875
0
LINE
8
0
10
120.837828
20
460.594875
11
121.363000
21
459.999000
0
LINE
8
0
10
121.363000
20
459.999000
11
121.616516
21
459.246438
0
LINE
8
0
10
121.616516
20
459.246438
11
121.563375
21
458.481500
0
LINE
8
0
10
121.563375
20
458.481500
11
121.227297
21
457.792312
0
LINE
8
0
10
121.227297
20
457.792312
11
120.632000
21
457.267000
0
LINE
8
0
10
120.632000
20
457.267000
11
119.879016
21
457.014063
0
LINE
8
0
10
119.879016
20
457.014063
11
119.114125
21
457.067500
0
LINE
8
0
10
119.114125
20
457.067500
11
118.425172
21
457.403687
0
LINE
8
0
10
118.425172
20
457.403687
11
117.900000
21
457.999000
0
LINE
8
0
10
117.900000
20
457.999000
11
117.688250
21
458.527750
0
LINE
8
0
10
117.688250
20
458.527750
11
117.634000
21
459.094000
0
LINE
8
0
10
134.982000
20
230.000000
11
135.139109
21
230.778828
0
LINE
8
0
10
135.139109
20
230.778828
11
135.567625
21
231.414875
0
LINE
8
0
10
135.567625
20
231.414875
11
136.203328
21
231.843734
0
LINE
8
0
10
136.203328
20
231.843734
11
136.982000
21
232.001000
0
LINE
8
0
10
136.982000
20
232.001000
11
137.760250
21
231.843734
0
LINE
8
0
10
137.760250
20
231.843734
11
138.396000
21
231.414875
0
LINE
8
0
10
138.396000
20
231.414875
11
138.824750
21
230.778828
0
LINE
8
0
10
138.824750
20
230.778828
11
138.982000
21
230.000000
0
LINE
8
0
10
138.982000
20
230.000000
11
138.824750
21
229.221906
0
LINE
8
0
10
138.824750
20
229.221906
11
138.396000
21
228.586500
0
LINE
8
0
10
138.396000
20
228.586500
11
137.760250
21
228.158094
0
LINE
8
0
10
137.760250
20
228.158094
11
136.982000
21
228.001000
0
LINE
8
0
10
136.982000
20
228.001000
11
136.203328
21
228.158094
0
LINE
8
0
10
136.203328
20
228.158094
11
135.567625
21
228.586500
0
LINE
8
0
10
135.567625
20
228.586500
11
135.139109
21
229.221906
0
LINE
8
0
10
135.139109
20
229.221906
11
134.982000
21
230.000000
0
LINE
8
0
10
134.982000
20
506.501000
11
135.139109
21
507.279672
0
LINE
8
0
10
135.139109
20
507.279672
11
135.567625
21
507.915375
0
LINE
8
0
10
135.567625
20
507.915375
11
136.203328
21
508.343891
0
LINE
8
0
10
136.203328
20
508.343891
11
136.982000
21
508.501000
0
LINE
8
0
10
136.982000
20
508.501000
11
137.760250
21
508.343750
0
LINE
8
0
10
137.760250
20
508.343750
11
138.396000
21
507.915000
0
LINE
8
0
10
138.396000
20
507.915000
11
138.824750
21
507.279250
0
LINE
8
0
10
138.824750
20
507.279250
11
138.982000
21
506.501000
0
LINE
8
0
10
138.982000
20
506.501000
11
138.824750
21
505.722328
0
LINE
8
0
10
138.824750
20
505.722328
11
138.396000
21
505.086625
0
LINE
8
0
10
138.396000
20
505.086625
11
137.760250
21
504.658109
0
LINE
8
0
10
137.760250
20
504.658109
11
136.982000
21
504.501000
0
LINE
8
0
10
136.982000
20
504.501000
11
136.203328
21
504.658109
0
LINE
8
0
10
136.203328
20
504.658109
11
135.567625
21
505.086625
0
LINE
8
0
10
135.567625
20
505.086625
11
135.139109
21
505.722328
0
LINE
8
0
10
135.139109
20
505.722328
11
134.982000
21
506.501000
0
LINE
8
0
10
145.019000
20
230.000000
11
145.175953
21
230.778828
0
LINE
8
0
10
145.175953
20
230.778828
11
145.604125
21
231.414875
0
LINE
8
0
10
145.604125
20
231.414875
11
146.239484
21
231.843734
0
LINE
8
0
10
146.239484
20
231.843734
11
147.018000
21
232.001000
0
LINE
8
0
10
147.018000
20
232.001000
11
147.796250
21
231.843734
0
LINE
8
0
10
147.796250
20
231.843734
11
148.432000
21
231.414875
0
LINE
8
0
10
148.432000
20
231.414875
11
148.860750
21
230.778828
0
LINE
8
0
10
148.860750
20
230.778828
11
149.018000
21
230.000000
0
LINE
8
0
10
149.018000
20
230.000000
11
148.860750
21
229.221906
0
LINE
8
0
10
148.860750
20
229.221906
11
148.432000
21
228.586500
0
LINE
8
0
10
148.432000
20
228.586500
11
147.796250
21
228.158094
0
LINE
8
0
10
147.796250
20
228.158094
11
147.018000
21
228.001000
0
LINE
8
0
10
147.018000
20
228.001000
11
146.239484
21
228.158094
0
LINE
8
0
10
146.239484
20
228.158094
11
145.604125
21
228.586500
0
LINE
8
0
10
145.604125
20
228.586500
11
145.175953
21
229.221906
0
LINE
8
0
10
145.175953
20
229.221906
11
145.019000
21
230.000000
0
LINE
8
0
10
145.019000
20
310.001000
11
145.175953
21
310.779812
0
LINE
8
0
10
145.175953
20
310.779812
11
145.604125
21
311.415750
0
LINE
8
0
10
145.604125
20
311.415750
11
146.239484
21
311.844313
0
LINE
8
0
10
146.239484
20
311.844313
11
147.018000
21
312.001000
0
LINE
8
0
10
147.018000
20
312.001000
11
147.796250
21
311.843750
0
LINE
8
0
10
147.796250
20
311.843750
11
148.432000
21
311.415000
0
LINE
8
0
10
148.432000
20
311.415000
11
148.860750
21
310.779250
0
LINE
8
0
10
148.860750
20
310.779250
11
149.018000
21
310.001000
0
LINE
8
0
10
149.018000
20
310.001000
11
148.860750
21
309.222328
0
LINE
8
0
10
148.860750
20
309.222328
11
148.432000
21
308.586625
0
LINE
8
0
10
148.432000
20
308.586625
11
147.796250
21
308.158109
0
LINE
8
0
10
147.796250
20
308.158109
11
147.018000
21
308.001000
0
LINE
8
0
10
147.018000
20
308.001000
11
146.239484
21
308.158109
0
LINE
8
0
10
146.239484
20
308.158109
11
145.604125
21
308.586625
0
LINE
8
0
10
145.604125
20
308.586625
11
145.175953
21
309.222328
0
LINE
8
0
10
145.175953
20
309.222328
11
145.019000
21
310.001000
0
LINE
8
0
10
145.019000
20
426.501000
11
145.175953
21
427.279672
0
LINE
8
0
10
145.175953
20
427.279672
11
145.604125
21
427.915375
0
LINE
8
0
10
145.604125
20
427.915375
11
146.239484
21
428.343891
0
LINE
8
0
10
146.239484
20
428.343891
11
147.018000
21
428.501000
0
LINE
8
0
10
147.018000
20
428.501000
11
147.796250
21
428.343750
0
LINE
8
0
10
147.796250
20
428.343750
11
148.432000
21
427.915000
0
LINE
8
0
10
148.432000
20
427.915000
11
148.860750
21
427.279250
0
LINE
8
0
10
148.860750
20
427.279250
11
149.018000
21
426.501000
0
LINE
8
0
10
149.018000
20
426.501000
11
148.860750
21
425.722906
0
LINE
8
0
10
148.860750
20
425.722906
11
148.432000
21
425.087500
0
LINE
8
0
10
148.432000
20
425.087500
11
147.796250
21
424.659094
0
LINE
8
0
10
147.796250
20
424.659094
11
147.018000
21
424.502000
0
LINE
8
0
10
147.018000
20
424.502000
11
146.239484
21
424.658953
0
LINE
8
0
10
146.239484
20
424.658953
11
145.604125
21
425.087125
0
LINE
8
0
10
145.604125
20
425.087125
11
145.175953
21
425.722484
0
LINE
8
0
10
145.175953
20
425.722484
11
145.019000
21
426.501000
0
LINE
8
0
10
145.019000
20
506.501000
11
145.175953
21
507.279672
0
LINE
8
0
10
145.175953
20
507.279672
11
145.604125
21
507.915375
0
LINE
8
0
10
145.604125
20
507.915375
11
146.239484
21
508.343891
0
LINE
8
0
10
146.239484
20
508.343891
11
147.018000
21
508.501000
0
LINE
8
0
10
147.018000
20
508.501000
11
147.796250
21
508.343750
0
LINE
8
0
10
147.796250
20
508.343750
11
148.432000
21
507.915000
0
LINE
8
0
10
148.432000
20
507.915000
11
148.860750
21
507.279250
0
LINE
8
0
10
148.860750
20
507.279250
11
149.018000
21
506.501000
0
LINE
8
0
10
149.018000
20
506.501000
11
148.860750
21
505.722328
0
LINE
8
0
10
148.860750
20
505.722328
11
148.432000
21
505.086625
0
LINE
8
0
10
148.432000
20
505.086625
11
147.796250
21
504.658109
0
LINE
8
0
10
147.796250
20
504.658109
11
147.018000
21
504.501000
0
LINE
8
0
10
147.018000
20
504.501000
11
146.239484
21
504.658109
0
LINE
8
0
10
146.239484
20
504.658109
11
145.604125
21
505.086625
0
LINE
8
0
10
145.604125
20
505.086625
11
145.175953
21
505.722328
0
LINE
8
0
10
145.175953
20
505.722328
11
145.019000
21
506.501000
0
LINE
8
0
10
154.001000
20
230.000000
11
154.102229
21
228.989863
0
LINE
8
0
10
154.102229
20
228.989863
11
154.392703
21
228.050156
0
LINE
8
0
10
154.392703
20
228.050156
11
154.852607
21
227.200684
0
LINE
8
0
10
154.852607
20
227.200684
11
155.462125
21
226.461250
0
LINE
8
0
10
155.462125
20
226.461250
11
156.201439
21
225.851660
0
LINE
8
0
10
156.201439
20
225.851660
11
157.050734
21
225.391719
0
LINE
8
0
10
157.050734
20
225.391719
11
157.990193
21
225.101230
0
LINE
8
0
10
157.990193
20
225.101230
11
159.000000
21
225.000000
0
LINE
8
0
10
309.000000
20
225.000000
11
310.010137
21
225.101230
0
LINE
8
0
10
310.010137
20
225.101230
11
310.949844
21
225.391719
0
LINE
8
0
10
310.949844
20
225.391719
11
311.799316
21
225.851660
0
LINE
8
0
10
311.799316
20
225.851660
11
312.538750
21
226.461250
0
LINE
8
0
10
312.538750
20
226.461250
11
313.148340
21
227.200684
0
LINE
8
0
10
313.148340
20
227.200684
11
313.608281
21
228.050156
0
LINE
8
0
10
313.608281
20
228.050156
11
313.898770
21
228.989863
0
LINE
8
0
10
313.898770
20
228.989863
11
314.000000
21
230.000000
0
LINE
8
0
10
159.000000
20
225.000000
11
309.000000
21
225.000000
0
LINE
8
0
10
314.000000
20
506.500000
11
313.898770
21
507.510094
0
LINE
8
0
10
313.898770
20
507.510094
11
313.608281
21
508.449687
0
LINE
8
0
10
313.608281
20
508.449687
11
313.148340
21
509.299000
0
LINE
8
0
10
313.148340
20
509.299000
11
312.538750
21
510.038250
0
LINE
8
0
10
312.538750
20
510.038250
11
311.799316
21
510.647656
0
LINE
8
0
10
311.799316
20
510.647656
11
310.949844
21
511.107438
0
LINE
8
0
10
310.949844
20
511.107438
11
310.010137
21
511.397813
0
LINE
8
0
10
310.010137
20
511.397813
11
309.000000
21
511.499000
0
LINE
8
0
10
314.000000
20
230.000000
11
314.000000
21
506.500000
0
LINE
8
0
10
159.000000
20
511.499000
11
157.990193
21
511.397813
0
LINE
8
0
10
157.990193
20
511.397813
11
157.050734
21
511.107438
0
LINE
8
0
10
157.050734
20
511.107438
11
156.201439
21
510.647656
0
LINE
8
0
10
156.201439
20
510.647656
11
155.462125
21
510.038250
0
LINE
8
0
10
155.462125
20
510.038250
11
154.852607
21
509.299000
0
LINE
8
0
10
154.852607
20
509.299000
11
154.392703
21
508.449687
0
LINE
8
0
10
154.392703
20
508.449687
11
154.102229
21
507.510094
0
LINE
8
0
10
154.102229
20
507.510094
11
154.001000
21
506.500000
0
LINE
8
0
10
309.000000
20
511.499000
11
159.000000
21
511.499000
0
LINE
8
0
10
157.018000
20
230.000000
11
157.175250
21
230.778687
0
LINE
8
0
10
157.175250
20
230.778687
11
157.604000
21
231.414500
0
LINE
8
0
10
157.604000
20
231.414500
11
158.239750
21
231.843312
0
LINE
8
0
10
158.239750
20
231.843312
11
159.018000
21
232.001000
0
LINE
8
0
10
159.018000
20
232.001000
11
159.796672
21
231.843734
0
LINE
8
0
10
159.796672
20
231.843734
11
160.432375
21
231.414875
0
LINE
8
0
10
160.432375
20
231.414875
11
160.860891
21
230.778828
0
LINE
8
0
10
160.860891
20
230.778828
11
161.018000
21
230.000000
0
LINE
8
0
10
161.018000
20
230.000000
11
160.860891
21
229.221906
0
LINE
8
0
10
160.860891
20
229.221906
11
160.432375
21
228.586500
0
LINE
8
0
10
160.432375
20
228.586500
11
159.796672
21
228.158094
0
LINE
8
0
10
159.796672
20
228.158094
11
159.018000
21
228.001000
0
LINE
8
0
10
159.018000
20
228.001000
11
158.239750
21
228.158094
0
LINE
8
0
10
158.239750
20
228.158094
11
157.604000
21
228.586500
0
LINE
8
0
10
157.604000
20
228.586500
11
157.175250
21
229.221906
0
LINE
8
0
10
157.175250
20
229.221906
11
157.018000
21
230.000000
0
LINE
8
0
10
154.001000
20
506.500000
11
154.001000
21
230.000000
0
LINE
8
0
10
157.018000
20
310.001000
11
157.175250
21
310.779250
0
LINE
8
0
10
157.175250
20
310.779250
11
157.604000
21
311.415000
0
LINE
8
0
10
157.604000
20
311.415000
11
158.239750
21
311.843750
0
LINE
8
0
10
158.239750
20
311.843750
11
159.018000
21
312.001000
0
LINE
8
0
10
159.018000
20
312.001000
11
159.796672
21
311.843750
0
LINE
8
0
10
159.796672
20
311.843750
11
160.432375
21
311.415000
0
LINE
8
0
10
160.432375
20
311.415000
11
160.860891
21
310.779250
0
LINE
8
0
10
160.860891
20
310.779250
11
161.018000
21
310.001000
0
LINE
8
0
10
161.018000
20
310.001000
11
160.860891
21
309.222172
0
LINE
8
0
10
160.860891
20
309.222172
11
160.432375
21
308.586125
0
LINE
8
0
10
160.432375
20
308.586125
11
159.796672
21
308.157266
0
LINE
8
0
10
159.796672
20
308.157266
11
159.018000
21
308.000000
0
LINE
8
0
10
159.018000
20
308.000000
11
158.239750
21
308.157266
0
LINE
8
0
10
158.239750
20
308.157266
11
157.604000
21
308.586125
0
LINE
8
0
10
157.604000
20
308.586125
11
157.175250
21
309.222172
0
LINE
8
0
10
157.175250
20
309.222172
11
157.018000
21
310.001000
0
LINE
8
0
10
157.018000
20
426.501000
11
157.175250
21
427.279109
0
LINE
8
0
10
157.175250
20
427.279109
11
157.604000
21
427.914625
0
LINE
8
0
10
157.604000
20
427.914625
11
158.239750
21
428.343328
0
LINE
8
0
10
158.239750
20
428.343328
11
159.018000
21
428.501000
0
LINE
8
0
10
159.018000
20
428.501000
11
159.796672
21
428.343891
0
LINE
8
0
10
159.796672
20
428.343891
11
160.432375
21
427.915375
0
LINE
8
0
10
160.432375
20
427.915375
11
160.860891
21
427.279672
0
LINE
8
0
10
160.860891
20
427.279672
11
161.018000
21
426.501000
0
LINE
8
0
10
161.018000
20
426.501000
11
160.860891
21
425.722328
0
LINE
8
0
10
160.860891
20
425.722328
11
160.432375
21
425.086625
0
LINE
8
0
10
160.432375
20
425.086625
11
159.796672
21
424.658109
0
LINE
8
0
10
159.796672
20
424.658109
11
159.018000
21
424.501000
0
LINE
8
0
10
159.018000
20
424.501000
11
158.239750
21
424.658250
0
LINE
8
0
10
158.239750
20
424.658250
11
157.604000
21
425.087000
0
LINE
8
0
10
157.604000
20
425.087000
11
157.175250
21
425.722750
0
LINE
8
0
10
157.175250
20
425.722750
11
157.018000
21
426.501000
0
LINE
8
0
10
157.018000
20
506.500000
11
157.175250
21
507.278688
0
LINE
8
0
10
157.175250
20
507.278688
11
157.604000
21
507.914500
0
LINE
8
0
10
157.604000
20
507.914500
11
158.239750
21
508.343313
0
LINE
8
0
10
158.239750
20
508.343313
11
159.018000
21
508.501000
0
LINE
8
0
10
159.018000
20
508.501000
11
159.796672
21
508.343734
0
LINE
8
0
10
159.796672
20
508.343734
11
160.432375
21
507.914875
0
LINE
8
0
10
160.432375
20
507.914875
11
160.860891
21
507.278828
0
LINE
8
0
10
160.860891
20
507.278828
11
161.018000
21
506.500000
0
LINE
8
0
10
161.018000
20
506.500000
11
160.860891
21
505.721750
0
LINE
8
0
10
160.860891
20
505.721750
11
160.432375
21
505.086000
0
LINE
8
0
10
160.432375
20
505.086000
11
159.796672
21
504.657250
0
LINE
8
0
10
159.796672
20
504.657250
11
159.018000
21
504.500000
0
LINE
8
0
10
159.018000
20
504.500000
11
158.239750
21
504.657250
0
LINE
8
0
10
158.239750
20
504.657250
11
157.604000
21
505.086000
0
LINE
8
0
10
157.604000
20
505.086000
11
157.175250
21
505.721750
0
LINE
8
0
10
157.175250
20
505.721750
11
157.018000
21
506.500000
0
LINE
8
0
10
167.055000
20
230.000000
11
167.212109
21
230.778687
0
LINE
8
0
10
167.212109
20
230.778687
11
167.640625
21
231.414500
0
LINE
8
0
10
167.640625
20
231.414500
11
168.276328
21
231.843312
0
LINE
8
0
10
168.276328
20
231.843312
11
169.055000
21
232.001000
0
LINE
8
0
10
169.055000
20
232.001000
11
169.833250
21
231.843734
0
LINE
8
0
10
169.833250
20
231.843734
11
170.469000
21
231.414875
0
LINE
8
0
10
170.469000
20
231.414875
11
170.897750
21
230.778828
0
LINE
8
0
10
170.897750
20
230.778828
11
171.055000
21
230.000000
0
LINE
8
0
10
171.055000
20
230.000000
11
170.897750
21
229.221906
0
LINE
8
0
10
170.897750
20
229.221906
11
170.469000
21
228.586500
0
LINE
8
0
10
170.469000
20
228.586500
11
169.833250
21
228.158094
0
LINE
8
0
10
169.833250
20
228.158094
11
169.055000
21
228.001000
0
LINE
8
0
10
169.055000
20
228.001000
11
168.276328
21
228.158094
0
LINE
8
0
10
168.276328
20
228.158094
11
167.640625
21
228.586500
0
LINE
8
0
10
167.640625
20
228.586500
11
167.212109
21
229.221906
0
LINE
8
0
10
167.212109
20
229.221906
11
167.055000
21
230.000000
0
LINE
8
0
10
167.055000
20
506.500000
11
167.212109
21
507.278688
0
LINE
8
0
10
167.212109
20
507.278688
11
167.640625
21
507.914500
0
LINE
8
0
10
167.640625
20
507.914500
11
168.276328
21
508.343313
0
LINE
8
0
10
168.276328
20
508.343313
11
169.055000
21
508.501000
0
LINE
8
0
10
169.055000
20
508.501000
11
169.833250
21
508.343734
0
LINE
8
0
10
169.833250
20
508.343734
11
170.469000
21
507.914875
0
LINE
8
0
10
170.469000
20
507.914875
11
170.897750
21
507.278828
0
LINE
8
0
10
170.897750
20
507.278828
11
171.055000
21
506.500000
0
LINE
8
0
10
171.055000
20
506.500000
11
170.897750
21
505.721750
0
LINE
8
0
10
170.897750
20
505.721750
11
170.469000
21
505.086000
0
LINE
8
0
10
170.469000
20
505.086000
11
169.833250
21
504.657250
0
LINE
8
0
10
169.833250
20
504.657250
11
169.055000
21
504.500000
0
LINE
8
0
10
169.055000
20
504.500000
11
168.276328
21
504.657250
0
LINE
8
0
10
168.276328
20
504.657250
11
167.640625
21
505.086000
0
LINE
8
0
10
167.640625
20
505.086000
11
167.212109
21
505.721750
0
LINE
8
0
10
167.212109
20
505.721750
11
167.055000
21
506.500000
0
LINE
8
0
10
184.372000
20
404.095000
11
184.661625
21
405.041000
0
LINE
8
0
10
184.661625
20
405.041000
11
185.369000
21
405.732000
0
LINE
8
0
10
185.369000
20
405.732000
11
186.121984
21
405.985078
0
LINE
8
0
10
186.121984
20
405.985078
11
186.886875
21
405.931875
0
LINE
8
0
10
186.886875
20
405.931875
11
187.575828
21
405.595734
0
LINE
8
0
10
187.575828
20
405.595734
11
188.101000
21
405.000000
0
LINE
8
0
10
188.101000
20
405.000000
11
188.354500
21
404.247016
0
LINE
8
0
10
188.354500
20
404.247016
11
188.301250
21
403.482125
0
LINE
8
0
10
188.301250
20
403.482125
11
187.964875
21
402.793172
0
LINE
8
0
10
187.964875
20
402.793172
11
187.369000
21
402.268000
0
LINE
8
0
10
187.369000
20
402.268000
11
186.616438
21
402.014500
0
LINE
8
0
10
186.616438
20
402.014500
11
185.851500
21
402.067750
0
LINE
8
0
10
185.851500
20
402.067750
11
185.162312
21
402.404125
0
LINE
8
0
10
185.162312
20
402.404125
11
184.637000
21
403.000000
0
LINE
8
0
10
184.637000
20
403.000000
11
184.425750
21
403.528375
0
LINE
8
0
10
184.425750
20
403.528375
11
184.372000
21
404.095000
0
LINE
8
0
10
184.372000
20
458.904000
11
184.425750
21
459.470750
0
LINE
8
0
10
184.425750
20
459.470750
11
184.637000
21
460.000000
0
LINE
8
0
10
184.637000
20
460.000000
11
185.162312
21
460.595313
0
LINE
8
0
10
185.162312
20
460.595313
11
185.851500
21
460.931500
0
LINE
8
0
10
185.851500
20
460.931500
11
186.616438
21
460.984938
0
LINE
8
0
10
186.616438
20
460.984938
11
187.369000
21
460.732000
0
LINE
8
0
10
187.369000
20
460.732000
11
187.964891
21
460.206266
0
LINE
8
0
10
187.964891
20
460.206266
11
188.301375
21
459.517125
0
LINE
8
0
10
188.301375
20
459.517125
11
188.354922
21
458.752422
0
LINE
8
0
10
188.354922
20
458.752422
11
188.102000
21
458.000000
0
LINE
8
0
10
188.102000
20
458.000000
11
187.576266
21
457.404109
0
LINE
8
0
10
187.576266
20
457.404109
11
186.887125
21
457.067625
0
LINE
8
0
10
186.887125
20
457.067625
11
186.122422
21
457.014078
0
LINE
8
0
10
186.122422
20
457.014078
11
185.370000
21
457.267000
0
LINE
8
0
10
185.370000
20
457.267000
11
184.661750
21
457.958375
0
LINE
8
0
10
184.661750
20
457.958375
11
184.372000
21
458.904000
0
LINE
8
0
10
187.500000
20
431.500000
11
187.740242
21
436.254315
0
LINE
8
0
10
187.740242
20
436.254315
11
188.445012
21
440.871303
0
LINE
8
0
10
188.445012
20
440.871303
11
189.590940
21
445.327588
0
LINE
8
0
10
189.590940
20
445.327588
11
191.154656
21
449.599797
0
LINE
8
0
10
191.154656
20
449.599797
11
193.112791
21
453.664554
0
LINE
8
0
10
193.112791
20
453.664554
11
195.441973
21
457.498486
0
LINE
8
0
10
195.441973
20
457.498486
11
198.118833
21
461.078218
0
LINE
8
0
10
198.118833
20
461.078218
11
201.120000
21
464.380375
0
LINE
8
0
10
201.120000
20
464.380375
11
204.422105
21
467.381583
0
LINE
8
0
10
204.422105
20
467.381583
11
208.001777
21
470.058467
0
LINE
8
0
10
208.001777
20
470.058467
11
211.835647
21
472.387653
0
LINE
8
0
10
211.835647
20
472.387653
11
215.900344
21
474.345766
0
LINE
8
0
10
215.900344
20
474.345766
11
220.172498
21
475.909431
0
LINE
8
0
10
220.172498
20
475.909431
11
224.628738
21
477.055275
0
LINE
8
0
10
224.628738
20
477.055275
11
229.245696
21
477.759923
0
LINE
8
0
10
229.245696
20
477.759923
11
234.000000
21
478.000000
0
LINE
8
0
10
234.000000
20
478.000000
11
238.754480
21
477.759923
0
LINE
8
0
10
238.754480
20
477.759923
11
243.371590
21
477.055275
0
LINE
8
0
10
243.371590
20
477.055275
11
247.827959
21
475.909431
0
LINE
8
0
10
247.827959
20
475.909431
11
252.100219
21
474.345766
0
LINE
8
0
10
252.100219
20
474.345766
11
256.164998
21
472.387653
0
LINE
8
0
10
256.164998
20
472.387653
11
259.998926
21
470.058467
0
LINE
8
0
10
259.998926
20
470.058467
11
263.578633
21
467.381583
0
LINE
8
0
10
263.578633
20
467.381583
11
266.880750
21
464.380375
0
LINE
8
0
10
266.880750
20
464.380375
11
269.881906
21
461.078218
0
LINE
8
0
10
269.881906
20
461.078218
11
272.558730
21
457.498486
0
LINE
8
0
10
272.558730
20
457.498486
11
274.887854
21
453.664554
0
LINE
8
0
10
274.887854
20
453.664554
11
276.845906
21
449.599797
0
LINE
8
0
10
276.845906
20
449.599797
11
278.409517
21
445.327588
0
LINE
8
0
10
278.409517
20
445.327588
11
279.555316
21
440.871303
0
LINE
8
0
10
279.555316
20
440.871303
11
280.259934
21
436.254315
0
LINE
8
0
10
280.259934
20
436.254315
11
280.500000
21
431.500000
0
LINE
8
0
10
280.500000
20
431.500000
11
280.259934
21
426.745685
0
LINE
8
0
10
280.259934
20
426.745685
11
279.555316
21
422.128697
0
LINE
8
0
10
279.555316
20
422.128697
11
278.409517
21
417.672412
0
LINE
8
0
10
278.409517
20
417.672412
11
276.845906
21
413.400203
0
LINE
8
0
10
276.845906
20
413.400203
11
274.887854
21
409.335446
0
LINE
8
0
10
274.887854
20
409.335446
11
272.558730
21
405.501514
0
LINE
8
0
10
272.558730
20
405.501514
11
269.881906
21
401.921782
0
LINE
8
0
10
269.881906
20
401.921782
11
266.880750
21
398.619625
0
LINE
8
0
10
266.880750
20
398.619625
11
263.578633
21
395.618417
0
LINE
8
0
10
263.578633
20
395.618417
11
259.998926
21
392.941533
0
LINE
8
0
10
259.998926
20
392.941533
11
256.164998
21
390.612347
0
LINE
8
0
10
256.164998
20
390.612347
11
252.100219
21
388.654234
0
LINE
8
0
10
252.100219
20
388.654234
11
247.827959
21
387.090569
0
LINE
8
0
10
247.827959
20
387.090569
11
243.371590
21
385.944725
0
LINE
8
0
10
243.371590
20
385.944725
11
238.754480
21
385.240077
0
LINE
8
0
10
238.754480
20
385.240077
11
234.000000
21
385.000000
0
LINE
8
0
10
234.000000
20
385.000000
11
229.245696
21
385.240077
0
LINE
8
0
10
229.245696
20
385.240077
11
224.628738
21
385.944725
0
LINE
8
0
10
224.628738
20
385.944725
11
220.172498
21
387.090569
0
LINE
8
0
10
220.172498
20
387.090569
11
215.900344
21
388.654234
0
LINE
8
0
10
215.900344
20
388.654234
11
211.835647
21
390.612347
0
LINE
8
0
10
211.835647
20
390.612347
11
208.001777
21
392.941533
0
LINE
8
0
10
208.001777
20
392.941533
11
204.422105
21
395.618417
0
LINE
8
0
10
204.422105
20
395.618417
11
201.120000
21
398.619625
0
LINE
8
0
10
201.120000
20
398.619625
11
198.118833
21
401.921782
0
LINE
8
0
10
198.118833
20
401.921782
11
195.441973
21
405.501514
0
LINE
8
0
10
195.441973
20
405.501514
11
193.112791
21
409.335446
0
LINE
8
0
10
193.112791
20
409.335446
11
191.154656
21
413.400203
0
LINE
8
0
10
191.154656
20
413.400203
11
189.590940
21
417.672412
0
LINE
8
0
10
189.590940
20
417.672412
11
188.445012
21
422.128697
0
LINE
8
0
10
188.445012
20
422.128697
11
187.740242
21
426.745685
0
LINE
8
0
10
187.740242
20
426.745685
11
187.500000
21
431.500000
0
LINE
8
0
10
232.000000
20
376.500000
11
232.157250
21
377.278672
0
LINE
8
0
10
232.157250
20
377.278672
11
232.586000
21
377.914375
0
LINE
8
0
10
232.586000
20
377.914375
11
233.221750
21
378.342891
0
LINE
8
0
10
233.221750
20
378.342891
11
234.000000
21
378.500000
0
LINE
8
0
10
234.000000
20
378.500000
11
234.778672
21
378.342750
0
LINE
8
0
10
234.778672
20
378.342750
11
235.414375
21
377.914000
0
LINE
8
0
10
235.414375
20
377.914000
11
235.842891
21
377.278250
0
LINE
8
0
10
235.842891
20
377.278250
11
236.000000
21
376.500000
0
LINE
8
0
10
236.000000
20
376.500000
11
235.842891
21
375.721328
0
LINE
8
0
10
235.842891
20
375.721328
11
235.414375
21
375.085625
0
LINE
8
0
10
235.414375
20
375.085625
11
234.778672
21
374.657109
0
LINE
8
0
10
234.778672
20
374.657109
11
234.000000
21
374.500000
0
LINE
8
0
10
234.000000
20
374.500000
11
233.221750
21
374.657109
0
LINE
8
0
10
233.221750
20
374.657109
11
232.586000
21
375.085625
0
LINE
8
0
10
232.586000
20
375.085625
11
232.157250
21
375.721328
0
LINE
8
0
10
232.157250
20
375.721328
11
232.000000
21
376.500000
0
LINE
8
0
10
232.000000
20
486.500000
11
232.157250
21
487.278234
0
LINE
8
0
10
232.157250
20
487.278234
11
232.586000
21
487.913875
0
LINE
8
0
10
232.586000
20
487.913875
11
233.221750
21
488.342328
0
LINE
8
0
10
233.221750
20
488.342328
11
234.000000
21
488.499000
0
LINE
8
0
10
234.000000
20
488.499000
11
234.778672
21
488.341906
0
LINE
8
0
10
234.778672
20
488.341906
11
235.414375
21
487.913500
0
LINE
8
0
10
235.414375
20
487.913500
11
235.842891
21
487.278094
0
LINE
8
0
10
235.842891
20
487.278094
11
236.000000
21
486.500000
0
LINE
8
0
10
236.000000
20
486.500000
11
235.843031
21
485.721172
0
LINE
8
0
10
235.843031
20
485.721172
11
235.414750
21
485.085125
0
LINE
8
0
10
235.414750
20
485.085125
11
234.779094
21
484.656266
0
LINE
8
0
10
234.779094
20
484.656266
11
234.000000
21
484.499000
0
LINE
8
0
10
234.000000
20
484.499000
11
233.221750
21
484.656266
0
LINE
8
0
10
233.221750
20
484.656266
11
232.586000
21
485.085125
0
LINE
8
0
10
232.586000
20
485.085125
11
232.157250
21
485.721172
0
LINE
8
0
10
232.157250
20
485.721172
11
232.000000
21
486.500000
0
LINE
8
0
10
279.633000
20
403.904000
11
279.687625
21
404.471125
0
LINE
8
0
10
279.687625
20
404.471125
11
279.899000
21
405.000000
0
LINE
8
0
10
279.899000
20
405.000000
11
280.424734
21
405.595313
0
LINE
8
0
10
280.424734
20
405.595313
11
281.113875
21
405.931500
0
LINE
8
0
10
281.113875
20
405.931500
11
281.878578
21
405.984938
0
LINE
8
0
10
281.878578
20
405.984938
11
282.631000
21
405.732000
0
LINE
8
0
10
282.631000
20
405.732000
11
283.226313
21
405.206266
0
LINE
8
0
10
283.226313
20
405.206266
11
283.562500
21
404.517125
0
LINE
8
0
10
283.562500
20
404.517125
11
283.615937
21
403.752422
0
LINE
8
0
10
283.615937
20
403.752422
11
283.363000
21
403.000000
0
LINE
8
0
10
283.363000
20
403.000000
11
282.837828
21
402.404125
0
LINE
8
0
10
282.837828
20
402.404125
11
282.148875
21
402.067750
0
LINE
8
0
10
282.148875
20
402.067750
11
281.383984
21
402.014500
0
LINE
8
0
10
281.383984
20
402.014500
11
280.631000
21
402.268000
0
LINE
8
0
10
280.631000
20
402.268000
11
279.923125
21
402.958875
0
LINE
8
0
10
279.923125
20
402.958875
11
279.633000
21
403.904000
0
LINE
8
0
10
279.633000
20
459.095000
11
279.923125
21
460.040625
0
LINE
8
0
10
279.923125
20
460.040625
11
280.631000
21
460.732000
0
LINE
8
0
10
280.631000
20
460.732000
11
281.383984
21
460.984938
0
LINE
8
0
10
281.383984
20
460.984938
11
282.148875
21
460.931500
0
LINE
8
0
10
282.148875
20
460.931500
11
282.837828
21
460.595313
0
LINE
8
0
10
282.837828
20
460.595313
11
283.363000
21
460.000000
0
LINE
8
0
10
283.363000
20
460.000000
11
283.616078
21
459.247000
0
LINE
8
0
10
283.616078
20
459.247000
11
283.562875
21
458.482000
0
LINE
8
0
10
283.562875
20
458.482000
11
283.226734
21
457.792750
0
LINE
8
0
10
283.226734
20
457.792750
11
282.631000
21
457.267000
0
LINE
8
0
10
282.631000
20
457.267000
11
281.878438
21
457.014078
0
LINE
8
0
10
281.878438
20
457.014078
11
281.113500
21
457.067625
0
LINE
8
0
10
281.113500
20
457.067625
11
280.424313
21
457.404109
0
LINE
8
0
10
280.424313
20
457.404109
11
279.899000
21
458.000000
0
LINE
8
0
10
279.899000
20
458.000000
11
279.687625
21
458.528375
0
LINE
8
0
10
279.687625
20
458.528375
11
279.633000
21
459.095000
0
LINE
8
0
10
296.982000
20
230.001000
11
297.138969
21
230.779250
0
LINE
8
0
10
297.138969
20
230.779250
11
297.567250
21
231.415000
0
LINE
8
0
10
297.567250
20
231.415000
11
298.202906
21
231.843750
0
LINE
8
0
10
298.202906
20
231.843750
11
298.982000
21
232.001000
0
LINE
8
0
10
298.982000
20
232.001000
11
299.760250
21
231.843750
0
LINE
8
0
10
299.760250
20
231.843750
11
300.396000
21
231.415000
0
LINE
8
0
10
300.396000
20
231.415000
11
300.824750
21
230.779250
0
LINE
8
0
10
300.824750
20
230.779250
11
300.982000
21
230.001000
0
LINE
8
0
10
300.982000
20
230.001000
11
300.824750
21
229.222469
0
LINE
8
0
10
300.824750
20
229.222469
11
300.396000
21
228.587000
0
LINE
8
0
10
300.396000
20
228.587000
11
299.760250
21
228.158531
0
LINE
8
0
10
299.760250
20
228.158531
11
298.982000
21
228.001000
0
LINE
8
0
10
298.982000
20
228.001000
11
298.203328
21
228.158109
0
LINE
8
0
10
298.203328
20
228.158109
11
297.567625
21
228.586625
0
LINE
8
0
10
297.567625
20
228.586625
11
297.139109
21
229.222328
0
LINE
8
0
10
297.139109
20
229.222328
11
296.982000
21
230.001000
0
LINE
8
0
10
296.982000
20
506.501000
11
297.138969
21
507.279672
0
LINE
8
0
10
297.138969
20
507.279672
11
297.567250
21
507.915375
0
LINE
8
0
10
297.567250
20
507.915375
11
298.202906
21
508.343891
0
LINE
8
0
10
298.202906
20
508.343891
11
298.982000
21
508.501000
0
LINE
8
0
10
298.982000
20
508.501000
11
299.760250
21
508.343891
0
LINE
8
0
10
299.760250
20
508.343891
11
300.396000
21
507.915375
0
LINE
8
0
10
300.396000
20
507.915375
11
300.824750
21
507.279672
0
LINE
8
0
10
300.824750
20
507.279672
11
300.982000
21
506.501000
0
LINE
8
0
10
300.982000
20
506.501000
11
300.824750
21
505.722750
0
LINE
8
0
10
300.824750
20
505.722750
11
300.396000
21
505.087000
0
LINE
8
0
10
300.396000
20
505.087000
11
299.760250
21
504.658250
0
LINE
8
0
10
299.760250
20
504.658250
11
298.982000
21
504.501000
0
LINE
8
0
10
298.982000
20
504.501000
11
298.203328
21
504.658109
0
LINE
8
0
10
298.203328
20
504.658109
11
297.567625
21
505.086625
0
LINE
8
0
10
297.567625
20
505.086625
11
297.139109
21
505.722328
0
LINE
8
0
10
297.139109
20
505.722328
11
296.982000
21
506.501000
0
LINE
8
0
10
307.018000
20
230.001000
11
307.175094
21
230.779250
0
LINE
8
0
10
307.175094
20
230.779250
11
307.603500
21
231.415000
0
LINE
8
0
10
307.603500
20
231.415000
11
308.238906
21
231.843750
0
LINE
8
0
10
308.238906
20
231.843750
11
309.017000
21
232.001000
0
LINE
8
0
10
309.017000
20
232.001000
11
309.795828
21
231.843750
0
LINE
8
0
10
309.795828
20
231.843750
11
310.431875
21
231.415000
0
LINE
8
0
10
310.431875
20
231.415000
11
310.860734
21
230.779250
0
LINE
8
0
10
310.860734
20
230.779250
11
311.018000
21
230.001000
0
LINE
8
0
10
311.018000
20
230.001000
11
310.860734
21
229.222469
0
LINE
8
0
10
310.860734
20
229.222469
11
310.431875
21
228.587000
0
LINE
8
0
10
310.431875
20
228.587000
11
309.795828
21
228.158531
0
LINE
8
0
10
309.795828
20
228.158531
11
309.017000
21
228.001000
0
LINE
8
0
10
309.017000
20
228.001000
11
308.238906
21
228.158109
0
LINE
8
0
10
308.238906
20
228.158109
11
307.603500
21
228.586625
0
LINE
8
0
10
307.603500
20
228.586625
11
307.175094
21
229.222328
0
LINE
8
0
10
307.175094
20
229.222328
11
307.018000
21
230.001000
0
LINE
8
0
10
307.018000
20
310.001000
11
307.175094
21
310.779828
0
LINE
8
0
10
307.175094
20
310.779828
11
307.603500
21
311.415875
0
LINE
8
0
10
307.603500
20
311.415875
11
308.238906
21
311.844734
0
LINE
8
0
10
308.238906
20
311.844734
11
309.017000
21
312.002000
0
LINE
8
0
10
309.017000
20
312.002000
11
309.795828
21
311.844734
0
LINE
8
0
10
309.795828
20
311.844734
11
310.431875
21
311.415875
0
LINE
8
0
10
310.431875
20
311.415875
11
310.860734
21
310.779828
0
LINE
8
0
10
310.860734
20
310.779828
11
311.018000
21
310.001000
0
LINE
8
0
10
311.018000
20
310.001000
11
310.860734
21
309.222750
0
LINE
8
0
10
310.860734
20
309.222750
11
310.431875
21
308.587000
0
LINE
8
0
10
310.431875
20
308.587000
11
309.795828
21
308.158250
0
LINE
8
0
10
309.795828
20
308.158250
11
309.017000
21
308.001000
0
LINE
8
0
10
309.017000
20
308.001000
11
308.238906
21
308.158109
0
LINE
8
0
10
308.238906
20
308.158109
11
307.603500
21
308.586625
0
LINE
8
0
10
307.603500
20
308.586625
11
307.175094
21
309.222328
0
LINE
8
0
10
307.175094
20
309.222328
11
307.018000
21
310.001000
0
LINE
8
0
10
307.018000
20
426.501000
11
307.175094
21
427.279672
0
LINE
8
0
10
307.175094
20
427.279672
11
307.603500
21
427.915375
0
LINE
8
0
10
307.603500
20
427.915375
11
308.238906
21
428.343891
0
LINE
8
0
10
308.238906
20
428.343891
11
309.017000
21
428.501000
0
LINE
8
0
10
309.017000
20
428.501000
11
309.795828
21
428.343891
0
LINE
8
0
10
309.795828
20
428.343891
11
310.431875
21
427.915375
0
LINE
8
0
10
310.431875
20
427.915375
11
310.860734
21
427.279672
0
LINE
8
0
10
310.860734
20
427.279672
11
311.018000
21
426.501000
0
LINE
8
0
10
311.018000
20
426.501000
11
310.860734
21
425.722906
0
LINE
8
0
10
310.860734
20
425.722906
11
310.431875
21
425.087500
0
LINE
8
0
10
310.431875
20
425.087500
11
309.795828
21
424.659094
0
LINE
8
0
10
309.795828
20
424.659094
11
309.017000
21
424.502000
0
LINE
8
0
10
309.017000
20
424.502000
11
308.238906
21
424.658953
0
LINE
8
0
10
308.238906
20
424.658953
11
307.603500
21
425.087125
0
LINE
8
0
10
307.603500
20
425.087125
11
307.175094
21
425.722484
0
LINE
8
0
10
307.175094
20
425.722484
11
307.018000
21
426.501000
0
LINE
8
0
10
307.018000
20
506.501000
11
307.175094
21
507.279672
0
LINE
8
0
10
307.175094
20
507.279672
11
307.603500
21
507.915375
0
LINE
8
0
10
307.603500
20
507.915375
11
308.238906
21
508.343891
0
LINE
8
0
10
308.238906
20
508.343891
11
309.017000
21
508.501000
0
LINE
8
0
10
309.017000
20
508.501000
11
309.795828
21
508.343891
0
LINE
8
0
10
309.795828
20
508.343891
11
310.431875
21
507.915375
0
LINE
8
0
10
310.431875
20
507.915375
11
310.860734
21
507.279672
0
LINE
8
0
10
310.860734
20
507.279672
11
311.018000
21
506.501000
0
LINE
8
0
10
311.018000
20
506.501000
11
310.860734
21
505.722750
0
LINE
8
0
10
310.860734
20
505.722750
11
310.431875
21
505.087000
0
LINE
8
0
10
310.431875
20
505.087000
11
309.795828
21
504.658250
0
LINE
8
0
10
309.795828
20
504.658250
11
309.017000
21
504.501000
0
LINE
8
0
10
309.017000
20
504.501000
11
308.238906
21
504.658109
0
LINE
8
0
10
308.238906
20
504.658109
11
307.603500
21
505.086625
0
LINE
8
0
10
307.603500
20
505.086625
11
307.175094
21
505.722328
0
LINE
8
0
10
307.175094
20
505.722328
11
307.018000
21
506.501000
 0 
ENDSEC
 0 
EOF