999
"DXF R12 Output" (www.mydxf.blogspot.com)
 0 
SECTION
 2 
HEADER
 9 
$ACADVER
 1 
AC1009
 9 
$EXTMIN
 10 
 0 
 20 
 0 
 9 
$EXTMAX
 10 
 8.5 
 20 
 11 
 0 
ENDSEC
 0 
SECTION
 2 
ENTITIES
0
LINE
8
Layer 1
10
0.793749
20
297.794000
11
-0.793749
21
296.206000
0
LINE
8
Layer 1
10
0.000000
20
298.323000
11
0.000000
21
295.677000
0
LINE
8
Layer 1
10
2.116660
20
295.942000
11
1.058330
21
294.883670
0
LINE
8
Layer 1
10
1.587500
20
296.471000
11
0.529170
21
295.412670
0
LINE
8
Layer 1
10
1.058330
20
297.000000
11
0.000000
21
295.941670
0
LINE
8
Layer 1
10
280.601000
20
2923.520000
11
281.051585
21
2922.710376
0
LINE
8
Layer 1
10
281.051000
20
2922.710000
11
281.667743
21
2920.847340
0
LINE
8
Layer 1
10
281.668000
20
2920.840000
11
282.137106
21
2918.895310
0
LINE
8
Layer 1
10
282.137000
20
2918.900000
11
282.843437
21
2914.748690
0
LINE
8
Layer 1
10
282.844000
20
2914.750000
11
283.135835
21
2912.924380
0
LINE
8
Layer 1
10
283.135000
20
2912.920000
11
283.312800
21
2909.371940
0
LINE
8
Layer 1
10
283.313000
20
2909.370000
11
283.145254
21
2905.692300
0
LINE
8
Layer 1
10
283.145000
20
2905.700000
11
282.987838
21
2904.435290
0
LINE
8
Layer 1
10
282.988000
20
2904.430000
11
282.907831
21
2903.458980
0
LINE
8
Layer 1
10
282.908000
20
2903.460000
11
283.015685
21
2902.248210
0
LINE
8
Layer 1
10
283.016000
20
2902.250000
11
283.352550
21
2901.437730
0
LINE
8
Layer 1
10
283.352000
20
2901.440000
11
283.710775
21
2900.992855
0
LINE
8
Layer 1
10
283.711000
20
2900.990000
11
284.225879
21
2900.606355
0
LINE
8
Layer 1
10
284.226000
20
2900.610000
11
284.815756
21
2900.385104
0
LINE
8
Layer 1
10
284.816000
20
2900.380000
11
285.361835
21
2900.313854
0
LINE
8
Layer 1
10
285.362000
20
2900.310000
11
286.179297
21
2900.444937
0
LINE
8
Layer 1
10
286.179000
20
2900.450000
11
286.886230
21
2900.801895
0
LINE
8
Layer 1
10
286.886000
20
2900.800000
11
287.131268
21
2901.059291
0
LINE
8
Layer 1
10
287.131000
20
2901.060000
11
287.442150
21
2901.372208
0
LINE
8
Layer 1
10
287.442000
20
2901.370000
11
287.740979
21
2902.052624
0
LINE
8
Layer 1
10
287.741000
20
2902.060000
11
287.741000
21
2902.060000
0
LINE
8
Layer 1
10
287.741000
20
2902.060000
11
287.913773
21
2902.673833
0
LINE
8
Layer 1
10
287.914000
20
2902.670000
11
288.090212
21
2903.246791
0
LINE
8
Layer 1
10
288.090000
20
2903.250000
11
288.097937
21
2903.273813
0
LINE
8
Layer 1
10
288.098000
20
2903.270000
11
288.165204
21
2903.489604
0
LINE
8
Layer 1
10
288.166000
20
2903.490000
11
288.228971
21
2904.162041
0
LINE
8
Layer 1
10
288.229000
20
2904.160000
11
288.229000
21
2903.870000
0
LINE
8
Layer 1
10
288.229000
20
2903.870000
11
288.223973
21
2903.830313
0
LINE
8
Layer 1
10
288.224000
20
2903.830000
11
288.374812
21
2904.568187
0
LINE
8
Layer 1
10
288.374000
20
2904.570000
11
289.064562
21
2907.618000
0
LINE
8
Layer 1
10
289.065000
20
2907.610000
11
290.142380
21
2910.761180
0
LINE
8
Layer 1
10
290.142000
20
2910.770000
11
290.557924
21
2911.735728
0
LINE
8
Layer 1
10
290.558000
20
2911.730000
11
290.630496
21
2911.690313
0
LINE
8
Layer 1
10
290.631000
20
2911.690000
11
291.786430
21
2910.427940
0
LINE
8
Layer 1
10
291.786000
20
2910.430000
11
293.355510
21
2908.424460
0
LINE
8
Layer 1
10
293.356000
20
2908.420000
11
293.944009
21
2907.441043
0
LINE
8
Layer 1
10
293.944000
20
2907.440000
11
294.383737
21
2906.431940
0
LINE
8
Layer 1
10
294.383000
20
2906.440000
11
294.749633
21
2904.442400
0
LINE
8
Layer 1
10
294.750000
20
2904.440000
11
294.777649
21
2901.976730
0
LINE
8
Layer 1
10
294.778000
20
2901.980000
11
294.743975
21
2900.350170
0
LINE
8
Layer 1
10
294.744000
20
2900.350000
11
294.551172
21
2898.672540
0
LINE
8
Layer 1
10
294.551000
20
2898.670000
11
294.286311
21
2896.825860
0
LINE
8
Layer 1
10
294.286000
20
2896.820000
11
293.852534
21
2894.875310
0
LINE
8
Layer 1
10
293.853000
20
2894.880000
11
293.684540
21
2894.192084
0
LINE
8
Layer 1
10
293.684000
20
2894.190000
11
293.475826
21
2892.888250
0
LINE
8
Layer 1
10
293.476000
20
2892.890000
11
293.540558
21
2892.220605
0
LINE
8
Layer 1
10
293.541000
20
2892.220000
11
293.786401
21
2891.585001
0
LINE
8
Layer 1
10
293.786000
20
2891.590000
11
294.431477
21
2890.859751
0
LINE
8
Layer 1
10
294.431000
20
2890.860000
11
295.456340
21
2890.431376
0
LINE
8
Layer 1
10
295.457000
20
2890.430000
11
296.371611
21
2890.422063
0
LINE
8
Layer 1
10
296.371000
20
2890.420000
11
297.213829
21
2890.769250
0
LINE
8
Layer 1
10
297.214000
20
2890.770000
11
297.738483
21
2891.185395
0
LINE
8
Layer 1
10
297.739000
20
2891.180000
11
297.845971
21
2891.354625
0
LINE
8
Layer 1
10
297.846000
20
2891.360000
11
298.010597
21
2891.582250
0
LINE
8
Layer 1
10
298.010000
20
2891.580000
11
298.017408
21
2891.595875
0
LINE
8
Layer 1
10
298.018000
20
2891.600000
11
298.919249
21
2892.817080
0
LINE
8
Layer 1
10
298.919000
20
2892.810000
11
300.604160
21
2894.876390
0
LINE
8
Layer 1
10
300.604000
20
2894.880000
11
301.946040
21
2896.486020
0
LINE
8
Layer 1
10
301.946000
20
2896.490000
11
304.764950
21
2899.469200
0
LINE
8
Layer 1
10
304.765000
20
2899.460000
11
306.147870
21
2901.161270
0
LINE
8
Layer 1
10
306.148000
20
2901.170000
11
306.476136
21
2901.439875
0
LINE
8
Layer 1
10
306.476000
20
2901.440000
11
306.729206
21
2901.268021
0
LINE
8
Layer 1
10
306.729000
20
2901.260000
11
307.445676
21
2899.841840
0
LINE
8
Layer 1
10
307.446000
20
2899.850000
11
307.760774
21
2898.773150
0
LINE
8
Layer 1
10
307.761000
20
2898.770000
11
307.891757
21
2897.777814
0
LINE
8
Layer 1
10
307.892000
20
2897.780000
11
307.787093
21
2896.023170
0
LINE
8
Layer 1
10
307.787000
20
2896.020000
11
307.386607
21
2893.464130
0
LINE
8
Layer 1
10
307.386000
20
2893.460000
11
306.683876
21
2890.856500
0
LINE
8
Layer 1
10
306.684000
20
2890.860000
11
304.801700
21
2885.475740
0
LINE
8
Layer 1
10
304.802000
20
2885.480000
11
303.573120
21
2881.902840
0
LINE
8
Layer 1
10
303.573000
20
2881.900000
11
303.173030
21
2880.616770
0
LINE
8
Layer 1
10
303.173000
20
2880.620000
11
302.819544
21
2879.839480
0
LINE
8
Layer 1
10
302.820000
20
2879.840000
11
301.981298
21
2879.252626
0
LINE
8
Layer 1
10
301.981000
20
2879.250000
11
301.691096
21
2879.056854
0
LINE
8
Layer 1
10
301.691000
20
2879.050000
11
299.950020
21
2877.981080
0
LINE
8
Layer 1
10
299.950000
20
2877.990000
11
299.466289
21
2877.664563
0
LINE
8
Layer 1
10
299.466000
20
2877.660000
11
299.246899
21
2877.493313
0
LINE
8
Layer 1
10
299.247000
20
2877.490000
11
299.026893
21
2877.288917
0
LINE
8
Layer 1
10
299.027000
20
2877.290000
11
298.503999
21
2876.985730
0
LINE
8
Layer 1
10
298.504000
20
2876.990000
11
298.420815
21
2876.947667
0
LINE
8
Layer 1
10
298.421000
20
2876.950000
11
297.881489
21
2876.569000
0
LINE
8
Layer 1
10
297.881000
20
2876.570000
11
295.879060
21
2875.146540
0
LINE
8
Layer 1
10
295.879000
20
2875.140000
11
295.391691
21
2874.793396
0
LINE
8
Layer 1
10
295.392000
20
2874.800000
11
295.236452
21
2874.662417
0
LINE
8
Layer 1
10
295.237000
20
2874.660000
11
293.497630
21
2873.112190
0
LINE
8
Layer 1
10
293.497000
20
2873.110000
11
293.377144
21
2873.004167
0
LINE
8
Layer 1
10
293.377000
20
2873.000000
11
291.242610
21
2871.245810
0
LINE
8
Layer 1
10
291.243000
20
2871.250000
11
291.014136
21
2871.059500
0
LINE
8
Layer 1
10
291.014000
20
2871.060000
11
290.462609
21
2870.729271
0
LINE
8
Layer 1
10
290.463000
20
2870.730000
11
289.514205
21
2870.097647
0
LINE
8
Layer 1
10
289.514000
20
2870.100000
11
289.398377
21
2870.012688
0
LINE
8
Layer 1
10
289.398000
20
2870.010000
11
289.061980
21
2869.676625
0
LINE
8
Layer 1
10
289.062000
20
2869.680000
11
287.728240
21
2868.791001
0
LINE
8
Layer 1
10
287.729000
20
2868.790000
11
286.935251
21
2868.345501
0
LINE
8
Layer 1
10
286.935000
20
2868.340000
11
285.255960
21
2867.855813
0
LINE
8
Layer 1
10
285.256000
20
2867.860000
11
285.084021
21
2867.807083
0
LINE
8
Layer 1
10
285.084000
20
2867.800000
11
284.062450
21
2867.490438
0
LINE
8
Layer 1
10
284.062000
20
2867.500000
11
283.192580
21
2867.031688
0
LINE
8
Layer 1
10
283.193000
20
2867.030000
11
282.287862
21
2866.077501
0
LINE
8
Layer 1
10
282.288000
20
2866.070000
11
282.284825
21
2866.064708
0
LINE
8
Layer 1
10
282.284000
20
2866.070000
11
277.279680
21
2863.590860
0
LINE
8
Layer 1
10
277.280000
20
2863.590000
11
274.348950
21
2862.542250
0
LINE
8
Layer 1
10
274.349000
20
2862.540000
11
273.039580
21
2861.931459
0
LINE
8
Layer 1
10
273.040000
20
2861.930000
11
272.940252
21
2861.892958
0
LINE
8
Layer 1
10
272.940000
20
2861.900000
11
271.602000
21
2861.392001
0
LINE
8
Layer 1
10
271.602000
20
2861.390000
11
271.391127
21
2861.310625
0
LINE
8
Layer 1
10
271.391000
20
2861.310000
11
271.118215
21
2861.164479
0
LINE
8
Layer 1
10
271.118000
20
2861.160000
11
270.863207
21
2861.091208
0
LINE
8
Layer 1
10
270.863000
20
2861.100000
11
270.725152
21
2861.041792
0
LINE
8
Layer 1
10
270.726000
20
2861.040000
11
268.959110
21
2860.299168
0
LINE
8
Layer 1
10
268.959000
20
2860.300000
11
268.839144
21
2860.247083
0
LINE
8
Layer 1
10
268.839000
20
2860.240000
11
267.906610
21
2859.710834
0
LINE
8
Layer 1
10
267.906000
20
2859.710000
11
267.860492
21
2859.688833
0
LINE
8
Layer 1
10
267.861000
20
2859.690000
11
266.696310
21
2859.155542
0
LINE
8
Layer 1
10
266.696000
20
2859.160000
11
266.533811
21
2859.085917
0
LINE
8
Layer 1
10
266.534000
20
2859.080000
11
265.764328
21
2858.542897
0
LINE
8
Layer 1
10
265.764000
20
2858.550000
11
265.752623
21
2858.539417
0
LINE
8
Layer 1
10
265.753000
20
2858.540000
11
265.671508
21
2858.500313
0
LINE
8
Layer 1
10
265.672000
20
2858.500000
11
263.757210
21
2857.648043
0
LINE
8
Layer 1
10
263.757000
20
2857.640000
11
261.562020
21
2856.507580
0
LINE
8
Layer 1
10
261.562000
20
2856.510000
11
260.758461
21
2856.295688
0
LINE
8
Layer 1
10
260.758000
20
2856.300000
11
260.212165
21
2856.069813
0
LINE
8
Layer 1
10
260.212000
20
2856.070000
11
258.465750
21
2855.331813
0
LINE
8
Layer 1
10
258.466000
20
2855.330000
11
258.076005
21
2855.165959
0
LINE
8
Layer 1
10
258.076000
20
2855.170000
11
257.725692
21
2855.061521
0
LINE
8
Layer 1
10
257.726000
20
2855.060000
11
255.351900
21
2854.332397
0
LINE
8
Layer 1
10
255.352000
20
2854.330000
11
254.909617
21
2854.192417
0
LINE
8
Layer 1
10
254.909000
20
2854.190000
11
254.838621
21
2854.152958
0
LINE
8
Layer 1
10
254.839000
20
2854.160000
11
254.344494
21
2853.935104
0
LINE
8
Layer 1
10
254.344000
20
2853.930000
11
253.606607
21
2853.697167
0
LINE
8
Layer 1
10
253.607000
20
2853.700000
11
252.494430
21
2853.205230
0
LINE
8
Layer 1
10
252.495000
20
2853.200000
11
252.357152
21
2853.139146
0
LINE
8
Layer 1
10
252.357000
20
2853.140000
11
251.683107
21
2852.727251
0
LINE
8
Layer 1
10
251.683000
20
2852.730000
11
251.375555
21
2852.454834
0
LINE
8
Layer 1
10
251.375000
20
2852.450000
11
250.955901
21
2852.188063
0
LINE
8
Layer 1
10
250.956000
20
2852.190000
11
250.778729
21
2852.033896
0
LINE
8
Layer 1
10
250.779000
20
2852.040000
11
248.753090
21
2850.259360
0
LINE
8
Layer 1
10
248.753000
20
2850.260000
11
248.615681
21
2850.138292
0
LINE
8
Layer 1
10
248.616000
20
2850.130000
11
247.106550
21
2848.981710
0
LINE
8
Layer 1
10
247.106000
20
2848.990000
11
246.156147
21
2848.355001
0
LINE
8
Layer 1
10
246.156000
20
2848.350000
11
245.899619
21
2848.230938
0
LINE
8
Layer 1
10
245.900000
20
2848.230000
11
245.826711
21
2848.190313
0
LINE
8
Layer 1
10
245.827000
20
2848.190000
11
245.163955
21
2847.840750
0
LINE
8
Layer 1
10
245.164000
20
2847.840000
11
245.034883
21
2847.771208
0
LINE
8
Layer 1
10
245.035000
20
2847.770000
11
244.816190
21
2847.587438
0
LINE
8
Layer 1
10
244.816000
20
2847.590000
11
243.868793
21
2846.796251
0
LINE
8
Layer 1
10
243.869000
20
2846.800000
11
243.769517
21
2846.715333
0
LINE
8
Layer 1
10
243.769000
20
2846.710000
11
243.305451
21
2846.471875
0
LINE
8
Layer 1
10
243.306000
20
2846.470000
11
243.161273
21
2847.107645
0
LINE
8
Layer 1
10
243.161000
20
2847.110000
11
242.911763
21
2848.395870
0
LINE
8
Layer 1
10
242.912000
20
2848.400000
11
242.883690
21
2848.534937
0
LINE
8
Layer 1
10
242.883000
20
2848.530000
11
242.273665
21
2851.120270
0
LINE
8
Layer 1
10
242.274000
20
2851.120000
11
242.111811
21
2853.953680
0
LINE
8
Layer 1
10
242.112000
20
2853.960000
11
242.298531
21
2857.084730
0
LINE
8
Layer 1
10
242.298000
20
2857.080000
11
242.482150
21
2858.482290
0
LINE
8
Layer 1
10
242.482000
20
2858.480000
11
242.706102
21
2859.292270
0
LINE
8
Layer 1
10
242.707000
20
2859.300000
11
243.855290
21
2858.545938
0
LINE
8
Layer 1
10
243.855000
20
2858.540000
11
244.547149
21
2858.029355
0
LINE
8
Layer 1
10
244.547000
20
2858.030000
11
245.371970
21
2857.776000
0
LINE
8
Layer 1
10
245.372000
20
2857.780000
11
246.536430
21
2857.822333
0
LINE
8
Layer 1
10
246.536000
20
2857.820000
11
247.428438
21
2858.195708
0
LINE
8
Layer 1
10
247.429000
20
2858.200000
11
247.932766
21
2858.668312
0
LINE
8
Layer 1
10
247.933000
20
2858.660000
11
248.178533
21
2859.027770
0
LINE
8
Layer 1
10
248.178000
20
2859.030000
11
248.300502
21
2859.291937
0
LINE
8
Layer 1
10
248.301000
20
2859.290000
11
248.440435
21
2859.808583
0
LINE
8
Layer 1
10
248.440000
20
2859.810000
11
248.467517
21
2860.122208
0
LINE
8
Layer 1
10
248.468000
20
2860.120000
11
248.464825
21
2860.302562
0
LINE
8
Layer 1
10
248.464000
20
2860.310000
11
248.453946
21
2860.463458
0
LINE
8
Layer 1
10
248.454000
20
2860.460000
11
248.430717
21
2860.716646
0
LINE
8
Layer 1
10
248.431000
20
2860.720000
11
248.406129
21
2860.955479
0
LINE
8
Layer 1
10
248.406000
20
2860.950000
11
248.397004
21
2861.037312
0
LINE
8
Layer 1
10
248.397000
20
2861.040000
11
248.391973
21
2861.084979
0
LINE
8
Layer 1
10
248.392000
20
2861.080000
11
248.386179
21
2861.124979
0
LINE
8
Layer 1
10
248.386000
20
2861.130000
11
248.377004
21
2861.188208
0
LINE
8
Layer 1
10
248.377000
20
2861.190000
11
248.366946
21
2861.234979
0
LINE
8
Layer 1
10
248.367000
20
2861.230000
11
248.066698
21
2862.373000
0
LINE
8
Layer 1
10
248.067000
20
2862.380000
11
247.677005
21
2863.287520
0
LINE
8
Layer 1
10
247.677000
20
2863.280000
11
247.025861
21
2864.470620
0
LINE
8
Layer 1
10
247.026000
20
2864.470000
11
246.047572
21
2867.102600
0
LINE
8
Layer 1
10
246.047000
20
2867.110000
11
245.671557
21
2868.501710
0
LINE
8
Layer 1
10
245.672000
20
2868.500000
11
245.470652
21
2869.801750
0
LINE
8
Layer 1
10
245.471000
20
2869.800000
11
245.508306
21
2872.628390
0
LINE
8
Layer 1
10
245.508000
20
2872.630000
11
245.631560
21
2873.791520
0
LINE
8
Layer 1
10
245.632000
20
2873.790000
11
246.170426
21
2875.581230
0
LINE
8
Layer 1
10
246.170000
20
2875.580000
11
246.507608
21
2876.749460
0
LINE
8
Layer 1
10
246.508000
20
2876.750000
11
246.981868
21
2877.594020
0
LINE
8
Layer 1
10
246.981000
20
2877.590000
11
248.198880
21
2879.016100
0
LINE
8
Layer 1
10
248.199000
20
2879.020000
11
248.685304
21
2879.321625
0
LINE
8
Layer 1
10
248.686000
20
2879.320000
11
249.207758
21
2878.891376
0
LINE
8
Layer 1
10
249.207000
20
2878.890000
11
249.947832
21
2878.236480
0
LINE
8
Layer 1
10
249.948000
20
2878.240000
11
250.527172
21
2877.239880
0
LINE
8
Layer 1
10
250.527000
20
2877.240000
11
250.581769
21
2877.152688
0
LINE
8
Layer 1
10
250.582000
20
2877.150000
11
250.688892
21
2876.980667
0
LINE
8
Layer 1
10
250.689000
20
2876.980000
11
251.023433
21
2876.461417
0
LINE
8
Layer 1
10
251.023000
20
2876.460000
11
251.084648
21
2876.370042
0
LINE
8
Layer 1
10
251.085000
20
2876.370000
11
251.340587
21
2875.518043
0
LINE
8
Layer 1
10
251.341000
20
2875.520000
11
251.803491
21
2874.792397
0
LINE
8
Layer 1
10
251.803000
20
2874.800000
11
252.105418
21
2874.508959
0
LINE
8
Layer 1
10
252.106000
20
2874.500000
11
252.649189
21
2874.179855
0
LINE
8
Layer 1
10
252.649000
20
2874.180000
11
253.573453
21
2873.997438
0
LINE
8
Layer 1
10
253.573000
20
2874.000000
11
254.626040
21
2874.190500
0
LINE
8
Layer 1
10
254.626000
20
2874.190000
11
255.290103
21
2874.631854
0
LINE
8
Layer 1
10
255.290000
20
2874.630000
11
255.658035
21
2875.111541
0
LINE
8
Layer 1
10
255.658000
20
2875.120000
11
255.744783
21
2875.247000
0
LINE
8
Layer 1
10
255.745000
20
2875.240000
11
255.712986
21
2875.208250
0
LINE
8
Layer 1
10
255.713000
20
2875.210000
11
255.761683
21
2875.273500
0
LINE
8
Layer 1
10
255.762000
20
2875.270000
11
255.951441
21
2875.627187
0
LINE
8
Layer 1
10
255.951000
20
2875.630000
11
255.971637
21
2875.667042
0
LINE
8
Layer 1
10
255.972000
20
2875.670000
11
255.770652
21
2875.286355
0
LINE
8
Layer 1
10
255.771000
20
2875.280000
11
255.950387
21
2875.507541
0
LINE
8
Layer 1
10
255.950000
20
2875.510000
11
256.206646
21
2876.356666
0
LINE
8
Layer 1
10
256.207000
20
2876.360000
11
256.152760
21
2877.378640
0
LINE
8
Layer 1
10
256.152000
20
2877.380000
11
255.714380
21
2878.210791
0
LINE
8
Layer 1
10
255.715000
20
2878.210000
11
255.455444
21
2882.639120
0
LINE
8
Layer 1
10
255.455000
20
2882.640000
11
255.603431
21
2886.846870
0
LINE
8
Layer 1
10
255.604000
20
2886.840000
11
255.687608
21
2888.520100
0
LINE
8
Layer 1
10
255.687000
20
2888.520000
11
256.317501
21
2892.499330
0
LINE
8
Layer 1
10
256.318000
20
2892.500000
11
256.634177
21
2894.124540
0
LINE
8
Layer 1
10
256.634000
20
2894.130000
11
256.999389
21
2895.476730
0
LINE
8
Layer 1
10
256.999000
20
2895.470000
11
257.335020
21
2896.149978
0
LINE
8
Layer 1
10
257.335000
20
2896.150000
11
257.670756
21
2896.422520
0
LINE
8
Layer 1
10
257.671000
20
2896.430000
11
257.696929
21
2896.432646
0
LINE
8
Layer 1
10
257.697000
20
2896.430000
11
258.176954
21
2896.318875
0
LINE
8
Layer 1
10
258.177000
20
2896.320000
11
258.719924
21
2896.018375
0
LINE
8
Layer 1
10
258.720000
20
2896.020000
11
259.759550
21
2894.932560
0
LINE
8
Layer 1
10
259.759000
20
2894.930000
11
260.078352
21
2894.345272
0
LINE
8
Layer 1
10
260.079000
20
2894.350000
11
260.142500
21
2894.207125
0
LINE
8
Layer 1
10
260.142000
20
2894.200000
11
260.524322
21
2893.541188
0
LINE
8
Layer 1
10
260.525000
20
2893.540000
11
260.922933
21
2893.135188
0
LINE
8
Layer 1
10
260.923000
20
2893.140000
11
261.498203
21
2892.782813
0
LINE
8
Layer 1
10
261.498000
20
2892.780000
11
262.292807
21
2892.565688
0
LINE
8
Layer 1
10
262.293000
20
2892.570000
11
262.874553
21
2892.591167
0
LINE
8
Layer 1
10
262.874000
20
2892.590000
11
263.546041
21
2892.806958
0
LINE
8
Layer 1
10
263.546000
20
2892.810000
11
264.144222
21
2893.220104
0
LINE
8
Layer 1
10
264.144000
20
2893.220000
11
264.542462
21
2893.714770
0
LINE
8
Layer 1
10
264.543000
20
2893.710000
11
264.881666
21
2894.580478
0
LINE
8
Layer 1
10
264.882000
20
2894.580000
11
264.927773
21
2895.339353
0
LINE
8
Layer 1
10
264.927000
20
2895.340000
11
264.847625
21
2895.586062
0
LINE
8
Layer 1
10
264.848000
20
2895.590000
11
264.806725
21
2895.822833
0
LINE
8
Layer 1
10
264.807000
20
2895.820000
11
264.778425
21
2896.031666
0
LINE
8
Layer 1
10
264.778000
20
2896.030000
11
264.371865
21
2901.210540
0
LINE
8
Layer 1
10
264.372000
20
2901.210000
11
264.380731
21
2906.229140
0
LINE
8
Layer 1
10
264.381000
20
2906.230000
11
264.621241
21
2908.624480
0
LINE
8
Layer 1
10
264.621000
20
2908.620000
11
265.098572
21
2910.903350
0
LINE
8
Layer 1
10
265.098000
20
2910.910000
11
265.698074
21
2912.672120
0
LINE
8
Layer 1
10
265.699000
20
2912.670000
11
266.539316
21
2914.006140
0
LINE
8
Layer 1
10
266.539000
20
2914.010000
11
266.791148
21
2914.290458
0
LINE
8
Layer 1
10
266.791000
20
2914.290000
11
267.361970
21
2914.533416
0
LINE
8
Layer 1
10
267.362000
20
2914.530000
11
268.125322
21
2914.762833
0
LINE
8
Layer 1
10
268.125000
20
2914.760000
11
268.661574
21
2914.797042
0
LINE
8
Layer 1
10
268.662000
20
2914.800000
11
269.459189
21
2914.421646
0
LINE
8
Layer 1
10
269.459000
20
2914.420000
11
270.321805
21
2913.411940
0
LINE
8
Layer 1
10
270.322000
20
2913.410000
11
271.117072
21
2911.719310
0
LINE
8
Layer 1
10
271.117000
20
2911.720000
11
271.614416
21
2910.116630
0
LINE
8
Layer 1
10
271.614000
20
2910.120000
11
271.942877
21
2909.016690
0
LINE
8
Layer 1
10
271.943000
20
2909.020000
11
272.260764
21
2908.292397
0
LINE
8
Layer 1
10
272.261000
20
2908.290000
11
272.376358
21
2908.033354
0
LINE
8
Layer 1
10
272.376000
20
2908.030000
11
272.880560
21
2907.498188
0
LINE
8
Layer 1
10
272.881000
20
2907.500000
11
273.673426
21
2907.036980
0
LINE
8
Layer 1
10
273.673000
20
2907.040000
11
274.518607
21
2906.918292
0
LINE
8
Layer 1
10
274.519000
20
2906.920000
11
275.522830
21
2907.142250
0
LINE
8
Layer 1
10
275.523000
20
2907.140000
11
276.268859
21
2907.640062
0
LINE
8
Layer 1
10
276.269000
20
2907.640000
11
276.660583
21
2908.163874
0
LINE
8
Layer 1
10
276.660000
20
2908.160000
11
276.871931
21
2908.961686
0
LINE
8
Layer 1
10
276.872000
20
2908.960000
11
277.244004
21
2911.849250
0
LINE
8
Layer 1
10
277.244000
20
2911.850000
11
277.482125
21
2914.702200
0
LINE
8
Layer 1
10
277.482000
20
2914.700000
11
277.794473
21
2918.388290
0
LINE
8
Layer 1
10
277.795000
20
2918.390000
11
278.116998
21
2919.974850
0
LINE
8
Layer 1
10
278.117000
20
2919.980000
11
278.678974
21
2921.504000
0
LINE
8
Layer 1
10
278.679000
20
2921.500000
11
279.465605
21
2922.875830
0
LINE
8
Layer 1
10
279.465000
20
2922.880000
11
279.922993
21
2923.234541
0
LINE
8
Layer 1
10
279.923000
20
2923.230000
11
280.599010
21
2923.515750
0
LINE
8
Layer 1
10
280.599000
20
2923.520000
11
280.599000
21
2923.517354
0
LINE
8
Layer 1
10
285.533000
20
2994.030000
11
285.533000
21
2994.030000
0
LINE
8
Layer 1
10
285.533000
20
2994.030000
11
286.240760
21
2992.151460
0
LINE
8
Layer 1
10
286.241000
20
2992.150000
11
287.397490
21
2988.234170
0
LINE
8
Layer 1
10
287.397000
20
2988.230000
11
288.128307
21
2984.367090
0
LINE
8
Layer 1
10
288.129000
20
2984.370000
11
288.220017
21
2981.009800
0
LINE
8
Layer 1
10
288.220000
20
2981.010000
11
288.040613
21
2977.385210
0
LINE
8
Layer 1
10
288.040000
20
2977.380000
11
287.855586
21
2976.321670
0
LINE
8
Layer 1
10
287.856000
20
2976.330000
11
287.564959
21
2975.377501
0
LINE
8
Layer 1
10
287.565000
20
2975.370000
11
287.361007
21
2974.629168
0
LINE
8
Layer 1
10
287.361000
20
2974.630000
11
287.275275
21
2974.206667
0
LINE
8
Layer 1
10
287.275000
20
2974.210000
11
287.155144
21
2973.945417
0
LINE
8
Layer 1
10
287.155000
20
2973.940000
11
287.393125
21
2972.881670
0
LINE
8
Layer 1
10
287.393000
20
2972.890000
11
287.648852
21
2972.307917
0
LINE
8
Layer 1
10
287.649000
20
2972.300000
11
288.014125
21
2971.903125
0
LINE
8
Layer 1
10
288.014000
20
2971.910000
11
288.672018
21
2971.513126
0
LINE
8
Layer 1
10
288.672000
20
2971.510000
11
289.622118
21
2971.324792
0
LINE
8
Layer 1
10
289.622000
20
2971.330000
11
290.523963
21
2971.488750
0
LINE
8
Layer 1
10
290.524000
20
2971.480000
11
291.099733
21
2971.797500
0
LINE
8
Layer 1
10
291.100000
20
2971.800000
11
291.424908
21
2972.091041
0
LINE
8
Layer 1
10
291.425000
20
2972.090000
11
291.911304
21
2972.751457
0
LINE
8
Layer 1
10
291.911000
20
2972.750000
11
291.947777
21
2972.988125
0
LINE
8
Layer 1
10
291.948000
20
2972.990000
11
292.051187
21
2973.386875
0
LINE
8
Layer 1
10
292.051000
20
2973.390000
11
292.082221
21
2973.548750
0
LINE
8
Layer 1
10
292.082000
20
2973.550000
11
292.080000
21
2973.550000
0
LINE
8
Layer 1
10
292.080000
20
2973.550000
11
292.086615
21
2973.576458
0
LINE
8
Layer 1
10
292.086000
20
2973.570000
11
292.089175
21
2973.596458
0
LINE
8
Layer 1
10
292.090000
20
2973.600000
11
292.079152
21
2973.547083
0
LINE
8
Layer 1
10
292.079000
20
2973.550000
11
292.022644
21
2973.497083
0
LINE
8
Layer 1
10
292.022000
20
2973.500000
11
292.027292
21
2973.526458
0
LINE
8
Layer 1
10
292.028000
20
2973.520000
11
292.090442
21
2973.731666
0
LINE
8
Layer 1
10
292.090000
20
2973.730000
11
292.109050
21
2973.650625
0
LINE
8
Layer 1
10
292.109000
20
2973.650000
11
292.499260
21
2975.105210
0
LINE
8
Layer 1
10
292.499000
20
2975.110000
11
293.395936
21
2977.993950
0
LINE
8
Layer 1
10
293.396000
20
2977.990000
11
293.926780
21
2979.233540
0
LINE
8
Layer 1
10
293.927000
20
2979.240000
11
294.590521
21
2980.404170
0
LINE
8
Layer 1
10
294.591000
20
2980.400000
11
295.167182
21
2981.087916
0
LINE
8
Layer 1
10
295.167000
20
2981.090000
11
295.679127
21
2981.037083
0
LINE
8
Layer 1
10
295.679000
20
2981.040000
11
295.679000
21
2981.040000
0
LINE
8
Layer 1
10
295.679000
20
2981.040000
11
295.959617
21
2980.828334
0
LINE
8
Layer 1
10
295.960000
20
2980.820000
11
296.186483
21
2979.973334
0
LINE
8
Layer 1
10
296.187000
20
2979.980000
11
296.331039
21
2978.551250
0
LINE
8
Layer 1
10
296.331000
20
2978.550000
11
296.173467
21
2975.454380
0
LINE
8
Layer 1
10
296.173000
20
2975.450000
11
295.608089
21
2972.248550
0
LINE
8
Layer 1
10
295.608000
20
2972.250000
11
294.813722
21
2968.995630
0
LINE
8
Layer 1
10
294.814000
20
2969.000000
11
293.668860
21
2965.348750
0
LINE
8
Layer 1
10
293.669000
20
2965.350000
11
293.669000
21
2965.350000
0
LINE
8
Layer 1
10
293.669000
20
2965.350000
11
292.343070
21
2960.455210
0
LINE
8
Layer 1
10
292.343000
20
2960.450000
11
291.742397
21
2958.597920
0
LINE
8
Layer 1
10
291.743000
20
2958.600000
11
291.110647
21
2956.377500
0
LINE
8
Layer 1
10
291.110000
20
2956.380000
11
291.007606
21
2955.692084
0
LINE
8
Layer 1
10
291.008000
20
2955.690000
11
290.991331
21
2955.584167
0
LINE
8
Layer 1
10
290.991000
20
2955.580000
11
291.009256
21
2955.209584
0
LINE
8
Layer 1
10
291.010000
20
2955.210000
11
291.117950
21
2954.733751
0
LINE
8
Layer 1
10
291.118000
20
2954.740000
11
291.750618
21
2953.761043
0
LINE
8
Layer 1
10
291.750000
20
2953.760000
11
292.210374
21
2953.416042
0
LINE
8
Layer 1
10
292.211000
20
2953.410000
11
292.654441
21
2953.224792
0
LINE
8
Layer 1
10
292.654000
20
2953.230000
11
293.325247
21
2953.097708
0
LINE
8
Layer 1
10
293.325000
20
2953.100000
11
293.990506
21
2953.179375
0
LINE
8
Layer 1
10
293.991000
20
2953.180000
11
293.996000
21
2953.180000
0
LINE
8
Layer 1
10
293.996000
20
2953.180000
11
294.904393
21
2953.550416
0
LINE
8
Layer 1
10
294.904000
20
2953.550000
11
295.364507
21
2953.920416
0
LINE
8
Layer 1
10
295.364000
20
2953.920000
11
295.985109
21
2954.475624
0
LINE
8
Layer 1
10
295.986000
20
2954.470000
11
296.814356
21
2955.396040
0
LINE
8
Layer 1
10
296.814000
20
2955.400000
11
296.798919
21
2955.373542
0
LINE
8
Layer 1
10
296.799000
20
2955.370000
11
296.964470
21
2955.528750
0
LINE
8
Layer 1
10
296.964000
20
2955.530000
11
297.338120
21
2955.926874
0
LINE
8
Layer 1
10
297.338000
20
2955.930000
11
298.034594
21
2956.644374
0
LINE
8
Layer 1
10
298.035000
20
2956.640000
11
298.503206
21
2957.142708
0
LINE
8
Layer 1
10
298.503000
20
2957.140000
11
298.474055
21
2955.235000
0
LINE
8
Layer 1
10
298.474000
20
2955.240000
11
298.049477
21
2952.250210
0
LINE
8
Layer 1
10
298.050000
20
2952.250000
11
297.185713
21
2949.445420
0
LINE
8
Layer 1
10
297.185000
20
2949.440000
11
296.005220
21
2946.979380
0
LINE
8
Layer 1
10
296.006000
20
2946.980000
11
295.599309
21
2946.027501
0
LINE
8
Layer 1
10
295.599000
20
2946.030000
11
294.071460
21
2942.987300
0
LINE
8
Layer 1
10
294.071000
20
2942.990000
11
291.959050
21
2938.740800
0
LINE
8
Layer 1
10
291.959000
20
2938.740000
11
290.978720
21
2936.784730
0
LINE
8
Layer 1
10
290.979000
20
2936.780000
11
290.695632
21
2936.240251
0
LINE
8
Layer 1
10
290.696000
20
2936.240000
11
290.362361
21
2935.978063
0
LINE
8
Layer 1
10
290.362000
20
2935.980000
11
285.788680
21
2938.694620
0
LINE
8
Layer 1
10
285.789000
20
2938.700000
11
283.857540
21
2939.771560
0
LINE
8
Layer 1
10
283.857000
20
2939.770000
11
282.157050
21
2940.489666
0
LINE
8
Layer 1
10
282.157000
20
2940.490000
11
280.585910
21
2941.349895
0
LINE
8
Layer 1
10
280.586000
20
2941.350000
11
279.802834
21
2941.656916
0
LINE
8
Layer 1
10
279.803000
20
2941.660000
11
279.169853
21
2942.059520
0
LINE
8
Layer 1
10
279.170000
20
2942.050000
11
277.031640
21
2943.116270
0
LINE
8
Layer 1
10
277.032000
20
2943.120000
11
277.032000
21
2943.120000
0
LINE
8
Layer 1
10
277.031000
20
2943.120000
11
275.564950
21
2944.046040
0
LINE
8
Layer 1
10
275.565000
20
2944.050000
11
275.565000
21
2944.050000
0
LINE
8
Layer 1
10
275.564000
20
2944.050000
11
274.726859
21
2944.420416
0
LINE
8
Layer 1
10
274.727000
20
2944.420000
11
273.883509
21
2944.975624
0
LINE
8
Layer 1
10
273.883000
20
2944.970000
11
272.257930
21
2945.763749
0
LINE
8
Layer 1
10
272.258000
20
2945.770000
11
271.924096
21
2947.939580
0
LINE
8
Layer 1
10
271.924000
20
2947.940000
11
271.879550
21
2948.442708
0
LINE
8
Layer 1
10
271.880000
20
2948.440000
11
271.877354
21
2948.466458
0
LINE
8
Layer 1
10
271.878000
20
2948.470000
11
271.878000
21
2948.470000
0
LINE
8
Layer 1
10
271.878000
20
2948.470000
11
271.874825
21
2948.522917
0
LINE
8
Layer 1
10
271.875000
20
2948.520000
11
271.885054
21
2948.467083
0
LINE
8
Layer 1
10
271.885000
20
2948.470000
11
271.858012
21
2948.655208
0
LINE
8
Layer 1
10
271.858000
20
2948.650000
11
271.743700
21
2949.046875
0
LINE
8
Layer 1
10
271.743000
20
2949.050000
11
271.583986
21
2951.193120
0
LINE
8
Layer 1
10
271.584000
20
2951.190000
11
271.612310
21
2957.592910
0
LINE
8
Layer 1
10
271.613000
20
2957.590000
11
271.493144
21
2960.024160
0
LINE
8
Layer 1
10
271.493000
20
2960.030000
11
271.616560
21
2960.638541
0
LINE
8
Layer 1
10
271.616000
20
2960.640000
11
272.127439
21
2963.153540
0
LINE
8
Layer 1
10
272.128000
20
2963.150000
11
272.830468
21
2965.451870
0
LINE
8
Layer 1
10
272.830000
20
2965.450000
11
273.392239
21
2966.561250
0
LINE
8
Layer 1
10
273.393000
20
2966.560000
11
273.485339
21
2966.507083
0
LINE
8
Layer 1
10
273.485000
20
2966.510000
11
273.961514
21
2965.663334
0
LINE
8
Layer 1
10
273.961000
20
2965.660000
11
274.593618
21
2964.204790
0
LINE
8
Layer 1
10
274.594000
20
2964.210000
11
274.377571
21
2963.310418
0
LINE
8
Layer 1
10
274.378000
20
2963.310000
11
274.383292
21
2962.542709
0
LINE
8
Layer 1
10
274.383000
20
2962.540000
11
274.625623
21
2961.587501
0
LINE
8
Layer 1
10
274.626000
20
2961.590000
11
274.812266
21
2961.140209
0
LINE
8
Layer 1
10
274.812000
20
2961.140000
11
275.571882
21
2960.452084
0
LINE
8
Layer 1
10
275.572000
20
2960.450000
11
276.402791
21
2960.132500
0
LINE
8
Layer 1
10
276.403000
20
2960.130000
11
277.383000
21
2960.130000
0
LINE
8
Layer 1
10
277.383000
20
2960.130000
11
278.142618
21
2960.421041
0
LINE
8
Layer 1
10
278.143000
20
2960.420000
11
278.596231
21
2960.790416
0
LINE
8
Layer 1
10
278.596000
20
2960.800000
11
279.171203
21
2961.514374
0
LINE
8
Layer 1
10
279.171000
20
2961.510000
11
279.212275
21
2961.774583
0
LINE
8
Layer 1
10
279.212000
20
2961.770000
11
279.268356
21
2961.875833
0
LINE
8
Layer 1
10
279.269000
20
2961.880000
11
279.532260
21
2962.594374
0
LINE
8
Layer 1
10
279.532000
20
2962.590000
11
279.672229
21
2963.463124
0
LINE
8
Layer 1
10
279.672000
20
2963.470000
11
279.506636
21
2964.687080
0
LINE
8
Layer 1
10
279.507000
20
2964.680000
11
279.595900
21
2965.235624
0
LINE
8
Layer 1
10
279.596000
20
2965.240000
11
279.786235
21
2968.653120
0
LINE
8
Layer 1
10
279.786000
20
2968.650000
11
280.016452
21
2971.401660
0
LINE
8
Layer 1
10
280.016000
20
2971.400000
11
280.186391
21
2972.458330
0
LINE
8
Layer 1
10
280.187000
20
2972.460000
11
280.362154
21
2974.735410
0
LINE
8
Layer 1
10
280.362000
20
2974.740000
11
280.430262
21
2976.856660
0
LINE
8
Layer 1
10
280.430000
20
2976.860000
11
280.623939
21
2980.140830
0
LINE
8
Layer 1
10
280.624000
20
2980.140000
11
280.901018
21
2982.415410
0
LINE
8
Layer 1
10
280.901000
20
2982.410000
11
281.244958
21
2983.997500
0
LINE
8
Layer 1
10
281.245000
20
2984.000000
11
281.628645
21
2986.328330
0
LINE
8
Layer 1
10
281.629000
20
2986.330000
11
282.485191
21
2989.319790
0
LINE
8
Layer 1
10
282.485000
20
2989.320000
11
283.721660
21
2992.018750
0
LINE
8
Layer 1
10
283.722000
20
2992.020000
11
284.547764
21
2993.131250
0
LINE
8
Layer 1
10
284.547000
20
2993.130000
11
285.532307
21
2994.003124
0
LINE
8
Layer 1
10
285.533000
20
2994.000000
11
285.533265
21
2994.026458
0
LINE
8
Layer 1
10
155.352000
20
2970.960000
11
155.539589
21
2970.536667
0
LINE
8
Layer 1
10
155.540000
20
2970.530000
11
156.006195
21
2968.863130
0
LINE
8
Layer 1
10
156.006000
20
2968.860000
11
155.865242
21
2967.457710
0
LINE
8
Layer 1
10
155.865000
20
2967.460000
11
155.476592
21
2965.660840
0
LINE
8
Layer 1
10
155.477000
20
2965.660000
11
154.952861
21
2964.310630
0
LINE
8
Layer 1
10
154.953000
20
2964.310000
11
153.780100
21
2961.108550
0
LINE
8
Layer 1
10
153.780000
20
2961.110000
11
153.342644
21
2960.051670
0
LINE
8
Layer 1
10
153.343000
20
2960.050000
11
153.210179
21
2959.626667
0
LINE
8
Layer 1
10
153.210000
20
2959.630000
11
153.072152
21
2959.153751
0
LINE
8
Layer 1
10
153.072000
20
2959.150000
11
153.068031
21
2959.123542
0
LINE
8
Layer 1
10
153.068000
20
2959.130000
11
152.361563
21
2959.288750
0
LINE
8
Layer 1
10
152.361000
20
2959.290000
11
149.627860
21
2959.475208
0
LINE
8
Layer 1
10
149.628000
20
2959.470000
11
146.630270
21
2959.496458
0
LINE
8
Layer 1
10
146.631000
20
2959.500000
11
143.736460
21
2959.314792
0
LINE
8
Layer 1
10
143.736000
20
2959.310000
11
141.431220
21
2959.336458
0
LINE
8
Layer 1
10
141.431000
20
2959.340000
11
138.092760
21
2959.048959
0
LINE
8
Layer 1
10
138.093000
20
2959.050000
11
135.782660
21
2959.208750
0
LINE
8
Layer 1
10
135.783000
20
2959.210000
11
134.517000
21
2959.210000
0
LINE
8
Layer 1
10
134.517000
20
2959.210000
11
134.210348
21
2960.109582
0
LINE
8
Layer 1
10
134.210000
20
2960.110000
11
133.988279
21
2960.718541
0
LINE
8
Layer 1
10
133.988000
20
2960.720000
11
134.209721
21
2961.857710
0
LINE
8
Layer 1
10
134.210000
20
2961.850000
11
134.653177
21
2962.828957
0
LINE
8
Layer 1
10
134.653000
20
2962.830000
11
135.062045
21
2963.464999
0
LINE
8
Layer 1
10
135.062000
20
2963.470000
11
135.700703
21
2964.025624
0
LINE
8
Layer 1
10
135.701000
20
2964.020000
11
135.715000
21
2964.020000
0
LINE
8
Layer 1
10
135.715000
20
2964.020000
11
135.745956
21
2963.914167
0
LINE
8
Layer 1
10
135.746000
20
2963.920000
11
135.850775
21
2963.602500
0
LINE
8
Layer 1
10
135.851000
20
2963.600000
11
136.475416
21
2962.938543
0
LINE
8
Layer 1
10
136.475000
20
2962.940000
11
137.440463
21
2962.516667
0
LINE
8
Layer 1
10
137.441000
20
2962.510000
11
138.110660
21
2962.430625
0
LINE
8
Layer 1
10
138.110000
20
2962.440000
11
138.806647
21
2962.545833
0
LINE
8
Layer 1
10
138.807000
20
2962.540000
11
139.382997
21
2962.831041
0
LINE
8
Layer 1
10
139.383000
20
2962.830000
11
139.770350
21
2963.147500
0
LINE
8
Layer 1
10
139.770000
20
2963.150000
11
140.157879
21
2963.732083
0
LINE
8
Layer 1
10
140.158000
20
2963.730000
11
140.395596
21
2964.391457
0
LINE
8
Layer 1
10
140.396000
20
2964.390000
11
140.455796
21
2964.972083
0
LINE
8
Layer 1
10
140.456000
20
2964.980000
11
140.293546
21
2965.879582
0
LINE
8
Layer 1
10
140.293000
20
2965.880000
11
140.183463
21
2966.118125
0
LINE
8
Layer 1
10
140.184000
20
2966.110000
11
140.161246
21
2967.062499
0
LINE
8
Layer 1
10
140.161000
20
2967.070000
11
140.298319
21
2967.757916
0
LINE
8
Layer 1
10
140.298000
20
2967.750000
11
140.480827
21
2968.623124
0
LINE
8
Layer 1
10
140.481000
20
2968.630000
11
140.658800
21
2969.661870
0
LINE
8
Layer 1
10
140.659000
20
2969.660000
11
141.781630
21
2969.527708
0
LINE
8
Layer 1
10
141.781000
20
2969.530000
11
142.841710
21
2969.133125
0
LINE
8
Layer 1
10
142.842000
20
2969.130000
11
143.720151
21
2968.547917
0
LINE
8
Layer 1
10
143.720000
20
2968.550000
11
144.147302
21
2967.941459
0
LINE
8
Layer 1
10
144.148000
20
2967.940000
11
144.459679
21
2967.384376
0
LINE
8
Layer 1
10
144.459000
20
2967.380000
11
144.570125
21
2966.877292
0
LINE
8
Layer 1
10
144.570000
20
2966.880000
11
144.582700
21
2966.350834
0
LINE
8
Layer 1
10
144.583000
20
2966.350000
11
144.594112
21
2966.323542
0
LINE
8
Layer 1
10
144.594000
20
2966.320000
11
144.647975
21
2966.584583
0
LINE
8
Layer 1
10
144.648000
20
2966.590000
11
144.608842
21
2966.246042
0
LINE
8
Layer 1
10
144.609000
20
2966.250000
11
144.633342
21
2965.773751
0
LINE
8
Layer 1
10
144.633000
20
2965.770000
11
144.753914
21
2965.320209
0
LINE
8
Layer 1
10
144.754000
20
2965.320000
11
144.912485
21
2964.976042
0
LINE
8
Layer 1
10
144.913000
20
2964.980000
11
145.207745
21
2964.556667
0
LINE
8
Layer 1
10
145.207000
20
2964.550000
11
146.361900
21
2963.809168
0
LINE
8
Layer 1
10
146.362000
20
2963.810000
11
147.598000
21
2963.810000
0
LINE
8
Layer 1
10
147.598000
20
2963.810000
11
147.994345
21
2963.942291
0
LINE
8
Layer 1
10
147.994000
20
2963.940000
11
148.267314
21
2964.098750
0
LINE
8
Layer 1
10
148.268000
20
2964.100000
11
148.593173
21
2964.338125
0
LINE
8
Layer 1
10
148.593000
20
2964.340000
11
148.977439
21
2964.763333
0
LINE
8
Layer 1
10
148.977000
20
2964.760000
11
149.140777
21
2964.918750
0
LINE
8
Layer 1
10
149.141000
20
2964.920000
11
149.550310
21
2965.369791
0
LINE
8
Layer 1
10
149.550000
20
2965.370000
11
150.265697
21
2966.137291
0
LINE
8
Layer 1
10
150.266000
20
2966.140000
11
150.316006
21
2966.192917
0
LINE
8
Layer 1
10
150.316000
20
2966.190000
11
151.384120
21
2967.380620
0
LINE
8
Layer 1
10
151.384000
20
2967.380000
11
151.772672
21
2967.697500
0
LINE
8
Layer 1
10
151.773000
20
2967.700000
11
152.903030
21
2968.758330
0
LINE
8
Layer 1
10
152.903000
20
2968.760000
11
154.449220
21
2970.532710
0
LINE
8
Layer 1
10
154.449000
20
2970.530000
11
155.352286
21
2970.953333
0
LINE
8
Layer 1
10
155.352000
20
2970.960000
11
155.352000
21
2970.960000
0
LINE
8
Layer 1
10
74.402400
20
2978.520000
11
75.169691
21
2978.043751
0
LINE
8
Layer 1
10
75.169700
20
2978.050000
11
76.095476
21
2976.780000
0
LINE
8
Layer 1
10
76.095400
20
2976.780000
11
76.128737
21
2976.674167
0
LINE
8
Layer 1
10
76.128800
20
2976.670000
11
76.337291
21
2976.220209
0
LINE
8
Layer 1
10
76.337300
20
2976.220000
11
76.664325
21
2975.611459
0
LINE
8
Layer 1
10
76.664300
20
2975.610000
11
76.948462
21
2974.657501
0
LINE
8
Layer 1
10
76.948500
20
2974.660000
11
78.091760
21
2971.167500
0
LINE
8
Layer 1
10
78.091700
20
2971.170000
11
78.296752
21
2969.370840
0
LINE
8
Layer 1
10
78.296800
20
2969.370000
11
78.197052
21
2967.385630
0
LINE
8
Layer 1
10
78.197000
20
2967.380000
11
77.974750
21
2966.718542
0
LINE
8
Layer 1
10
77.974800
20
2966.720000
11
77.739586
21
2965.714580
0
LINE
8
Layer 1
10
77.739600
20
2965.720000
11
77.668427
21
2964.979168
0
LINE
8
Layer 1
10
77.668400
20
2964.980000
11
77.795400
21
2964.345001
0
LINE
8
Layer 1
10
77.795400
20
2964.340000
11
77.966056
21
2963.943125
0
LINE
8
Layer 1
10
77.966000
20
2963.940000
11
78.230583
21
2963.569584
0
LINE
8
Layer 1
10
78.230600
20
2963.570000
11
78.577997
21
2963.226042
0
LINE
8
Layer 1
10
78.578000
20
2963.230000
11
78.967466
21
2962.965417
0
LINE
8
Layer 1
10
78.967500
20
2962.960000
11
79.696691
21
2962.721875
0
LINE
8
Layer 1
10
79.696700
20
2962.730000
11
80.587022
21
2962.782917
0
LINE
8
Layer 1
10
80.587000
20
2962.780000
11
81.270682
21
2962.991666
0
LINE
8
Layer 1
10
81.270700
20
2962.990000
11
81.456173
21
2963.148750
0
LINE
8
Layer 1
10
81.456200
20
2963.150000
11
81.952293
21
2963.599791
0
LINE
8
Layer 1
10
81.952300
20
2963.600000
11
82.488345
21
2964.420207
0
LINE
8
Layer 1
10
82.488300
20
2964.420000
11
82.872475
21
2965.637080
0
LINE
8
Layer 1
10
82.872500
20
2965.640000
11
82.939969
21
2966.380832
0
LINE
8
Layer 1
10
82.939900
20
2966.380000
11
83.579133
21
2967.782290
0
LINE
8
Layer 1
10
83.579200
20
2967.780000
11
83.605600
21
2967.780000
0
LINE
8
Layer 1
10
83.605600
20
2967.780000
11
83.850604
21
2967.965208
0
LINE
8
Layer 1
10
83.850600
20
2967.970000
11
84.750182
21
2968.657916
0
LINE
8
Layer 1
10
84.750200
20
2968.650000
11
85.547389
21
2969.126249
0
LINE
8
Layer 1
10
85.547400
20
2969.130000
11
86.348028
21
2969.526875
0
LINE
8
Layer 1
10
86.348000
20
2969.530000
11
86.958128
21
2969.424167
0
LINE
8
Layer 1
10
86.958200
20
2969.420000
11
87.710674
21
2969.155417
0
LINE
8
Layer 1
10
87.710600
20
2969.160000
11
88.082604
21
2968.736667
0
LINE
8
Layer 1
10
88.082600
20
2968.730000
11
88.587160
21
2967.830418
0
LINE
8
Layer 1
10
88.587200
20
2967.830000
11
88.945445
21
2966.639380
0
LINE
8
Layer 1
10
88.945400
20
2966.640000
11
89.274806
21
2965.105420
0
LINE
8
Layer 1
10
89.274900
20
2965.110000
11
89.673362
21
2962.649380
0
LINE
8
Layer 1
10
89.673300
20
2962.650000
11
89.620648
21
2961.115420
0
LINE
8
Layer 1
10
89.620700
20
2961.110000
11
89.393688
21
2959.390210
0
LINE
8
Layer 1
10
89.393700
20
2959.390000
11
89.285750
21
2959.019584
0
LINE
8
Layer 1
10
89.285700
20
2959.020000
11
89.216908
21
2958.728959
0
LINE
8
Layer 1
10
89.216900
20
2958.730000
11
89.102865
21
2958.042084
0
LINE
8
Layer 1
10
89.102900
20
2958.040000
11
89.178306
21
2957.616667
0
LINE
8
Layer 1
10
89.178300
20
2957.620000
11
89.332552
21
2957.064376
0
LINE
8
Layer 1
10
89.332500
20
2957.060000
11
89.946068
21
2956.292709
0
LINE
8
Layer 1
10
89.946100
20
2956.300000
11
90.216504
21
2956.088334
0
LINE
8
Layer 1
10
90.216500
20
2956.090000
11
90.725822
21
2955.825417
0
LINE
8
Layer 1
10
90.725800
20
2955.820000
11
91.411070
21
2955.687708
0
LINE
8
Layer 1
10
91.411100
20
2955.690000
11
91.996622
21
2955.716458
0
LINE
8
Layer 1
10
91.996600
20
2955.720000
11
92.723674
21
2955.984583
0
LINE
8
Layer 1
10
92.723700
20
2955.980000
11
93.381189
21
2956.509166
0
LINE
8
Layer 1
10
93.381200
20
2956.510000
11
93.769608
21
2957.144999
0
LINE
8
Layer 1
10
93.769600
20
2957.140000
11
93.790767
21
2957.245833
0
LINE
8
Layer 1
10
93.790800
20
2957.250000
11
93.814348
21
2957.302917
0
LINE
8
Layer 1
10
93.814300
20
2957.300000
11
93.819100
21
2957.300000
0
LINE
8
Layer 1
10
93.819100
20
2957.300000
11
94.122577
21
2957.696875
0
LINE
8
Layer 1
10
94.122500
20
2957.700000
11
94.471220
21
2958.202708
0
LINE
8
Layer 1
10
94.471300
20
2958.200000
11
94.510194
21
2958.252917
0
LINE
8
Layer 1
10
94.510200
20
2958.260000
11
94.868710
21
2958.709791
0
LINE
8
Layer 1
10
94.868700
20
2958.700000
11
95.165562
21
2959.096875
0
LINE
8
Layer 1
10
95.165500
20
2959.100000
11
95.170527
21
2959.126458
0
LINE
8
Layer 1
10
95.170600
20
2959.130000
11
95.756651
21
2959.632708
0
LINE
8
Layer 1
10
95.756600
20
2959.630000
11
97.505760
21
2960.212083
0
LINE
8
Layer 1
10
97.505800
20
2960.210000
11
97.949241
21
2960.342292
0
LINE
8
Layer 1
10
97.949200
20
2960.350000
11
98.120121
21
2959.212290
0
LINE
8
Layer 1
10
98.120100
20
2959.210000
11
97.915842
21
2957.622500
0
LINE
8
Layer 1
10
97.915900
20
2957.620000
11
97.337257
21
2955.688540
0
LINE
8
Layer 1
10
97.337200
20
2955.690000
11
96.774432
21
2954.367090
0
LINE
8
Layer 1
10
96.774500
20
2954.370000
11
96.018586
21
2953.100000
0
LINE
8
Layer 1
10
96.018500
20
2953.100000
11
92.782650
21
2953.073542
0
LINE
8
Layer 1
10
92.782700
20
2953.070000
11
93.011035
21
2953.122917
0
LINE
8
Layer 1
10
93.011000
20
2953.120000
11
92.951204
21
2953.172917
0
LINE
8
Layer 1
10
92.951200
20
2953.180000
11
91.851860
21
2953.418125
0
LINE
8
Layer 1
10
91.851900
20
2953.410000
11
90.393520
21
2953.515833
0
LINE
8
Layer 1
10
90.393500
20
2953.520000
11
89.823059
21
2953.440625
0
LINE
8
Layer 1
10
89.823100
20
2953.440000
11
87.228860
21
2953.704583
0
LINE
8
Layer 1
10
87.228800
20
2953.700000
11
86.072300
21
2953.700000
0
LINE
8
Layer 1
10
86.072300
20
2953.700000
11
86.065500
21
2953.700000
0
LINE
8
Layer 1
10
86.065500
20
2953.700000
11
84.769840
21
2953.488334
0
LINE
8
Layer 1
10
84.769800
20
2953.490000
11
84.036111
21
2953.331250
0
LINE
8
Layer 1
10
84.036100
20
2953.330000
11
79.990360
21
2953.038959
0
LINE
8
Layer 1
10
79.990400
20
2953.040000
11
78.125090
21
2952.987083
0
LINE
8
Layer 1
10
78.125100
20
2952.990000
11
76.391820
21
2953.069375
0
LINE
8
Layer 1
10
76.391800
20
2953.070000
11
75.242980
21
2953.361041
0
LINE
8
Layer 1
10
75.243000
20
2953.360000
11
74.272510
21
2953.492292
0
LINE
8
Layer 1
10
74.272500
20
2953.490000
11
73.052770
21
2953.410625
0
LINE
8
Layer 1
10
73.052700
20
2953.410000
11
71.876890
21
2953.092500
0
LINE
8
Layer 1
10
71.876900
20
2953.100000
11
71.693809
21
2952.967708
0
LINE
8
Layer 1
10
71.693800
20
2952.960000
11
69.887490
21
2952.854167
0
LINE
8
Layer 1
10
69.887500
20
2952.860000
11
68.852450
21
2952.674792
0
LINE
8
Layer 1
10
68.852500
20
2952.670000
11
68.074361
21
2952.643542
0
LINE
8
Layer 1
10
68.074300
20
2952.650000
11
66.717250
21
2952.385417
0
LINE
8
Layer 1
10
66.717300
20
2952.380000
11
65.289610
21
2952.432917
0
LINE
8
Layer 1
10
65.289600
20
2952.430000
11
63.365020
21
2952.271250
0
LINE
8
Layer 1
10
63.365000
20
2952.280000
11
62.293700
21
2952.465208
0
LINE
8
Layer 1
10
62.293700
20
2952.460000
11
60.964440
21
2952.539375
0
LINE
8
Layer 1
10
60.964500
20
2952.540000
11
60.259915
21
2952.460625
0
LINE
8
Layer 1
10
60.259900
20
2952.460000
11
60.256460
21
2952.486458
0
LINE
8
Layer 1
10
60.256400
20
2952.490000
11
58.326270
21
2952.225417
0
LINE
8
Layer 1
10
58.326300
20
2952.220000
11
55.061610
21
2952.034792
0
LINE
8
Layer 1
10
55.061600
20
2952.040000
11
53.505850
21
2951.722500
0
LINE
8
Layer 1
10
53.505900
20
2951.720000
11
52.434340
21
2951.587709
0
LINE
8
Layer 1
10
52.434300
20
2951.590000
11
51.905134
21
2951.484167
0
LINE
8
Layer 1
10
51.905200
20
2951.480000
11
51.876096
21
2951.718125
0
LINE
8
Layer 1
10
51.876000
20
2951.720000
11
51.918333
21
2952.063958
0
LINE
8
Layer 1
10
51.918400
20
2952.060000
11
51.947504
21
2952.377500
0
LINE
8
Layer 1
10
51.947500
20
2952.380000
11
52.709499
21
2953.438330
0
LINE
8
Layer 1
10
52.709500
20
2953.440000
11
53.138124
21
2953.122500
0
LINE
8
Layer 1
10
53.138100
20
2953.120000
11
53.079892
21
2953.172917
0
LINE
8
Layer 1
10
53.079900
20
2953.180000
11
53.188379
21
2953.100625
0
LINE
8
Layer 1
10
53.188400
20
2953.100000
11
53.286296
21
2953.047083
0
LINE
8
Layer 1
10
53.286300
20
2953.040000
11
53.233383
21
2953.066458
0
LINE
8
Layer 1
10
53.233400
20
2953.070000
11
53.405379
21
2952.964167
0
LINE
8
Layer 1
10
53.405300
20
2952.960000
11
53.471446
21
2952.933542
0
LINE
8
Layer 1
10
53.471500
20
2952.940000
11
54.307582
21
2952.728334
0
LINE
8
Layer 1
10
54.307600
20
2952.730000
11
55.164849
21
2952.809375
0
LINE
8
Layer 1
10
55.164800
20
2952.800000
11
55.754556
21
2953.064583
0
LINE
8
Layer 1
10
55.754600
20
2953.070000
11
56.096441
21
2953.334583
0
LINE
8
Layer 1
10
56.096400
20
2953.330000
11
56.102500
21
2953.330000
0
LINE
8
Layer 1
10
56.102500
20
2953.330000
11
56.591449
21
2953.964999
0
LINE
8
Layer 1
10
56.591400
20
2953.970000
11
56.893025
21
2954.975420
0
LINE
8
Layer 1
10
56.893100
20
2954.970000
11
56.716359
21
2956.028330
0
LINE
8
Layer 1
10
56.716300
20
2956.030000
11
56.319425
21
2956.691457
0
LINE
8
Layer 1
10
56.319500
20
2956.690000
11
56.089048
21
2956.901666
0
LINE
8
Layer 1
10
56.089000
20
2956.910000
11
56.199067
21
2956.830625
0
LINE
8
Layer 1
10
56.199100
20
2956.830000
11
56.348854
21
2956.697708
0
LINE
8
Layer 1
10
56.348800
20
2956.690000
11
56.332925
21
2956.716458
0
LINE
8
Layer 1
10
56.332900
20
2956.720000
11
56.057469
21
2957.063958
0
LINE
8
Layer 1
10
56.057500
20
2957.060000
11
55.562465
21
2958.171250
0
LINE
8
Layer 1
10
55.562500
20
2958.180000
11
55.381790
21
2959.185420
0
LINE
8
Layer 1
10
55.381800
20
2959.180000
11
55.299779
21
2959.576874
0
LINE
8
Layer 1
10
55.299800
20
2959.580000
11
55.281200
21
2959.580000
0
LINE
8
Layer 1
10
55.281200
20
2959.580000
11
55.230929
21
2960.770620
0
LINE
8
Layer 1
10
55.231000
20
2960.770000
11
55.371229
21
2962.119370
0
LINE
8
Layer 1
10
55.371200
20
2962.120000
11
55.584718
21
2963.231250
0
LINE
8
Layer 1
10
55.584700
20
2963.230000
11
55.949825
21
2964.235420
0
LINE
8
Layer 1
10
55.949800
20
2964.230000
11
56.536910
21
2965.711660
0
LINE
8
Layer 1
10
56.536900
20
2965.720000
11
57.410288
21
2965.561250
0
LINE
8
Layer 1
10
57.410300
20
2965.560000
11
57.853212
21
2965.163126
0
LINE
8
Layer 1
10
57.853200
20
2965.160000
11
58.036556
21
2964.895417
0
LINE
8
Layer 1
10
58.036600
20
2964.900000
11
58.093485
21
2964.741250
0
LINE
8
Layer 1
10
58.093500
20
2964.740000
11
58.104877
21
2964.713542
0
LINE
8
Layer 1
10
58.104900
20
2964.710000
11
58.157552
21
2964.577708
0
LINE
8
Layer 1
10
58.157500
20
2964.580000
11
58.319160
21
2964.341875
0
LINE
8
Layer 1
10
58.319200
20
2964.340000
11
58.671360
21
2963.863751
0
LINE
8
Layer 1
10
58.671300
20
2963.860000
11
59.608982
21
2963.304376
0
LINE
8
Layer 1
10
59.609000
20
2963.310000
11
60.210133
21
2963.204167
0
LINE
8
Layer 1
10
60.210100
20
2963.200000
11
60.746674
21
2963.226458
0
LINE
8
Layer 1
10
60.746700
20
2963.230000
11
61.516901
21
2963.494583
0
LINE
8
Layer 1
10
61.516900
20
2963.490000
11
62.125441
21
2963.992708
0
LINE
8
Layer 1
10
62.125500
20
2964.000000
11
62.639585
21
2964.873124
0
LINE
8
Layer 1
10
62.639500
20
2964.870000
11
62.732369
21
2965.769582
0
LINE
8
Layer 1
10
62.732400
20
2965.770000
11
62.587144
21
2966.457916
0
LINE
8
Layer 1
10
62.587200
20
2966.460000
11
62.563917
21
2966.539375
0
LINE
8
Layer 1
10
62.563900
20
2966.540000
11
62.549877
21
2966.566458
0
LINE
8
Layer 1
10
62.549900
20
2966.560000
11
62.493808
21
2966.745208
0
LINE
8
Layer 1
10
62.493800
20
2966.750000
11
62.443000
21
2966.855833
0
LINE
8
Layer 1
10
62.443000
20
2966.850000
11
62.254881
21
2967.432083
0
LINE
8
Layer 1
10
62.254800
20
2967.440000
11
61.788869
21
2969.688960
0
LINE
8
Layer 1
10
61.788900
20
2969.690000
11
61.596548
21
2971.595000
0
LINE
8
Layer 1
10
61.596600
20
2971.590000
11
61.640521
21
2973.256870
0
LINE
8
Layer 1
10
61.640500
20
2973.260000
11
62.153262
21
2974.979790
0
LINE
8
Layer 1
10
62.153200
20
2974.980000
11
62.271469
21
2975.271041
0
LINE
8
Layer 1
10
62.271500
20
2975.270000
11
63.427460
21
2975.957916
0
LINE
8
Layer 1
10
63.427500
20
2975.960000
11
63.906131
21
2976.198125
0
LINE
8
Layer 1
10
63.906100
20
2976.190000
11
63.947400
21
2976.190000
0
LINE
8
Layer 1
10
63.947400
20
2976.190000
11
64.015100
21
2976.190000
0
LINE
8
Layer 1
10
64.015100
20
2976.190000
11
64.719949
21
2975.740209
0
LINE
8
Layer 1
10
64.720000
20
2975.740000
11
65.809020
21
2974.549380
0
LINE
8
Layer 1
10
65.809000
20
2974.550000
11
66.586874
21
2973.094790
0
LINE
8
Layer 1
10
66.586900
20
2973.100000
11
66.532131
21
2971.565420
0
LINE
8
Layer 1
10
66.532100
20
2971.560000
11
66.665185
21
2970.660418
0
LINE
8
Layer 1
10
66.665200
20
2970.660000
11
66.970264
21
2969.707501
0
LINE
8
Layer 1
10
66.970200
20
2969.710000
11
67.265475
21
2969.127917
0
LINE
8
Layer 1
10
67.265500
20
2969.130000
11
67.605489
21
2968.759584
0
LINE
8
Layer 1
10
67.605500
20
2968.760000
11
68.166681
21
2968.389584
0
LINE
8
Layer 1
10
68.166700
20
2968.390000
11
68.916528
21
2968.204792
0
LINE
8
Layer 1
10
68.916500
20
2968.200000
11
69.694639
21
2968.252917
0
LINE
8
Layer 1
10
69.694700
20
2968.260000
11
70.379441
21
2968.471666
0
LINE
8
Layer 1
10
70.379400
20
2968.470000
11
70.848241
21
2968.734583
0
LINE
8
Layer 1
10
70.848200
20
2968.730000
11
71.537439
21
2969.523749
0
LINE
8
Layer 1
10
71.537500
20
2969.530000
11
71.649683
21
2969.926875
0
LINE
8
Layer 1
10
71.649700
20
2969.920000
11
71.832527
21
2970.528541
0
LINE
8
Layer 1
10
71.832500
20
2970.530000
11
71.896265
21
2971.244374
0
LINE
8
Layer 1
10
71.896200
20
2971.250000
11
71.785340
21
2972.546460
0
LINE
8
Layer 1
10
71.785400
20
2972.540000
11
71.493565
21
2973.704170
0
LINE
8
Layer 1
10
71.493600
20
2973.710000
11
71.493600
21
2973.710000
0
LINE
8
Layer 1
10
71.493600
20
2973.710000
11
71.812423
21
2975.323960
0
LINE
8
Layer 1
10
71.812400
20
2975.320000
11
72.328337
21
2976.748750
0
LINE
8
Layer 1
10
72.328300
20
2976.750000
11
72.988435
21
2977.755420
0
LINE
8
Layer 1
10
72.988400
20
2977.750000
11
73.809666
21
2978.332083
0
LINE
8
Layer 1
10
73.809700
20
2978.340000
11
74.327489
21
2978.498750
0
LINE
8
Layer 1
10
74.327500
20
2978.500000
11
74.401319
21
2978.526458
0
LINE
8
Layer 1
10
74.401300
20
2978.520000
11
74.402400
21
2978.520000
0
LINE
8
Layer 1
10
219.086000
20
2972.890000
11
219.876045
21
2971.646460
0
LINE
8
Layer 1
10
219.876000
20
2971.640000
11
220.445118
21
2970.211250
0
LINE
8
Layer 1
10
220.446000
20
2970.210000
11
220.834937
21
2968.675420
0
LINE
8
Layer 1
10
220.835000
20
2968.680000
11
221.083973
21
2967.118960
0
LINE
8
Layer 1
10
221.083000
20
2967.120000
11
221.083000
21
2967.120000
0
LINE
8
Layer 1
10
221.083000
20
2967.120000
11
221.131683
21
2965.744170
0
LINE
8
Layer 1
10
221.132000
20
2965.740000
11
221.126708
21
2965.819375
0
LINE
8
Layer 1
10
221.127000
20
2965.820000
11
221.135202
21
2965.608334
0
LINE
8
Layer 1
10
221.135000
20
2965.610000
11
221.194531
21
2965.001459
0
LINE
8
Layer 1
10
221.195000
20
2965.000000
11
221.277021
21
2964.444376
0
LINE
8
Layer 1
10
221.277000
20
2964.450000
11
221.501631
21
2964.026667
0
LINE
8
Layer 1
10
221.501000
20
2964.020000
11
222.005560
21
2963.464376
0
LINE
8
Layer 1
10
222.006000
20
2963.470000
11
222.999774
21
2962.940834
0
LINE
8
Layer 1
10
223.000000
20
2962.940000
11
223.611980
21
2962.834167
0
LINE
8
Layer 1
10
223.612000
20
2962.830000
11
224.195935
21
2962.856458
0
LINE
8
Layer 1
10
224.196000
20
2962.860000
11
225.032611
21
2963.177500
0
LINE
8
Layer 1
10
225.032000
20
2963.180000
11
225.494491
21
2963.550416
0
LINE
8
Layer 1
10
225.495000
20
2963.550000
11
226.090841
21
2964.237916
0
LINE
8
Layer 1
10
226.090000
20
2964.230000
11
226.440837
21
2964.785624
0
LINE
8
Layer 1
10
226.441000
20
2964.790000
11
226.988158
21
2965.636666
0
LINE
8
Layer 1
10
226.988000
20
2965.640000
11
228.448500
21
2967.862500
0
LINE
8
Layer 1
10
228.449000
20
2967.860000
11
229.124745
21
2968.759582
0
LINE
8
Layer 1
10
229.125000
20
2968.760000
11
229.842285
21
2969.474374
0
LINE
8
Layer 1
10
229.842000
20
2969.470000
11
230.258983
21
2969.893333
0
LINE
8
Layer 1
10
230.259000
20
2969.900000
11
230.757210
21
2969.820625
0
LINE
8
Layer 1
10
230.757000
20
2969.820000
11
230.647000
21
2969.820000
0
LINE
8
Layer 1
10
230.647000
20
2969.820000
11
230.999425
21
2969.634792
0
LINE
8
Layer 1
10
230.999000
20
2969.630000
11
231.720253
21
2968.995001
0
LINE
8
Layer 1
10
231.721000
20
2969.000000
11
232.556289
21
2968.047501
0
LINE
8
Layer 1
10
232.556000
20
2968.040000
11
233.229628
21
2966.981670
0
LINE
8
Layer 1
10
233.229000
20
2966.990000
11
233.719008
21
2965.958130
0
LINE
8
Layer 1
10
233.719000
20
2965.950000
11
234.004220
21
2964.971043
0
LINE
8
Layer 1
10
234.005000
20
2964.980000
11
234.181212
21
2963.101460
0
LINE
8
Layer 1
10
234.181000
20
2963.100000
11
234.138138
21
2962.173960
0
LINE
8
Layer 1
10
234.138000
20
2962.170000
11
234.122919
21
2961.958334
0
LINE
8
Layer 1
10
234.123000
20
2961.960000
11
234.138081
21
2962.012917
0
LINE
8
Layer 1
10
234.138000
20
2962.010000
11
234.154140
21
2962.062917
0
LINE
8
Layer 1
10
234.154000
20
2962.070000
11
234.033086
21
2961.620209
0
LINE
8
Layer 1
10
234.033000
20
2961.620000
11
234.039879
21
2961.593542
0
LINE
8
Layer 1
10
234.040000
20
2961.590000
11
234.035000
21
2961.590000
0
LINE
8
Layer 1
10
234.035000
20
2961.590000
11
234.035000
21
2961.540000
0
LINE
8
Layer 1
10
234.035000
20
2961.540000
11
234.046377
21
2961.566458
0
LINE
8
Layer 1
10
234.046000
20
2961.560000
11
234.052085
21
2961.533542
0
LINE
8
Layer 1
10
234.053000
20
2961.540000
11
234.036000
21
2961.540000
0
LINE
8
Layer 1
10
234.036000
20
2961.540000
11
234.072512
21
2958.021050
0
LINE
8
Layer 1
10
234.073000
20
2958.020000
11
232.791620
21
2957.993542
0
LINE
8
Layer 1
10
232.791000
20
2957.990000
11
230.460000
21
2957.990000
0
LINE
8
Layer 1
10
230.460000
20
2957.990000
11
228.507110
21
2958.069375
0
LINE
8
Layer 1
10
228.507000
20
2958.070000
11
226.530040
21
2958.228750
0
LINE
8
Layer 1
10
226.530000
20
2958.230000
11
225.265820
21
2958.203542
0
LINE
8
Layer 1
10
225.265000
20
2958.200000
11
223.785980
21
2958.173542
0
LINE
8
Layer 1
10
223.786000
20
2958.180000
11
223.695000
21
2958.180000
0
LINE
8
Layer 1
10
223.695000
20
2958.180000
11
221.985530
21
2958.100625
0
LINE
8
Layer 1
10
221.985000
20
2958.100000
11
221.246549
21
2958.152917
0
LINE
8
Layer 1
10
221.247000
20
2958.150000
11
218.110000
21
2958.150000
0
LINE
8
Layer 1
10
218.110000
20
2958.150000
11
215.602280
21
2958.044167
0
LINE
8
Layer 1
10
215.602000
20
2958.040000
11
211.972710
21
2958.092917
0
LINE
8
Layer 1
10
211.973000
20
2958.100000
11
209.255730
21
2957.808959
0
LINE
8
Layer 1
10
209.256000
20
2957.810000
11
206.885340
21
2957.730625
0
LINE
8
Layer 1
10
206.885000
20
2957.730000
11
203.943370
21
2957.386042
0
LINE
8
Layer 1
10
203.943000
20
2957.380000
11
201.039470
21
2957.247708
0
LINE
8
Layer 1
10
201.040000
20
2957.250000
11
198.562440
21
2957.117708
0
LINE
8
Layer 1
10
198.562000
20
2957.120000
11
196.159060
21
2957.305208
0
LINE
8
Layer 1
10
196.159000
20
2957.300000
11
196.273829
21
2957.934999
0
LINE
8
Layer 1
10
196.274000
20
2957.940000
11
196.291992
21
2958.998330
0
LINE
8
Layer 1
10
196.292000
20
2959.000000
11
196.170821
21
2959.978957
0
LINE
8
Layer 1
10
196.171000
20
2959.970000
11
196.122052
21
2960.128750
0
LINE
8
Layer 1
10
196.122000
20
2960.130000
11
196.100569
21
2960.050625
0
LINE
8
Layer 1
10
196.101000
20
2960.050000
11
196.153123
21
2962.457710
0
LINE
8
Layer 1
10
196.153000
20
2962.460000
11
196.152000
21
2962.460000
0
LINE
8
Layer 1
10
196.152000
20
2962.460000
11
195.987165
21
2964.444370
0
LINE
8
Layer 1
10
195.988000
20
2964.450000
11
195.816815
21
2965.455420
0
LINE
8
Layer 1
10
195.816000
20
2965.450000
11
196.012321
21
2966.958120
0
LINE
8
Layer 1
10
196.013000
20
2966.960000
11
196.528937
21
2968.759160
0
LINE
8
Layer 1
10
196.529000
20
2968.760000
11
196.490371
21
2968.574792
0
LINE
8
Layer 1
10
196.490000
20
2968.570000
11
196.587631
21
2968.675833
0
LINE
8
Layer 1
10
196.588000
20
2968.680000
11
197.147064
21
2969.262083
0
LINE
8
Layer 1
10
197.147000
20
2969.260000
11
197.908205
21
2969.736249
0
LINE
8
Layer 1
10
197.908000
20
2969.740000
11
198.552260
21
2969.131459
0
LINE
8
Layer 1
10
198.552000
20
2969.130000
11
199.119531
21
2968.362709
0
LINE
8
Layer 1
10
199.120000
20
2968.360000
11
199.605774
21
2967.275210
0
LINE
8
Layer 1
10
199.605000
20
2967.280000
11
199.774333
21
2966.539168
0
LINE
8
Layer 1
10
199.775000
20
2966.540000
11
199.683190
21
2965.270000
0
LINE
8
Layer 1
10
199.683000
20
2965.270000
11
199.683000
21
2965.270000
0
LINE
8
Layer 1
10
199.683000
20
2965.270000
11
199.699140
21
2965.005417
0
LINE
8
Layer 1
10
199.699000
20
2965.000000
11
199.765675
21
2964.629584
0
LINE
8
Layer 1
10
199.766000
20
2964.630000
11
199.895117
21
2964.286042
0
LINE
8
Layer 1
10
199.895000
20
2964.290000
11
200.044489
21
2963.998959
0
LINE
8
Layer 1
10
200.045000
20
2964.000000
11
200.329162
21
2963.629584
0
LINE
8
Layer 1
10
200.329000
20
2963.630000
11
200.859753
21
2963.206667
0
LINE
8
Layer 1
10
200.860000
20
2963.200000
11
201.692378
21
2962.882500
0
LINE
8
Layer 1
10
201.692000
20
2962.890000
11
202.596874
21
2962.916458
0
LINE
8
Layer 1
10
202.597000
20
2962.910000
11
203.266130
21
2963.148125
0
LINE
8
Layer 1
10
203.266000
20
2963.150000
11
203.671341
21
2963.441041
0
LINE
8
Layer 1
10
203.671000
20
2963.440000
11
203.908066
21
2963.678125
0
LINE
8
Layer 1
10
203.908000
20
2963.680000
11
204.146389
21
2964.023958
0
LINE
8
Layer 1
10
204.147000
20
2964.020000
11
204.373748
21
2964.522708
0
LINE
8
Layer 1
10
204.373000
20
2964.530000
11
204.470631
21
2964.900416
0
LINE
8
Layer 1
10
204.471000
20
2964.900000
11
204.512540
21
2965.085208
0
LINE
8
Layer 1
10
204.513000
20
2965.080000
11
204.508000
21
2965.080000
0
LINE
8
Layer 1
10
204.508000
20
2965.080000
11
205.444359
21
2968.651870
0
LINE
8
Layer 1
10
205.444000
20
2968.650000
11
206.731730
21
2972.327700
0
LINE
8
Layer 1
10
206.732000
20
2972.330000
11
207.088129
21
2972.673958
0
LINE
8
Layer 1
10
207.088000
20
2972.670000
11
207.451802
21
2972.828750
0
LINE
8
Layer 1
10
207.452000
20
2972.830000
11
207.775056
21
2972.591875
0
LINE
8
Layer 1
10
207.775000
20
2972.600000
11
208.259187
21
2971.965001
0
LINE
8
Layer 1
10
208.259000
20
2971.960000
11
209.198534
21
2970.240210
0
LINE
8
Layer 1
10
209.199000
20
2970.240000
11
209.460408
21
2969.578542
0
LINE
8
Layer 1
10
209.460000
20
2969.580000
11
209.741516
21
2966.775420
0
LINE
8
Layer 1
10
209.742000
20
2966.770000
11
209.741000
21
2966.770000
0
LINE
8
Layer 1
10
209.741000
20
2966.770000
11
210.012991
21
2965.923334
0
LINE
8
Layer 1
10
210.013000
20
2965.930000
11
210.356429
21
2965.453751
0
LINE
8
Layer 1
10
210.357000
20
2965.450000
11
210.892781
21
2965.000209
0
LINE
8
Layer 1
10
210.893000
20
2965.000000
11
211.527470
21
2964.735417
0
LINE
8
Layer 1
10
211.527000
20
2964.740000
11
212.111199
21
2964.660625
0
LINE
8
Layer 1
10
212.111000
20
2964.660000
11
212.959518
21
2964.818750
0
LINE
8
Layer 1
10
212.960000
20
2964.820000
11
213.626749
21
2965.137500
0
LINE
8
Layer 1
10
213.626000
20
2965.130000
11
213.823379
21
2965.341666
0
LINE
8
Layer 1
10
213.824000
20
2965.350000
11
214.197062
21
2965.799791
0
LINE
8
Layer 1
10
214.197000
20
2965.800000
11
214.495714
21
2966.329166
0
LINE
8
Layer 1
10
214.496000
20
2966.320000
11
216.281940
21
2969.336250
0
LINE
8
Layer 1
10
216.282000
20
2969.340000
11
218.260550
21
2972.038750
0
LINE
8
Layer 1
10
218.260000
20
2972.040000
11
219.086822
21
2972.886666
0
LINE
8
Layer 1
10
219.087000
20
2972.890000
11
219.086000
21
2972.890000
0
LINE
8
Layer 1
10
125.103000
20
2918.940000
11
125.361762
21
2918.725688
0
LINE
8
Layer 1
10
125.362000
20
2918.720000
11
125.576312
21
2917.328290
0
LINE
8
Layer 1
10
125.576000
20
2917.330000
11
125.618598
21
2915.845690
0
LINE
8
Layer 1
10
125.619000
20
2915.850000
11
125.386696
21
2914.775790
0
LINE
8
Layer 1
10
125.387000
20
2914.770000
11
125.327998
21
2914.732958
0
LINE
8
Layer 1
10
125.328000
20
2914.730000
11
124.938534
21
2914.179667
0
LINE
8
Layer 1
10
124.938000
20
2914.180000
11
123.996349
21
2912.849150
0
LINE
8
Layer 1
10
123.997000
20
2912.850000
11
123.139222
21
2912.008626
0
LINE
8
Layer 1
10
123.139000
20
2912.010000
11
122.144962
21
2911.263876
0
LINE
8
Layer 1
10
122.145000
20
2911.270000
11
119.819320
21
2909.955020
0
LINE
8
Layer 1
10
119.819000
20
2909.950000
11
114.324140
21
2907.306820
0
LINE
8
Layer 1
10
114.324000
20
2907.310000
11
113.941942
21
2907.127438
0
LINE
8
Layer 1
10
113.942000
20
2907.120000
11
112.248930
21
2906.027270
0
LINE
8
Layer 1
10
112.249000
20
2906.030000
11
110.896450
21
2905.000770
0
LINE
8
Layer 1
10
110.897000
20
2905.000000
11
109.520900
21
2903.798790
0
LINE
8
Layer 1
10
109.520000
20
2903.800000
11
108.313240
21
2902.551170
0
LINE
8
Layer 1
10
108.314000
20
2902.550000
11
106.194160
21
2900.031170
0
LINE
8
Layer 1
10
106.194000
20
2900.030000
11
103.696870
21
2897.109000
0
LINE
8
Layer 1
10
103.697000
20
2897.110000
11
101.527950
21
2893.964110
0
LINE
8
Layer 1
10
101.528000
20
2893.970000
11
99.588870
21
2891.136320
0
LINE
8
Layer 1
10
99.588600
20
2891.130000
11
97.891830
21
2889.034500
0
LINE
8
Layer 1
10
97.891800
20
2889.040000
11
96.837440
21
2887.444560
0
LINE
8
Layer 1
10
96.837400
20
2887.440000
11
95.906068
21
2885.741380
0
LINE
8
Layer 1
10
95.906100
20
2885.740000
11
95.117643
21
2883.964650
0
LINE
8
Layer 1
10
95.117600
20
2883.970000
11
94.491861
21
2882.144380
0
LINE
8
Layer 1
10
94.491900
20
2882.140000
11
94.231021
21
2881.129290
0
LINE
8
Layer 1
10
94.231000
20
2881.130000
11
94.066165
21
2879.867940
0
LINE
8
Layer 1
10
94.066200
20
2879.870000
11
94.178648
21
2878.459770
0
LINE
8
Layer 1
10
94.178600
20
2878.460000
11
94.749835
21
2877.002150
0
LINE
8
Layer 1
10
94.749900
20
2877.000000
11
95.402097
21
2876.105709
0
LINE
8
Layer 1
10
95.402100
20
2876.110000
11
96.139757
21
2875.403563
0
LINE
8
Layer 1
10
96.139700
20
2875.400000
11
97.674280
21
2874.421043
0
LINE
8
Layer 1
10
97.674300
20
2874.420000
11
98.148697
21
2874.155417
0
LINE
8
Layer 1
10
98.148700
20
2874.160000
11
99.096172
21
2873.808105
0
LINE
8
Layer 1
10
99.096200
20
2873.810000
11
100.209830
21
2873.669771
0
LINE
8
Layer 1
10
100.210000
20
2873.670000
11
100.402881
21
2873.733500
0
LINE
8
Layer 1
10
100.403000
20
2873.730000
11
100.582387
21
2873.727354
0
LINE
8
Layer 1
10
100.582000
20
2873.730000
11
101.159585
21
2873.727354
0
LINE
8
Layer 1
10
101.160000
20
2873.720000
11
101.698691
21
2873.701479
0
LINE
8
Layer 1
10
101.698000
20
2873.710000
11
102.606049
21
2873.852875
0
LINE
8
Layer 1
10
102.606000
20
2873.850000
11
104.043740
21
2874.365937
0
LINE
8
Layer 1
10
104.044000
20
2874.360000
11
105.281450
21
2875.092895
0
LINE
8
Layer 1
10
105.282000
20
2875.100000
11
106.336630
21
2875.970478
0
LINE
8
Layer 1
10
106.336000
20
2875.970000
11
107.226057
21
2876.898686
0
LINE
8
Layer 1
10
107.226000
20
2876.900000
11
109.350340
21
2879.479680
0
LINE
8
Layer 1
10
109.351000
20
2879.480000
11
111.333520
21
2882.094080
0
LINE
8
Layer 1
10
111.333000
20
2882.090000
11
115.147760
21
2887.177930
0
LINE
8
Layer 1
10
115.148000
20
2887.180000
11
115.198800
21
2887.246146
0
LINE
8
Layer 1
10
115.199000
20
2887.240000
11
116.620600
21
2889.055040
0
LINE
8
Layer 1
10
116.620000
20
2889.060000
11
117.942390
21
2890.539020
0
LINE
8
Layer 1
10
117.943000
20
2890.540000
11
117.990096
21
2890.595562
0
LINE
8
Layer 1
10
117.990000
20
2890.590000
11
118.045827
21
2890.627042
0
LINE
8
Layer 1
10
118.046000
20
2890.630000
11
119.829820
21
2891.823270
0
LINE
8
Layer 1
10
119.829000
20
2891.820000
11
122.238290
21
2893.214350
0
LINE
8
Layer 1
10
122.239000
20
2893.220000
11
122.316787
21
2893.264979
0
LINE
8
Layer 1
10
122.317000
20
2893.260000
11
124.216180
21
2894.622600
0
LINE
8
Layer 1
10
124.216000
20
2894.630000
11
125.500820
21
2895.516353
0
LINE
8
Layer 1
10
125.501000
20
2895.510000
11
128.188100
21
2896.541870
0
LINE
8
Layer 1
10
128.188000
20
2896.540000
11
131.280450
21
2897.693580
0
LINE
8
Layer 1
10
131.280000
20
2897.700000
11
132.744470
21
2898.300603
0
LINE
8
Layer 1
10
132.745000
20
2898.300000
11
133.651726
21
2898.495791
0
LINE
8
Layer 1
10
133.651000
20
2898.490000
11
136.872830
21
2897.899980
0
LINE
8
Layer 1
10
136.873000
20
2897.900000
11
137.983980
21
2897.651292
0
LINE
8
Layer 1
10
137.984000
20
2897.660000
11
138.690437
21
2897.485375
0
LINE
8
Layer 1
10
138.690000
20
2897.480000
11
138.865154
21
2897.424438
0
LINE
8
Layer 1
10
138.866000
20
2897.420000
11
138.983475
21
2897.340625
0
LINE
8
Layer 1
10
138.983000
20
2897.350000
11
138.353028
21
2896.077360
0
LINE
8
Layer 1
10
138.353000
20
2896.070000
11
137.447068
21
2894.850270
0
LINE
8
Layer 1
10
137.447000
20
2894.850000
11
134.952510
21
2892.265020
0
LINE
8
Layer 1
10
134.953000
20
2892.270000
11
132.225410
21
2889.806730
0
LINE
8
Layer 1
10
132.225000
20
2889.800000
11
129.290770
21
2887.490190
0
LINE
8
Layer 1
10
129.291000
20
2887.500000
11
126.558120
21
2885.536790
0
LINE
8
Layer 1
10
126.558000
20
2885.530000
11
123.689130
21
2883.355130
0
LINE
8
Layer 1
10
123.689000
20
2883.360000
11
123.676829
21
2883.357354
0
LINE
8
Layer 1
10
123.677000
20
2883.350000
11
122.396150
21
2882.326060
0
LINE
8
Layer 1
10
122.396000
20
2882.330000
11
121.287400
21
2881.123500
0
LINE
8
Layer 1
10
121.288000
20
2881.120000
11
120.573361
21
2880.223064
0
LINE
8
Layer 1
10
120.573000
20
2880.230000
11
118.920410
21
2878.253560
0
LINE
8
Layer 1
10
118.920000
20
2878.250000
11
117.417700
21
2876.154500
0
LINE
8
Layer 1
10
117.418000
20
2876.160000
11
116.070210
21
2873.969250
0
LINE
8
Layer 1
10
116.070000
20
2873.960000
11
114.880960
21
2871.687230
0
LINE
8
Layer 1
10
114.881000
20
2871.690000
11
114.408719
21
2870.676650
0
LINE
8
Layer 1
10
114.409000
20
2870.680000
11
114.248663
21
2870.232855
0
LINE
8
Layer 1
10
114.249000
20
2870.230000
11
114.187881
21
2869.830480
0
LINE
8
Layer 1
10
114.187000
20
2869.830000
11
114.207373
21
2869.975521
0
LINE
8
Layer 1
10
114.208000
20
2869.980000
11
114.204031
21
2869.969417
0
LINE
8
Layer 1
10
114.204000
20
2869.970000
11
114.206117
21
2869.983229
0
LINE
8
Layer 1
10
114.206000
20
2869.980000
11
113.893527
21
2869.162439
0
LINE
8
Layer 1
10
113.894000
20
2869.160000
11
113.386530
21
2868.109610
0
LINE
8
Layer 1
10
113.386000
20
2868.110000
11
112.728776
21
2866.271150
0
LINE
8
Layer 1
10
112.729000
20
2866.270000
11
112.633486
21
2865.846667
0
LINE
8
Layer 1
10
112.633000
20
2865.850000
11
112.629031
21
2865.828833
0
LINE
8
Layer 1
10
112.629000
20
2865.830000
11
112.497238
21
2865.512500
0
LINE
8
Layer 1
10
112.498000
20
2865.510000
11
111.780715
21
2863.829900
0
LINE
8
Layer 1
10
111.780000
20
2863.830000
11
111.224376
21
2861.290000
0
LINE
8
Layer 1
10
111.225000
20
2861.290000
11
110.991373
21
2858.969610
0
LINE
8
Layer 1
10
110.991000
20
2858.970000
11
110.987031
21
2858.967354
0
LINE
8
Layer 1
10
110.987000
20
2858.970000
11
110.953927
21
2858.678959
0
LINE
8
Layer 1
10
110.954000
20
2858.680000
11
110.851606
21
2857.738085
0
LINE
8
Layer 1
10
110.852000
20
2857.730000
11
110.764423
21
2856.798668
0
LINE
8
Layer 1
10
110.764000
20
2856.800000
11
110.756856
21
2855.791940
0
LINE
8
Layer 1
10
110.757000
20
2855.800000
11
111.219491
21
2853.696570
0
LINE
8
Layer 1
10
111.219000
20
2853.690000
11
111.225879
21
2853.671479
0
LINE
8
Layer 1
10
111.226000
20
2853.670000
11
111.540325
21
2852.574630
0
LINE
8
Layer 1
10
111.541000
20
2852.580000
11
112.089216
21
2851.397310
0
LINE
8
Layer 1
10
112.089000
20
2851.400000
11
112.098790
21
2851.370896
0
LINE
8
Layer 1
10
112.099000
20
2851.370000
11
112.112758
21
2851.362063
0
LINE
8
Layer 1
10
112.112000
20
2851.360000
11
112.743824
21
2850.550376
0
LINE
8
Layer 1
10
112.744000
20
2850.550000
11
113.393816
21
2850.028771
0
LINE
8
Layer 1
10
113.394000
20
2850.030000
11
113.402996
21
2850.024708
0
LINE
8
Layer 1
10
113.403000
20
2850.020000
11
113.409879
21
2850.014708
0
LINE
8
Layer 1
10
113.410000
20
2850.020000
11
114.131253
21
2849.556980
0
LINE
8
Layer 1
10
114.131000
20
2849.550000
11
115.149640
21
2849.203396
0
LINE
8
Layer 1
10
115.150000
20
2849.210000
11
115.152000
21
2849.210000
0
LINE
8
Layer 1
10
115.152000
20
2849.210000
11
115.154117
21
2849.207354
0
LINE
8
Layer 1
10
115.154000
20
2849.200000
11
115.156000
21
2849.200000
0
LINE
8
Layer 1
10
115.156000
20
2849.200000
11
116.176500
21
2849.115333
0
LINE
8
Layer 1
10
116.176000
20
2849.120000
11
116.336866
21
2849.178208
0
LINE
8
Layer 1
10
116.337000
20
2849.180000
11
117.064074
21
2849.185292
0
LINE
8
Layer 1
10
117.064000
20
2849.180000
11
118.264150
21
2849.407541
0
LINE
8
Layer 1
10
118.264000
20
2849.410000
11
119.648830
21
2850.142895
0
LINE
8
Layer 1
10
119.649000
20
2850.140000
11
120.220764
21
2850.647999
0
LINE
8
Layer 1
10
120.221000
20
2850.650000
11
121.009987
21
2851.271770
0
LINE
8
Layer 1
10
121.010000
20
2851.270000
11
122.079440
21
2852.272770
0
LINE
8
Layer 1
10
122.079000
20
2852.280000
11
123.072774
21
2853.515600
0
LINE
8
Layer 1
10
123.073000
20
2853.510000
11
124.152760
21
2854.653000
0
LINE
8
Layer 1
10
124.153000
20
2854.660000
11
125.218740
21
2856.080810
0
LINE
8
Layer 1
10
125.219000
20
2856.080000
11
126.050584
21
2857.336770
0
LINE
8
Layer 1
10
126.050000
20
2857.330000
11
126.783159
21
2858.237520
0
LINE
8
Layer 1
10
126.783000
20
2858.240000
11
127.806140
21
2859.711080
0
LINE
8
Layer 1
10
127.807000
20
2859.710000
11
128.313147
21
2860.344999
0
LINE
8
Layer 1
10
128.313000
20
2860.350000
11
132.674120
21
2851.309200
0
LINE
8
Layer 1
10
132.674000
20
2851.310000
11
127.561200
21
2844.007510
0
LINE
8
Layer 1
10
127.561000
20
2844.000000
11
126.045200
21
2841.486460
0
LINE
8
Layer 1
10
126.045000
20
2841.490000
11
124.716530
21
2839.222520
0
LINE
8
Layer 1
10
124.717000
20
2839.220000
11
124.662496
21
2839.143271
0
LINE
8
Layer 1
10
124.662000
20
2839.150000
11
123.692039
21
2837.872060
0
LINE
8
Layer 1
10
123.692000
20
2837.870000
11
122.492120
21
2836.163440
0
LINE
8
Layer 1
10
122.492000
20
2836.160000
11
122.418975
21
2836.059458
0
LINE
8
Layer 1
10
122.419000
20
2836.060000
11
121.875017
21
2835.033420
0
LINE
8
Layer 1
10
121.875000
20
2835.030000
11
119.215680
21
2830.095530
0
LINE
8
Layer 1
10
119.216000
20
2830.100000
11
118.379918
21
2828.583940
0
LINE
8
Layer 1
10
118.380000
20
2828.580000
11
118.142404
21
2827.926480
0
LINE
8
Layer 1
10
118.142000
20
2827.930000
11
118.043840
21
2827.758021
0
LINE
8
Layer 1
10
118.044000
20
2827.760000
11
117.319572
21
2826.228060
0
LINE
8
Layer 1
10
117.320000
20
2826.230000
11
115.785150
21
2822.631670
0
LINE
8
Layer 1
10
115.785000
20
2822.630000
11
115.214294
21
2821.677501
0
LINE
8
Layer 1
10
115.214000
20
2821.670000
11
114.479253
21
2820.246540
0
LINE
8
Layer 1
10
114.480000
20
2820.250000
11
114.193986
21
2819.398043
0
LINE
8
Layer 1
10
114.194000
20
2819.400000
11
114.179713
21
2819.251834
0
LINE
8
Layer 1
10
114.179000
20
2819.250000
11
114.215777
21
2819.302917
0
LINE
8
Layer 1
10
114.216000
20
2819.300000
11
113.259532
21
2816.733540
0
LINE
8
Layer 1
10
113.260000
20
2816.740000
11
111.869090
21
2813.718460
0
LINE
8
Layer 1
10
111.869000
20
2813.720000
11
111.199340
21
2812.394440
0
LINE
8
Layer 1
10
111.199000
20
2812.390000
11
110.508968
21
2810.339480
0
LINE
8
Layer 1
10
110.509000
20
2810.340000
11
110.353690
21
2809.755272
0
LINE
8
Layer 1
10
110.354000
20
2809.760000
11
110.090211
21
2809.207022
0
LINE
8
Layer 1
10
110.090000
20
2809.200000
11
109.148614
21
2806.630900
0
LINE
8
Layer 1
10
109.148000
20
2806.630000
11
109.192450
21
2806.796687
0
LINE
8
Layer 1
10
109.193000
20
2806.800000
11
109.134263
21
2806.741792
0
LINE
8
Layer 1
10
109.134000
20
2806.740000
11
108.831052
21
2805.909209
0
LINE
8
Layer 1
10
108.831000
20
2805.910000
11
108.673309
21
2805.034230
0
LINE
8
Layer 1
10
108.674000
20
2805.040000
11
108.524775
21
2804.436751
0
LINE
8
Layer 1
10
108.524000
20
2804.430000
11
108.311011
21
2802.850440
0
LINE
8
Layer 1
10
108.311000
20
2802.850000
11
108.250411
21
2801.447710
0
LINE
8
Layer 1
10
108.251000
20
2801.450000
11
108.154692
21
2799.222210
0
LINE
8
Layer 1
10
108.154000
20
2799.220000
11
107.339084
21
2795.764550
0
LINE
8
Layer 1
10
107.340000
20
2795.770000
11
107.332063
21
2795.677396
0
LINE
8
Layer 1
10
107.332000
20
2795.670000
11
107.059744
21
2793.264940
0
LINE
8
Layer 1
10
107.059000
20
2793.270000
11
106.975127
21
2791.304150
0
LINE
8
Layer 1
10
106.975000
20
2791.300000
11
106.968915
21
2791.225917
0
LINE
8
Layer 1
10
106.969000
20
2791.230000
11
106.571067
21
2786.340510
0
LINE
8
Layer 1
10
106.571000
20
2786.340000
11
106.152959
21
2780.005880
0
LINE
8
Layer 1
10
106.153000
20
2780.010000
11
106.129981
21
2779.838021
0
LINE
8
Layer 1
10
106.130000
20
2779.830000
11
105.704551
21
2776.946050
0
LINE
8
Layer 1
10
105.705000
20
2776.950000
11
105.327175
21
2773.722090
0
LINE
8
Layer 1
10
105.327000
20
2773.720000
11
105.299483
21
2773.510979
0
LINE
8
Layer 1
10
105.300000
20
2773.510000
11
105.201575
21
2770.710710
0
LINE
8
Layer 1
10
105.201000
20
2770.710000
11
105.112894
21
2768.185880
0
LINE
8
Layer 1
10
105.113000
20
2768.190000
11
104.953721
21
2766.081270
0
LINE
8
Layer 1
10
104.954000
20
2766.080000
11
104.632532
21
2764.212040
0
LINE
8
Layer 1
10
104.632000
20
2764.210000
11
104.624063
21
2764.175604
0
LINE
8
Layer 1
10
104.624000
20
2764.180000
11
104.261521
21
2762.894130
0
LINE
8
Layer 1
10
104.262000
20
2762.890000
11
103.956142
21
2760.969130
0
LINE
8
Layer 1
10
103.956000
20
2760.970000
11
103.942506
21
2760.906500
0
LINE
8
Layer 1
10
103.943000
20
2760.910000
11
103.774461
21
2755.536320
0
LINE
8
Layer 1
10
103.774000
20
2755.530000
11
103.878246
21
2753.257230
0
LINE
8
Layer 1
10
103.878000
20
2753.260000
11
103.874825
21
2753.225604
0
LINE
8
Layer 1
10
103.875000
20
2753.230000
11
103.722600
21
2752.214000
0
LINE
8
Layer 1
10
103.723000
20
2752.210000
11
103.629073
21
2750.442590
0
LINE
8
Layer 1
10
103.629000
20
2750.440000
11
103.622121
21
2750.371208
0
LINE
8
Layer 1
10
103.622000
20
2750.370000
11
103.836841
21
2748.819540
0
LINE
8
Layer 1
10
103.837000
20
2748.820000
11
103.864781
21
2744.740130
0
LINE
8
Layer 1
10
103.864000
20
2744.740000
11
103.510517
21
2741.030550
0
LINE
8
Layer 1
10
103.511000
20
2741.040000
11
103.188209
21
2739.227610
0
LINE
8
Layer 1
10
103.188000
20
2739.220000
11
103.061529
21
2737.756860
0
LINE
8
Layer 1
10
103.062000
20
2737.760000
11
103.058825
21
2737.476896
0
LINE
8
Layer 1
10
103.059000
20
2737.480000
11
103.110329
21
2737.030209
0
LINE
8
Layer 1
10
103.110000
20
2737.030000
11
103.039092
21
2735.595960
0
LINE
8
Layer 1
10
103.039000
20
2735.590000
11
102.918879
21
2733.952230
0
LINE
8
Layer 1
10
102.919000
20
2733.950000
11
102.835656
21
2733.664250
0
LINE
8
Layer 1
10
102.836000
20
2733.670000
11
102.768796
21
2733.281063
0
LINE
8
Layer 1
10
102.768000
20
2733.280000
11
102.783346
21
2733.256188
0
LINE
8
Layer 1
10
102.784000
20
2733.260000
11
102.772358
21
2733.035104
0
LINE
8
Layer 1
10
102.772000
20
2733.030000
11
102.734958
21
2732.151584
0
LINE
8
Layer 1
10
102.735000
20
2732.150000
11
102.740027
21
2731.988604
0
LINE
8
Layer 1
10
102.740000
20
2731.990000
11
102.793975
21
2729.106050
0
LINE
8
Layer 1
10
102.794000
20
2729.110000
11
102.922058
21
2726.530320
0
LINE
8
Layer 1
10
102.922000
20
2726.530000
11
102.924910
21
2726.429458
0
LINE
8
Layer 1
10
102.925000
20
2726.430000
11
102.908860
21
2721.709840
0
LINE
8
Layer 1
10
102.909000
20
2721.710000
11
103.172789
21
2719.558940
0
LINE
8
Layer 1
10
103.173000
20
2719.560000
11
103.238881
21
2718.258250
0
LINE
8
Layer 1
10
103.238000
20
2718.250000
11
103.244879
21
2718.218250
0
LINE
8
Layer 1
10
103.245000
20
2718.220000
11
103.229390
21
2717.458001
0
LINE
8
Layer 1
10
103.230000
20
2717.460000
11
103.348269
21
2716.163540
0
LINE
8
Layer 1
10
103.348000
20
2716.160000
11
103.616023
21
2713.434800
0
LINE
8
Layer 1
10
103.616000
20
2713.440000
11
103.866031
21
2707.322840
0
LINE
8
Layer 1
10
103.866000
20
2707.320000
11
104.230331
21
2703.057570
0
LINE
8
Layer 1
10
104.230000
20
2703.060000
11
104.227883
21
2702.975333
0
LINE
8
Layer 1
10
104.228000
20
2702.970000
11
104.144656
21
2701.165540
0
LINE
8
Layer 1
10
104.145000
20
2701.170000
11
104.144206
21
2698.891940
0
LINE
8
Layer 1
10
104.144000
20
2698.890000
11
104.141883
21
2698.781521
0
LINE
8
Layer 1
10
104.142000
20
2698.780000
11
104.149937
21
2698.735021
0
LINE
8
Layer 1
10
104.150000
20
2698.740000
11
104.450566
21
2696.665670
0
LINE
8
Layer 1
10
104.451000
20
2696.660000
11
104.922751
21
2694.741770
0
LINE
8
Layer 1
10
104.922000
20
2694.750000
11
105.964990
21
2691.225750
0
LINE
8
Layer 1
10
105.965000
20
2691.220000
11
106.304460
21
2689.746270
0
LINE
8
Layer 1
10
106.305000
20
2689.750000
11
106.432264
21
2688.366230
0
LINE
8
Layer 1
10
106.432000
20
2688.360000
11
106.430942
21
2688.349417
0
LINE
8
Layer 1
10
106.431000
20
2688.350000
11
106.379406
21
2688.154209
0
LINE
8
Layer 1
10
106.379000
20
2688.160000
11
106.444352
21
2687.173105
0
LINE
8
Layer 1
10
106.445000
20
2687.170000
11
106.444735
21
2687.148833
0
LINE
8
Layer 1
10
106.444000
20
2687.150000
11
106.732131
21
2686.062560
0
LINE
8
Layer 1
10
106.733000
20
2686.060000
11
106.786181
21
2685.684292
0
LINE
8
Layer 1
10
106.786000
20
2685.690000
11
107.228912
21
2684.607860
0
LINE
8
Layer 1
10
107.229000
20
2684.600000
11
108.226213
21
2681.395900
0
LINE
8
Layer 1
10
108.226000
20
2681.400000
11
109.092774
21
2677.304260
0
LINE
8
Layer 1
10
109.093000
20
2677.310000
11
109.590681
21
2673.394170
0
LINE
8
Layer 1
10
109.590000
20
2673.390000
11
109.845587
21
2671.569670
0
LINE
8
Layer 1
10
109.846000
20
2671.570000
11
110.639749
21
2669.072340
0
LINE
8
Layer 1
10
110.640000
20
2669.070000
11
111.271030
21
2666.924230
0
LINE
8
Layer 1
10
111.271000
20
2666.930000
11
111.314656
21
2666.665417
0
LINE
8
Layer 1
10
111.314000
20
2666.660000
11
111.381733
21
2666.419229
0
LINE
8
Layer 1
10
111.382000
20
2666.420000
11
111.552127
21
2665.869667
0
LINE
8
Layer 1
10
111.552000
20
2665.870000
11
111.721069
21
2665.359355
0
LINE
8
Layer 1
10
111.721000
20
2665.360000
11
111.832654
21
2665.092771
0
LINE
8
Layer 1
10
111.833000
20
2665.090000
11
111.847552
21
2665.066188
0
LINE
8
Layer 1
10
111.847000
20
2665.070000
11
112.122431
21
2664.225980
0
LINE
8
Layer 1
10
112.123000
20
2664.220000
11
113.580850
21
2659.219380
0
LINE
8
Layer 1
10
113.581000
20
2659.220000
11
115.139660
21
2654.013010
0
LINE
8
Layer 1
10
115.139000
20
2654.020000
11
115.932220
21
2651.707540
0
LINE
8
Layer 1
10
115.933000
20
2651.700000
11
116.216633
21
2651.057063
0
LINE
8
Layer 1
10
116.216000
20
2651.060000
11
116.476085
21
2650.721334
0
LINE
8
Layer 1
10
116.476000
20
2650.720000
11
116.915208
21
2649.680190
0
LINE
8
Layer 1
10
116.916000
20
2649.680000
11
117.904218
21
2646.679630
0
LINE
8
Layer 1
10
117.904000
20
2646.680000
11
118.716534
21
2643.460020
0
LINE
8
Layer 1
10
118.716000
20
2643.460000
11
119.571397
21
2640.107730
0
LINE
8
Layer 1
10
119.572000
20
2640.110000
11
120.695950
21
2636.662480
0
LINE
8
Layer 1
10
120.696000
20
2636.660000
11
120.699969
21
2636.657354
0
LINE
8
Layer 1
10
120.700000
20
2636.660000
11
120.753975
21
2636.575333
0
LINE
8
Layer 1
10
120.754000
20
2636.580000
11
121.221518
21
2635.849751
0
LINE
8
Layer 1
10
121.221000
20
2635.840000
11
122.952430
21
2634.064650
0
LINE
8
Layer 1
10
122.953000
20
2634.070000
11
122.954852
21
2634.067354
0
LINE
8
Layer 1
10
122.954000
20
2634.070000
11
122.991835
21
2634.043542
0
LINE
8
Layer 1
10
122.992000
20
2634.040000
11
123.732303
21
2633.248897
0
LINE
8
Layer 1
10
123.733000
20
2633.250000
11
123.833012
21
2633.170625
0
LINE
8
Layer 1
10
123.833000
20
2633.170000
11
124.215058
21
2632.654063
0
LINE
8
Layer 1
10
124.215000
20
2632.650000
11
125.112201
21
2631.697501
0
LINE
8
Layer 1
10
125.112000
20
2631.700000
11
125.113852
21
2631.697354
0
LINE
8
Layer 1
10
125.114000
20
2631.700000
11
126.086343
21
2630.858626
0
LINE
8
Layer 1
10
126.086000
20
2630.860000
11
127.827490
21
2628.976170
0
LINE
8
Layer 1
10
127.828000
20
2628.970000
11
127.829852
21
2628.967354
0
LINE
8
Layer 1
10
127.829000
20
2628.970000
11
128.317156
21
2628.509626
0
LINE
8
Layer 1
10
128.318000
20
2628.510000
11
129.017028
21
2627.851188
0
LINE
8
Layer 1
10
129.017000
20
2627.850000
11
131.110910
21
2625.497860
0
LINE
8
Layer 1
10
131.110000
20
2625.500000
11
134.258010
21
2621.962530
0
LINE
8
Layer 1
10
134.258000
20
2621.960000
11
134.259852
21
2621.957354
0
LINE
8
Layer 1
10
134.260000
20
2621.960000
11
135.424170
21
2620.801130
0
LINE
8
Layer 1
10
135.424000
20
2620.800000
11
136.702470
21
2619.752250
0
LINE
8
Layer 1
10
136.703000
20
2619.750000
11
138.261130
21
2618.686380
0
LINE
8
Layer 1
10
138.261000
20
2618.690000
11
139.441830
21
2617.181880
0
LINE
8
Layer 1
10
139.442000
20
2617.180000
11
139.986247
21
2616.634959
0
LINE
8
Layer 1
10
139.986000
20
2616.640000
11
141.019200
21
2615.171560
0
LINE
8
Layer 1
10
141.019000
20
2615.170000
11
141.416139
21
2614.283647
0
LINE
8
Layer 1
10
141.416000
20
2614.280000
11
143.732420
21
2609.975230
0
LINE
8
Layer 1
10
143.733000
20
2609.980000
11
144.305822
21
2608.620040
0
LINE
8
Layer 1
10
144.306000
20
2608.620000
11
144.784895
21
2607.902980
0
LINE
8
Layer 1
10
144.785000
20
2607.900000
11
149.345350
21
2600.610740
0
LINE
8
Layer 1
10
149.345000
20
2600.610000
11
155.239640
21
2591.188200
0
LINE
8
Layer 1
10
155.240000
20
2591.190000
11
78.851700
21
2630.096900
0
LINE
8
Layer 1
10
78.851300
20
2630.100000
11
76.433010
21
2633.727430
0
LINE
8
Layer 1
10
76.433100
20
2633.720000
11
72.073570
21
2640.265780
0
LINE
8
Layer 1
10
72.073500
20
2640.270000
11
70.722540
21
2644.971640
0
LINE
8
Layer 1
10
70.722600
20
2644.970000
11
70.129140
21
2646.872350
0
LINE
8
Layer 1
10
70.129100
20
2646.870000
11
69.782232
21
2647.684916
0
LINE
8
Layer 1
10
69.782200
20
2647.690000
11
69.837498
21
2647.555063
0
LINE
8
Layer 1
10
69.837500
20
2647.550000
11
69.873748
21
2647.507667
0
LINE
8
Layer 1
10
69.873800
20
2647.510000
11
69.490948
21
2648.904350
0
LINE
8
Layer 1
10
69.490900
20
2648.900000
11
69.477142
21
2648.958208
0
LINE
8
Layer 1
10
69.477200
20
2648.960000
11
68.016440
21
2655.296760
0
LINE
8
Layer 1
10
68.016400
20
2655.300000
11
66.754070
21
2661.798160
0
LINE
8
Layer 1
10
66.754100
20
2661.800000
11
66.737960
21
2661.879375
0
LINE
8
Layer 1
10
66.737900
20
2661.880000
11
66.298428
21
2663.811460
0
LINE
8
Layer 1
10
66.298500
20
2663.810000
11
65.359760
21
2670.003890
0
LINE
8
Layer 1
10
65.359700
20
2670.000000
11
65.228467
21
2672.248960
0
LINE
8
Layer 1
10
65.228500
20
2672.250000
11
64.032320
21
2683.129700
0
LINE
8
Layer 1
10
64.032300
20
2683.130000
11
62.809130
21
2691.273860
0
LINE
8
Layer 1
10
62.809100
20
2691.280000
11
61.940209
21
2698.341720
0
LINE
8
Layer 1
10
61.940300
20
2698.340000
11
61.259263
21
2705.425530
0
LINE
8
Layer 1
10
61.259200
20
2705.420000
11
60.916830
21
2709.510450
0
LINE
8
Layer 1
10
60.916800
20
2709.510000
11
60.910715
21
2712.057930
0
LINE
8
Layer 1
10
60.910800
20
2712.060000
11
60.884342
21
2712.390729
0
LINE
8
Layer 1
10
60.884300
20
2712.390000
11
60.608869
21
2715.803120
0
LINE
8
Layer 1
10
60.608900
20
2715.800000
11
60.402790
21
2718.850640
0
LINE
8
Layer 1
10
60.402800
20
2718.860000
11
60.391687
21
2719.021396
0
LINE
8
Layer 1
10
60.391700
20
2719.020000
11
60.393817
21
2719.080854
0
LINE
8
Layer 1
10
60.393800
20
2719.080000
11
60.585358
21
2724.961680
0
LINE
8
Layer 1
10
60.585300
20
2724.960000
11
60.948572
21
2730.936930
0
LINE
8
Layer 1
10
60.948600
20
2730.940000
11
60.952569
21
2731.000854
0
LINE
8
Layer 1
10
60.952600
20
2731.000000
11
61.058698
21
2732.860020
0
LINE
8
Layer 1
10
61.058700
20
2732.860000
11
61.040708
21
2733.473833
0
LINE
8
Layer 1
10
61.040700
20
2733.470000
11
61.038583
21
2733.483229
0
LINE
8
Layer 1
10
61.038600
20
2733.480000
11
61.111096
21
2735.435270
0
LINE
8
Layer 1
10
61.111100
20
2735.440000
11
61.257414
21
2737.292080
0
LINE
8
Layer 1
10
61.257400
20
2737.290000
11
61.327250
21
2740.634330
0
LINE
8
Layer 1
10
61.327200
20
2740.640000
11
61.188294
21
2749.495590
0
LINE
8
Layer 1
10
61.188300
20
2749.490000
11
61.111571
21
2751.752180
0
LINE
8
Layer 1
10
61.111600
20
2751.750000
11
61.382798
21
2759.907090
0
LINE
8
Layer 1
10
61.382800
20
2759.910000
11
61.449210
21
2763.772910
0
LINE
8
Layer 1
10
61.449200
20
2763.770000
11
61.585196
21
2767.439770
0
LINE
8
Layer 1
10
61.585200
20
2767.440000
11
61.829939
21
2769.641330
0
LINE
8
Layer 1
10
61.829900
20
2769.640000
11
61.989444
21
2770.563395
0
LINE
8
Layer 1
10
61.989500
20
2770.570000
11
62.246675
21
2771.324062
0
LINE
8
Layer 1
10
62.246600
20
2771.320000
11
62.491868
21
2772.904850
0
LINE
8
Layer 1
10
62.491900
20
2772.910000
11
62.776856
21
2776.421020
0
LINE
8
Layer 1
10
62.776900
20
2776.420000
11
62.821614
21
2779.415080
0
LINE
8
Layer 1
10
62.821600
20
2779.410000
11
62.801756
21
2779.542291
0
LINE
8
Layer 1
10
62.801700
20
2779.550000
11
62.900125
21
2781.187770
0
LINE
8
Layer 1
10
62.900200
20
2781.180000
11
62.903110
21
2781.238208
0
LINE
8
Layer 1
10
62.903100
20
2781.240000
11
62.903100
21
2782.980000
0
LINE
8
Layer 1
10
62.903100
20
2782.980000
11
63.456343
21
2786.842910
0
LINE
8
Layer 1
10
63.456300
20
2786.850000
11
63.710564
21
2788.876710
0
LINE
8
Layer 1
10
63.710600
20
2788.870000
11
63.722242
21
2788.970542
0
LINE
8
Layer 1
10
63.722200
20
2788.970000
11
63.729079
21
2789.067896
0
LINE
8
Layer 1
10
63.729100
20
2789.070000
11
63.732010
21
2789.241979
0
LINE
8
Layer 1
10
63.732000
20
2789.240000
11
63.669823
21
2789.427854
0
LINE
8
Layer 1
10
63.669800
20
2789.430000
11
63.850775
21
2791.626040
0
LINE
8
Layer 1
10
63.850800
20
2791.630000
11
64.084427
21
2793.918640
0
LINE
8
Layer 1
10
64.084400
20
2793.920000
11
64.201610
21
2794.166062
0
LINE
8
Layer 1
10
64.201600
20
2794.160000
11
64.312725
21
2794.633604
0
LINE
8
Layer 1
10
64.312800
20
2794.640000
11
64.675543
21
2797.711810
0
LINE
8
Layer 1
10
64.675500
20
2797.710000
11
65.421359
21
2807.354050
0
LINE
8
Layer 1
10
65.421400
20
2807.350000
11
65.798166
21
2810.895410
0
LINE
8
Layer 1
10
65.798100
20
2810.900000
11
66.142587
21
2814.657080
0
LINE
8
Layer 1
10
66.142600
20
2814.660000
11
66.150537
21
2817.205290
0
LINE
8
Layer 1
10
66.150600
20
2817.200000
11
66.350625
21
2819.922560
0
LINE
8
Layer 1
10
66.350600
20
2819.920000
11
66.727102
21
2822.552600
0
LINE
8
Layer 1
10
66.727100
20
2822.560000
11
66.748531
21
2822.628792
0
LINE
8
Layer 1
10
66.748500
20
2822.620000
11
67.387203
21
2824.667870
0
LINE
8
Layer 1
10
67.387200
20
2824.670000
11
68.252122
21
2827.167660
0
LINE
8
Layer 1
10
68.252100
20
2827.170000
11
68.302106
21
2827.312875
0
LINE
8
Layer 1
10
68.302200
20
2827.310000
11
69.398370
21
2831.355470
0
LINE
8
Layer 1
10
69.398300
20
2831.360000
11
70.483350
21
2835.199100
0
LINE
8
Layer 1
10
70.483400
20
2835.200000
11
72.004750
21
2839.533870
0
LINE
8
Layer 1
10
72.004700
20
2839.530000
11
72.600276
21
2840.860850
0
LINE
8
Layer 1
10
72.600300
20
2840.860000
11
73.103272
21
2842.849660
0
LINE
8
Layer 1
10
73.103300
20
2842.850000
11
74.702440
21
2847.006600
0
LINE
8
Layer 1
10
74.702400
20
2847.010000
11
75.309353
21
2848.962620
0
LINE
8
Layer 1
10
75.309400
20
2848.960000
11
75.648331
21
2850.110940
0
LINE
8
Layer 1
10
75.648300
20
2850.110000
11
76.014747
21
2851.110120
0
LINE
8
Layer 1
10
76.014700
20
2851.110000
11
76.006498
21
2851.096771
0
LINE
8
Layer 1
10
76.006500
20
2851.100000
11
76.011527
21
2851.113229
0
LINE
8
Layer 1
10
76.011600
20
2851.110000
11
75.960536
21
2851.017396
0
LINE
8
Layer 1
10
75.960500
20
2851.020000
11
75.808365
21
2850.808334
0
LINE
8
Layer 1
10
75.808400
20
2850.810000
11
75.760246
21
2850.738563
0
LINE
8
Layer 1
10
75.760200
20
2850.740000
11
76.160514
21
2851.406749
0
LINE
8
Layer 1
10
76.160500
20
2851.400000
11
76.293056
21
2851.860374
0
LINE
8
Layer 1
10
76.293100
20
2851.860000
11
76.325379
21
2852.050500
0
LINE
8
Layer 1
10
76.325400
20
2852.050000
11
76.499231
21
2852.983978
0
LINE
8
Layer 1
10
76.499200
20
2852.990000
11
77.129437
21
2856.000950
0
LINE
8
Layer 1
10
77.129400
20
2856.000000
11
77.603797
21
2858.902480
0
LINE
8
Layer 1
10
77.603800
20
2858.900000
11
78.038774
21
2860.506020
0
LINE
8
Layer 1
10
78.038800
20
2860.510000
11
78.614003
21
2863.375430
0
LINE
8
Layer 1
10
78.614000
20
2863.370000
11
79.121470
21
2864.981310
0
LINE
8
Layer 1
10
79.121500
20
2864.980000
11
79.532397
21
2866.646870
0
LINE
8
Layer 1
10
79.532400
20
2866.650000
11
80.597080
21
2869.335520
0
LINE
8
Layer 1
10
80.597100
20
2869.340000
11
81.999920
21
2873.411930
0
LINE
8
Layer 1
10
81.999900
20
2873.410000
11
82.411062
21
2874.261957
0
LINE
8
Layer 1
10
82.411000
20
2874.260000
11
82.952866
21
2875.696690
0
LINE
8
Layer 1
10
82.952900
20
2875.700000
11
83.174621
21
2876.223874
0
LINE
8
Layer 1
10
83.174600
20
2876.220000
11
83.187829
21
2876.238521
0
LINE
8
Layer 1
10
83.187900
20
2876.240000
11
83.351941
21
2876.478125
0
LINE
8
Layer 1
10
83.351900
20
2876.480000
11
83.466729
21
2876.686375
0
LINE
8
Layer 1
10
83.466700
20
2876.680000
11
84.350936
21
2878.698770
0
LINE
8
Layer 1
10
84.351000
20
2878.700000
11
84.799468
21
2879.948830
0
LINE
8
Layer 1
10
84.799400
20
2879.950000
11
85.953510
21
2882.505870
0
LINE
8
Layer 1
10
85.953500
20
2882.510000
11
87.263980
21
2885.240500
0
LINE
8
Layer 1
10
87.264000
20
2885.240000
11
87.275112
21
2885.263812
0
LINE
8
Layer 1
10
87.275100
20
2885.260000
11
88.788250
21
2888.395310
0
LINE
8
Layer 1
10
88.788300
20
2888.400000
11
90.456500
21
2891.352750
0
LINE
8
Layer 1
10
90.456500
20
2891.350000
11
90.468406
21
2891.371167
0
LINE
8
Layer 1
10
90.468400
20
2891.370000
11
93.987350
21
2896.492330
0
LINE
8
Layer 1
10
93.987300
20
2896.490000
11
95.878540
21
2899.342200
0
LINE
8
Layer 1
10
95.878600
20
2899.350000
11
97.220300
21
2900.839600
0
LINE
8
Layer 1
10
97.220300
20
2900.840000
11
97.997380
21
2901.996230
0
LINE
8
Layer 1
10
97.997400
20
2901.990000
11
99.238820
21
2903.310270
0
LINE
8
Layer 1
10
99.238800
20
2903.310000
11
99.297802
21
2903.376146
0
LINE
8
Layer 1
10
99.297800
20
2903.380000
11
100.379940
21
2904.631480
0
LINE
8
Layer 1
10
100.380000
20
2904.630000
11
102.785590
21
2907.807640
0
LINE
8
Layer 1
10
102.786000
20
2907.810000
11
103.893280
21
2909.222870
0
LINE
8
Layer 1
10
103.893000
20
2909.220000
11
105.028060
21
2910.429140
0
LINE
8
Layer 1
10
105.028000
20
2910.430000
11
105.053929
21
2910.453812
0
LINE
8
Layer 1
10
105.054000
20
2910.450000
11
107.714120
21
2912.595770
0
LINE
8
Layer 1
10
107.714000
20
2912.600000
11
110.701940
21
2914.714020
0
LINE
8
Layer 1
10
110.702000
20
2914.710000
11
110.728723
21
2914.728521
0
LINE
8
Layer 1
10
110.729000
20
2914.730000
11
112.531600
21
2915.957670
0
LINE
8
Layer 1
10
112.531000
20
2915.960000
11
114.292860
21
2916.991870
0
LINE
8
Layer 1
10
114.293000
20
2916.990000
11
114.342477
21
2917.005875
0
LINE
8
Layer 1
10
114.343000
20
2917.010000
11
114.682725
21
2917.158166
0
LINE
8
Layer 1
10
114.682000
20
2917.150000
11
115.728430
21
2917.605083
0
LINE
8
Layer 1
10
115.729000
20
2917.610000
11
117.286340
21
2918.268812
0
LINE
8
Layer 1
10
117.286000
20
2918.270000
11
118.495140
21
2918.836208
0
LINE
8
Layer 1
10
118.495000
20
2918.830000
11
119.324997
21
2919.181895
0
LINE
8
Layer 1
10
119.325000
20
2919.190000
11
119.567887
21
2919.293187
0
LINE
8
Layer 1
10
119.568000
20
2919.290000
11
119.519846
21
2919.287354
0
LINE
8
Layer 1
10
119.520000
20
2919.290000
11
119.539315
21
2919.295292
0
LINE
8
Layer 1
10
119.539000
20
2919.290000
11
119.824220
21
2919.337625
0
LINE
8
Layer 1
10
119.824000
20
2919.340000
11
119.830085
21
2919.347937
0
LINE
8
Layer 1
10
119.830000
20
2919.350000
11
120.847060
21
2919.537854
0
LINE
8
Layer 1
10
120.848000
20
2919.540000
11
122.437880
21
2919.860145
0
LINE
8
Layer 1
10
122.437000
20
2919.860000
11
122.456844
21
2919.857354
0
LINE
8
Layer 1
10
122.457000
20
2919.850000
11
123.167405
21
2919.667438
0
LINE
8
Layer 1
10
123.168000
20
2919.670000
11
123.868351
21
2919.479500
0
LINE
8
Layer 1
10
123.868000
20
2919.480000
11
124.055060
21
2919.427083
0
LINE
8
Layer 1
10
124.055000
20
2919.430000
11
125.104870
21
2918.940521
0
LINE
8
Layer 1
10
125.105000
20
2918.940000
11
125.103413
21
2918.937354
0
LINE
8
Layer 1
10
61.985500
20
2770.570000
11
61.797117
21
2770.167834
0
LINE
8
Layer 1
10
61.797100
20
2770.170000
11
61.857689
21
2770.328750
0
LINE
8
Layer 1
10
61.857700
20
2770.330000
11
61.985229
21
2770.581354
0
LINE
8
Layer 1
10
61.985200
20
2770.580000
11
61.987100
21
2770.580000
0
LINE
8
Layer 1
10
61.987100
20
2770.580000
11
61.986042
21
2770.572063
0
LINE
8
Layer 1
10
61.986000
20
2770.570000
11
61.985500
21
2770.570000
0
LINE
8
Layer 1
10
108.671000
20
2805.040000
11
108.719683
21
2805.106146
0
LINE
8
Layer 1
10
108.720000
20
2805.100000
11
108.671317
21
2805.033854
0
LINE
8
Layer 1
10
108.671000
20
2805.040000
11
108.671000
21
2805.040000
0
LINE
8
Layer 1
10
188.669000
20
2865.320000
11
188.669000
21
2865.320000
0
LINE
8
Layer 1
10
188.669000
20
2865.320000
11
189.104768
21
2863.761610
0
LINE
8
Layer 1
10
189.104000
20
2863.760000
11
188.996050
21
2862.082540
0
LINE
8
Layer 1
10
188.996000
20
2862.080000
11
188.415769
21
2860.309940
0
LINE
8
Layer 1
10
188.416000
20
2860.310000
11
188.348002
21
2860.140667
0
LINE
8
Layer 1
10
188.348000
20
2860.150000
11
186.504120
21
2855.355760
0
LINE
8
Layer 1
10
186.504000
20
2855.350000
11
184.537350
21
2850.497550
0
LINE
8
Layer 1
10
184.538000
20
2850.500000
11
182.653110
21
2845.515260
0
LINE
8
Layer 1
10
182.653000
20
2845.510000
11
181.055180
21
2840.324170
0
LINE
8
Layer 1
10
181.055000
20
2840.330000
11
181.040713
21
2840.274438
0
LINE
8
Layer 1
10
181.041000
20
2840.270000
11
180.358640
21
2836.687550
0
LINE
8
Layer 1
10
180.358000
20
2836.690000
11
179.977794
21
2833.073150
0
LINE
8
Layer 1
10
179.978000
20
2833.070000
11
179.894656
21
2829.437280
0
LINE
8
Layer 1
10
179.895000
20
2829.440000
11
180.104285
21
2825.812570
0
LINE
8
Layer 1
10
180.104000
20
2825.810000
11
180.600622
21
2822.214320
0
LINE
8
Layer 1
10
180.601000
20
2822.220000
11
181.380197
21
2818.671940
0
LINE
8
Layer 1
10
181.380000
20
2818.670000
11
182.437010
21
2815.196030
0
LINE
8
Layer 1
10
182.437000
20
2815.200000
11
183.767060
21
2811.818630
0
LINE
8
Layer 1
10
183.767000
20
2811.810000
11
183.770969
21
2811.807354
0
LINE
8
Layer 1
10
183.771000
20
2811.810000
11
186.280310
21
2806.322550
0
LINE
8
Layer 1
10
186.280000
20
2806.320000
11
187.043057
21
2805.420418
0
LINE
8
Layer 1
10
187.043000
20
2805.420000
11
187.914007
21
2804.951688
0
LINE
8
Layer 1
10
187.914000
20
2804.960000
11
188.808291
21
2804.750979
0
LINE
8
Layer 1
10
188.809000
20
2804.750000
11
188.811000
21
2804.750000
0
LINE
8
Layer 1
10
188.811000
20
2804.750000
11
190.116450
21
2804.874354
0
LINE
8
Layer 1
10
190.116000
20
2804.870000
11
191.264820
21
2805.462666
0
LINE
8
Layer 1
10
191.265000
20
2805.460000
11
192.131245
21
2806.446895
0
LINE
8
Layer 1
10
192.131000
20
2806.450000
11
192.589522
21
2807.762330
0
LINE
8
Layer 1
10
192.590000
20
2807.760000
11
193.726910
21
2812.646850
0
LINE
8
Layer 1
10
193.727000
20
2812.650000
11
194.699078
21
2817.682370
0
LINE
8
Layer 1
10
194.699000
20
2817.680000
11
194.700852
21
2817.693229
0
LINE
8
Layer 1
10
194.701000
20
2817.700000
11
195.638418
21
2822.626540
0
LINE
8
Layer 1
10
195.638000
20
2822.620000
11
196.677020
21
2827.239620
0
LINE
8
Layer 1
10
196.677000
20
2827.240000
11
196.683085
21
2827.269104
0
LINE
8
Layer 1
10
196.683000
20
2827.270000
11
197.435739
21
2827.817687
0
LINE
8
Layer 1
10
197.436000
20
2827.820000
11
198.778490
21
2828.513207
0
LINE
8
Layer 1
10
198.778000
20
2828.510000
11
208.081270
21
2833.002620
0
LINE
8
Layer 1
10
208.082000
20
2833.000000
11
208.059775
21
2832.920625
0
LINE
8
Layer 1
10
208.059000
20
2832.920000
11
206.295290
21
2828.205130
0
LINE
8
Layer 1
10
206.296000
20
2828.210000
11
205.407530
21
2825.804940
0
LINE
8
Layer 1
10
205.407000
20
2825.800000
11
204.727022
21
2823.606610
0
LINE
8
Layer 1
10
204.727000
20
2823.610000
11
201.996500
21
2813.296600
0
LINE
8
Layer 1
10
201.997000
20
2813.300000
11
200.837860
21
2808.008340
0
LINE
8
Layer 1
10
200.838000
20
2808.010000
11
199.997684
21
2802.593990
0
LINE
8
Layer 1
10
199.997000
20
2802.590000
11
199.985358
21
2802.449771
0
LINE
8
Layer 1
10
199.986000
20
2802.450000
11
199.288559
21
2788.882200
0
LINE
8
Layer 1
10
199.288000
20
2788.880000
11
198.859905
21
2782.246900
0
LINE
8
Layer 1
10
198.860000
20
2782.250000
11
198.254899
21
2775.661880
0
LINE
8
Layer 1
10
198.255000
20
2775.660000
11
198.247856
21
2775.588563
0
LINE
8
Layer 1
10
198.248000
20
2775.590000
11
198.245090
21
2775.555604
0
LINE
8
Layer 1
10
198.245000
20
2775.560000
11
196.329150
21
2756.816900
0
LINE
8
Layer 1
10
196.329000
20
2756.810000
11
195.552449
21
2747.353800
0
LINE
8
Layer 1
10
195.553000
20
2747.360000
11
195.138134
21
2737.835010
0
LINE
8
Layer 1
10
195.138000
20
2737.830000
11
195.137206
21
2737.819417
0
LINE
8
Layer 1
10
195.137000
20
2737.820000
11
194.956290
21
2726.390000
0
LINE
8
Layer 1
10
194.956000
20
2726.390000
11
195.023733
21
2714.941500
0
LINE
8
Layer 1
10
195.024000
20
2714.940000
11
195.026117
21
2714.873854
0
LINE
8
Layer 1
10
195.026000
20
2714.880000
11
195.572099
21
2707.133010
0
LINE
8
Layer 1
10
195.572000
20
2707.130000
11
196.381889
21
2699.454450
0
LINE
8
Layer 1
10
196.382000
20
2699.450000
11
198.176930
21
2684.260300
0
LINE
8
Layer 1
10
198.177000
20
2684.260000
11
198.178852
21
2684.238833
0
LINE
8
Layer 1
10
198.179000
20
2684.240000
11
201.383890
21
2655.604200
0
LINE
8
Layer 1
10
201.384000
20
2655.610000
11
204.772250
21
2626.950400
0
LINE
8
Layer 1
10
204.772000
20
2626.950000
11
204.780996
21
2626.883854
0
LINE
8
Layer 1
10
204.781000
20
2626.880000
11
205.547232
21
2622.625510
0
LINE
8
Layer 1
10
205.547000
20
2622.630000
11
206.507172
21
2618.423130
0
LINE
8
Layer 1
10
206.507000
20
2618.420000
11
207.650530
21
2614.263400
0
LINE
8
Layer 1
10
207.651000
20
2614.260000
11
208.968360
21
2610.161610
0
LINE
8
Layer 1
10
208.968000
20
2610.160000
11
210.448610
21
2606.117170
0
LINE
8
Layer 1
10
210.449000
20
2606.120000
11
212.083590
21
2602.143320
0
LINE
8
Layer 1
10
212.083000
20
2602.140000
11
213.860730
21
2598.229460
0
LINE
8
Layer 1
10
213.861000
20
2598.230000
11
215.772350
21
2594.388250
0
LINE
8
Layer 1
10
215.773000
20
2594.390000
11
215.779085
21
2594.387354
0
LINE
8
Layer 1
10
215.779000
20
2594.390000
11
217.869730
21
2590.841940
0
LINE
8
Layer 1
10
217.869000
20
2590.840000
11
220.417200
21
2587.514190
0
LINE
8
Layer 1
10
220.418000
20
2587.520000
11
220.394717
21
2587.549104
0
LINE
8
Layer 1
10
220.394000
20
2587.550000
11
220.427073
21
2587.507667
0
LINE
8
Layer 1
10
220.427000
20
2587.500000
11
222.525140
21
2584.917670
0
LINE
8
Layer 1
10
222.525000
20
2584.920000
11
224.414120
21
2582.295340
0
LINE
8
Layer 1
10
224.415000
20
2582.300000
11
224.448867
21
2582.249729
0
LINE
8
Layer 1
10
224.448000
20
2582.250000
11
224.476046
21
2582.207667
0
LINE
8
Layer 1
10
224.477000
20
2582.200000
11
224.611673
21
2582.009500
0
LINE
8
Layer 1
10
224.611000
20
2582.010000
11
231.049360
21
2572.699320
0
LINE
8
Layer 1
10
231.050000
20
2572.700000
11
231.098683
21
2572.628563
0
LINE
8
Layer 1
10
231.098000
20
2572.630000
11
237.757290
21
2563.343140
0
LINE
8
Layer 1
10
237.758000
20
2563.340000
11
257.345100
21
2539.180900
0
LINE
8
Layer 1
10
257.345000
20
2539.180000
11
182.041800
21
2577.534000
0
LINE
8
Layer 1
10
182.041000
20
2577.540000
11
177.037740
21
2588.409100
0
LINE
8
Layer 1
10
177.038000
20
2588.410000
11
174.054830
21
2594.889640
0
LINE
8
Layer 1
10
174.055000
20
2594.890000
11
167.319510
21
2606.857100
0
LINE
8
Layer 1
10
167.319000
20
2606.850000
11
167.310004
21
2606.868521
0
LINE
8
Layer 1
10
167.310000
20
2606.870000
11
164.560980
21
2611.582220
0
LINE
8
Layer 1
10
164.561000
20
2611.590000
11
161.508770
21
2616.169930
0
LINE
8
Layer 1
10
161.509000
20
2616.170000
11
161.246269
21
2616.561583
0
LINE
8
Layer 1
10
161.246000
20
2616.560000
11
161.225363
21
2616.591750
0
LINE
8
Layer 1
10
161.226000
20
2616.590000
11
161.248754
21
2616.560896
0
LINE
8
Layer 1
10
161.249000
20
2616.560000
11
158.514010
21
2620.817140
0
LINE
8
Layer 1
10
158.514000
20
2620.820000
11
157.387140
21
2622.952540
0
LINE
8
Layer 1
10
157.387000
20
2622.950000
11
156.508055
21
2625.114290
0
LINE
8
Layer 1
10
156.508000
20
2625.110000
11
156.052653
21
2627.724080
0
LINE
8
Layer 1
10
156.052000
20
2627.730000
11
155.623640
21
2628.695728
0
LINE
8
Layer 1
10
155.624000
20
2628.690000
11
154.822049
21
2629.377916
0
LINE
8
Layer 1
10
154.822000
20
2629.380000
11
152.894510
21
2638.759470
0
LINE
8
Layer 1
10
152.895000
20
2638.760000
11
151.173360
21
2648.171220
0
LINE
8
Layer 1
10
151.173000
20
2648.170000
11
149.689750
21
2657.612970
0
LINE
8
Layer 1
10
149.690000
20
2657.610000
11
148.477150
21
2667.084720
0
LINE
8
Layer 1
10
148.477000
20
2667.090000
11
147.682986
21
2675.789490
0
LINE
8
Layer 1
10
147.683000
20
2675.790000
11
147.232944
21
2684.502720
0
LINE
8
Layer 1
10
147.233000
20
2684.500000
11
147.180083
21
2693.204780
0
LINE
8
Layer 1
10
147.180000
20
2693.210000
11
147.578197
21
2701.890970
0
LINE
8
Layer 1
10
147.578000
20
2701.890000
11
148.369632
21
2709.001990
0
LINE
8
Layer 1
10
148.370000
20
2709.000000
11
149.515380
21
2716.125220
0
LINE
8
Layer 1
10
149.515000
20
2716.120000
11
149.518969
21
2716.143812
0
LINE
8
Layer 1
10
149.519000
20
2716.150000
11
151.635930
21
2729.276000
0
LINE
8
Layer 1
10
151.636000
20
2729.270000
11
152.500922
21
2735.752280
0
LINE
8
Layer 1
10
152.501000
20
2735.760000
11
153.151080
21
2742.295200
0
LINE
8
Layer 1
10
153.151000
20
2742.290000
11
153.161054
21
2742.372021
0
LINE
8
Layer 1
10
153.161000
20
2742.370000
11
153.725091
21
2749.606350
0
LINE
8
Layer 1
10
153.725000
20
2749.610000
11
153.989318
21
2756.949530
0
LINE
8
Layer 1
10
153.989000
20
2756.950000
11
153.989000
21
2757.020000
0
LINE
8
Layer 1
10
153.989000
20
2757.020000
11
153.982915
21
2757.062333
0
LINE
8
Layer 1
10
153.983000
20
2757.070000
11
153.681905
21
2760.663040
0
LINE
8
Layer 1
10
153.682000
20
2760.660000
11
153.077163
21
2764.131330
0
LINE
8
Layer 1
10
153.077000
20
2764.130000
11
151.428120
21
2770.863640
0
LINE
8
Layer 1
10
151.429000
20
2770.860000
11
151.429529
21
2770.873229
0
LINE
8
Layer 1
10
151.429000
20
2770.880000
11
149.531940
21
2777.531620
0
LINE
8
Layer 1
10
149.532000
20
2777.530000
11
147.197580
21
2784.099600
0
LINE
8
Layer 1
10
147.198000
20
2784.100000
11
147.195090
21
2784.102646
0
LINE
8
Layer 1
10
147.195000
20
2784.100000
11
147.149756
21
2784.203187
0
LINE
8
Layer 1
10
147.149000
20
2784.200000
11
144.912220
21
2789.526060
0
LINE
8
Layer 1
10
144.913000
20
2789.530000
11
142.571180
21
2794.729060
0
LINE
8
Layer 1
10
142.571000
20
2794.730000
11
142.537663
21
2794.806729
0
LINE
8
Layer 1
10
142.538000
20
2794.810000
11
142.535000
21
2794.810000
0
LINE
8
Layer 1
10
142.535000
20
2794.810000
11
140.919990
21
2798.892520
0
LINE
8
Layer 1
10
140.920000
20
2798.890000
11
139.692070
21
2801.998850
0
LINE
8
Layer 1
10
139.692000
20
2802.000000
11
138.556150
21
2805.648600
0
LINE
8
Layer 1
10
138.557000
20
2805.650000
11
137.662709
21
2809.340930
0
LINE
8
Layer 1
10
137.662000
20
2809.340000
11
137.659883
21
2809.342646
0
LINE
8
Layer 1
10
137.660000
20
2809.340000
11
137.649417
21
2809.387625
0
LINE
8
Layer 1
10
137.650000
20
2809.390000
11
136.884826
21
2813.065060
0
LINE
8
Layer 1
10
136.884000
20
2813.060000
11
136.315411
21
2816.719180
0
LINE
8
Layer 1
10
136.316000
20
2816.720000
11
136.023107
21
2820.352720
0
LINE
8
Layer 1
10
136.023000
20
2820.350000
11
136.084648
21
2823.940390
0
LINE
8
Layer 1
10
136.085000
20
2823.940000
11
136.086852
21
2823.950583
0
LINE
8
Layer 1
10
136.086000
20
2823.960000
11
136.543199
21
2828.092790
0
LINE
8
Layer 1
10
136.544000
20
2828.090000
11
137.308380
21
2832.198970
0
LINE
8
Layer 1
10
137.308000
20
2832.200000
11
138.336170
21
2836.279870
0
LINE
8
Layer 1
10
138.336000
20
2836.280000
11
139.584300
21
2840.322830
0
LINE
8
Layer 1
10
139.585000
20
2840.320000
11
140.848120
21
2843.704020
0
LINE
8
Layer 1
10
140.848000
20
2843.700000
11
142.278340
21
2847.046970
0
LINE
8
Layer 1
10
142.278000
20
2847.050000
11
142.276000
21
2847.050000
0
LINE
8
Layer 1
10
142.276000
20
2847.050000
11
144.118030
21
2850.889100
0
LINE
8
Layer 1
10
144.118000
20
2850.890000
11
145.970080
21
2853.821580
0
LINE
8
Layer 1
10
145.970000
20
2853.820000
11
148.004910
21
2856.696020
0
LINE
8
Layer 1
10
148.005000
20
2856.700000
11
152.352890
21
2862.462620
0
LINE
8
Layer 1
10
152.353000
20
2862.460000
11
153.877790
21
2864.293560
0
LINE
8
Layer 1
10
153.878000
20
2864.290000
11
155.292990
21
2865.567940
0
LINE
8
Layer 1
10
155.293000
20
2865.570000
11
155.835395
21
2865.596458
0
LINE
8
Layer 1
10
155.835000
20
2865.600000
11
155.917550
21
2865.510042
0
LINE
8
Layer 1
10
155.917000
20
2865.510000
11
156.200368
21
2864.790334
0
LINE
8
Layer 1
10
156.201000
20
2864.790000
11
156.106279
21
2863.848085
0
LINE
8
Layer 1
10
156.106000
20
2863.850000
11
156.025038
21
2863.603938
0
LINE
8
Layer 1
10
156.025000
20
2863.600000
11
155.200824
21
2861.189650
0
LINE
8
Layer 1
10
155.201000
20
2861.190000
11
154.131030
21
2858.694980
0
LINE
8
Layer 1
10
154.131000
20
2858.700000
11
152.996470
21
2856.048880
0
LINE
8
Layer 1
10
152.996000
20
2856.040000
11
151.977880
21
2853.166630
0
LINE
8
Layer 1
10
151.978000
20
2853.170000
11
151.395388
21
2851.048040
0
LINE
8
Layer 1
10
151.396000
20
2851.050000
11
150.970815
21
2848.922750
0
LINE
8
Layer 1
10
150.971000
20
2848.920000
11
150.480728
21
2844.691960
0
LINE
8
Layer 1
10
150.480000
20
2844.690000
11
150.146625
21
2839.506820
0
LINE
8
Layer 1
10
150.147000
20
2839.510000
11
150.177692
21
2834.239510
0
LINE
8
Layer 1
10
150.178000
20
2834.240000
11
150.421681
21
2830.945940
0
LINE
8
Layer 1
10
150.421000
20
2830.950000
11
150.915241
21
2827.655940
0
LINE
8
Layer 1
10
150.916000
20
2827.650000
11
150.914148
21
2827.639417
0
LINE
8
Layer 1
10
150.914000
20
2827.640000
11
151.510370
21
2825.240230
0
LINE
8
Layer 1
10
151.510000
20
2825.240000
11
152.376509
21
2822.853460
0
LINE
8
Layer 1
10
152.377000
20
2822.850000
11
153.576090
21
2820.553420
0
LINE
8
Layer 1
10
153.576000
20
2820.560000
11
155.171170
21
2818.430110
0
LINE
8
Layer 1
10
155.171000
20
2818.430000
11
157.880070
21
2815.715380
0
LINE
8
Layer 1
10
157.880000
20
2815.710000
11
160.543030
21
2813.318170
0
LINE
8
Layer 1
10
160.543000
20
2813.320000
11
160.558346
21
2813.309417
0
LINE
8
Layer 1
10
160.558000
20
2813.310000
11
160.579696
21
2813.296771
0
LINE
8
Layer 1
10
160.580000
20
2813.300000
11
163.765580
21
2810.320800
0
LINE
8
Layer 1
10
163.766000
20
2810.320000
11
166.807910
21
2807.219090
0
LINE
8
Layer 1
10
166.807000
20
2807.220000
11
167.280339
21
2806.828417
0
LINE
8
Layer 1
10
167.281000
20
2806.830000
11
167.838476
21
2806.570709
0
LINE
8
Layer 1
10
167.838000
20
2806.570000
11
168.773301
21
2806.408604
0
LINE
8
Layer 1
10
168.774000
20
2806.410000
11
169.639980
21
2806.510542
0
LINE
8
Layer 1
10
169.640000
20
2806.510000
11
170.407555
21
2806.830145
0
LINE
8
Layer 1
10
170.407000
20
2806.830000
11
171.049408
21
2807.335354
0
LINE
8
Layer 1
10
171.050000
20
2807.330000
11
171.538420
21
2807.986166
0
LINE
8
Layer 1
10
171.538000
20
2807.990000
11
171.844652
21
2808.751999
0
LINE
8
Layer 1
10
171.845000
20
2808.750000
11
171.940779
21
2809.588728
0
LINE
8
Layer 1
10
171.940000
20
2809.590000
11
171.797654
21
2810.465770
0
LINE
8
Layer 1
10
171.798000
20
2810.460000
11
171.298996
21
2814.222370
0
LINE
8
Layer 1
10
171.299000
20
2814.230000
11
171.014573
21
2818.018830
0
LINE
8
Layer 1
10
171.015000
20
2818.020000
11
171.014206
21
2819.440810
0
LINE
8
Layer 1
10
171.014000
20
2819.440000
11
170.981986
21
2822.530330
0
LINE
8
Layer 1
10
170.982000
20
2822.530000
11
171.093389
21
2825.617680
0
LINE
8
Layer 1
10
171.093000
20
2825.610000
11
171.404414
21
2829.012540
0
LINE
8
Layer 1
10
171.405000
20
2829.020000
11
171.893949
21
2832.396080
0
LINE
8
Layer 1
10
171.894000
20
2832.390000
11
172.570274
21
2835.731680
0
LINE
8
Layer 1
10
172.570000
20
2835.730000
11
173.443918
21
2839.021410
0
LINE
8
Layer 1
10
173.444000
20
2839.030000
11
174.928840
21
2843.271270
0
LINE
8
Layer 1
10
174.929000
20
2843.270000
11
176.587670
21
2847.471580
0
LINE
8
Layer 1
10
176.587000
20
2847.470000
11
180.235600
21
2855.830820
0
LINE
8
Layer 1
10
180.236000
20
2855.830000
11
181.347780
21
2857.957250
0
LINE
8
Layer 1
10
181.348000
20
2857.960000
11
182.594190
21
2859.944370
0
LINE
8
Layer 1
10
182.594000
20
2859.940000
11
183.999200
21
2861.731230
0
LINE
8
Layer 1
10
183.999000
20
2861.730000
11
185.587030
21
2863.275160
0
LINE
8
Layer 1
10
185.587000
20
2863.280000
11
185.619279
21
2863.306458
0
LINE
8
Layer 1
10
185.619000
20
2863.300000
11
187.096430
21
2864.424480
0
LINE
8
Layer 1
10
187.097000
20
2864.430000
11
188.669950
21
2865.321645
0
LINE
8
Layer 1
10
188.670000
20
2865.320000
11
188.669000
21
2865.320000
0
LINE
8
Layer 1
10
152.198000
20
2512.740000
11
154.489290
21
2512.607708
0
LINE
8
Layer 1
10
154.490000
20
2512.600000
11
157.019410
21
2512.335417
0
LINE
8
Layer 1
10
157.019000
20
2512.340000
11
159.566930
21
2512.260625
0
LINE
8
Layer 1
10
159.567000
20
2512.260000
11
160.585640
21
2511.916042
0
LINE
8
Layer 1
10
160.586000
20
2511.920000
11
162.911680
21
2511.576042
0
LINE
8
Layer 1
10
162.911000
20
2511.570000
11
164.347690
21
2511.437708
0
LINE
8
Layer 1
10
164.348000
20
2511.440000
11
164.435312
21
2511.360625
0
LINE
8
Layer 1
10
164.435000
20
2511.360000
11
165.175832
21
2511.042500
0
LINE
8
Layer 1
10
165.176000
20
2511.040000
11
166.678830
21
2510.643126
0
LINE
8
Layer 1
10
166.679000
20
2510.650000
11
166.758000
21
2510.650000
0
LINE
8
Layer 1
10
166.758000
20
2510.650000
11
167.152229
21
2510.517708
0
LINE
8
Layer 1
10
167.153000
20
2510.510000
11
169.306710
21
2509.610418
0
LINE
8
Layer 1
10
169.306000
20
2509.610000
11
174.880760
21
2507.705000
0
LINE
8
Layer 1
10
174.881000
20
2507.710000
11
176.555810
21
2507.313126
0
LINE
8
Layer 1
10
176.556000
20
2507.310000
11
177.442353
21
2507.151250
0
LINE
8
Layer 1
10
177.442000
20
2507.150000
11
177.347000
21
2507.150000
0
LINE
8
Layer 1
10
177.347000
20
2507.150000
11
177.492521
21
2507.017708
0
LINE
8
Layer 1
10
177.492000
20
2507.020000
11
178.560920
21
2506.517292
0
LINE
8
Layer 1
10
178.561000
20
2506.520000
11
179.643140
21
2506.202500
0
LINE
8
Layer 1
10
179.644000
20
2506.200000
11
180.099083
21
2506.120625
0
LINE
8
Layer 1
10
180.099000
20
2506.120000
11
180.477354
21
2506.014167
0
LINE
8
Layer 1
10
180.477000
20
2506.010000
11
180.551083
21
2505.957083
0
LINE
8
Layer 1
10
180.551000
20
2505.960000
11
180.871145
21
2505.801250
0
LINE
8
Layer 1
10
180.871000
20
2505.800000
11
181.058854
21
2505.747083
0
LINE
8
Layer 1
10
181.059000
20
2505.750000
11
182.273440
21
2505.406042
0
LINE
8
Layer 1
10
182.274000
20
2505.410000
11
182.501541
21
2505.357083
0
LINE
8
Layer 1
10
182.501000
20
2505.350000
11
183.165103
21
2504.979584
0
LINE
8
Layer 1
10
183.165000
20
2504.980000
11
185.662660
21
2503.921670
0
LINE
8
Layer 1
10
185.663000
20
2503.920000
11
187.697640
21
2502.967501
0
LINE
8
Layer 1
10
187.697000
20
2502.970000
11
188.654790
21
2502.308543
0
LINE
8
Layer 1
10
188.655000
20
2502.310000
11
191.216160
21
2500.775420
0
LINE
8
Layer 1
10
191.216000
20
2500.780000
11
193.393520
21
2499.351250
0
LINE
8
Layer 1
10
193.394000
20
2499.350000
11
195.968390
21
2497.127500
0
LINE
8
Layer 1
10
195.968000
20
2497.120000
11
198.989540
21
2495.082710
0
LINE
8
Layer 1
10
198.990000
20
2495.090000
11
200.569560
21
2493.925830
0
LINE
8
Layer 1
10
200.569000
20
2493.920000
11
201.886620
21
2492.808750
0
LINE
8
Layer 1
10
201.887000
20
2492.810000
11
202.712499
21
2491.857501
0
LINE
8
Layer 1
10
202.713000
20
2491.860000
11
203.850710
21
2490.907501
0
LINE
8
Layer 1
10
203.850000
20
2490.910000
11
205.149100
21
2489.507710
0
LINE
8
Layer 1
10
205.149000
20
2489.500000
11
206.342270
21
2487.965420
0
LINE
8
Layer 1
10
206.343000
20
2487.970000
11
208.906810
21
2484.530420
0
LINE
8
Layer 1
10
208.906000
20
2484.530000
11
209.869082
21
2483.445210
0
LINE
8
Layer 1
10
209.870000
20
2483.450000
11
210.650520
21
2482.682709
0
LINE
8
Layer 1
10
210.650000
20
2482.680000
11
212.618500
21
2480.298750
0
LINE
8
Layer 1
10
212.619000
20
2480.300000
11
213.153458
21
2479.638543
0
LINE
8
Layer 1
10
213.153000
20
2479.640000
11
213.407000
21
2479.375417
0
LINE
8
Layer 1
10
213.407000
20
2479.370000
11
213.695395
21
2479.105417
0
LINE
8
Layer 1
10
213.695000
20
2479.110000
11
213.634146
21
2479.189375
0
LINE
8
Layer 1
10
213.635000
20
2479.190000
11
213.574146
21
2479.216458
0
LINE
8
Layer 1
10
213.574000
20
2479.210000
11
213.653375
21
2479.024792
0
LINE
8
Layer 1
10
213.653000
20
2479.030000
11
214.356791
21
2478.077501
0
LINE
8
Layer 1
10
214.357000
20
2478.070000
11
214.936437
21
2477.487917
0
LINE
8
Layer 1
10
214.936000
20
2477.490000
11
215.486333
21
2476.616876
0
LINE
8
Layer 1
10
215.487000
20
2476.620000
11
216.389228
21
2475.614580
0
LINE
8
Layer 1
10
216.389000
20
2475.610000
11
218.500370
21
2472.673130
0
LINE
8
Layer 1
10
218.500000
20
2472.680000
11
219.523940
21
2471.330630
0
LINE
8
Layer 1
10
219.524000
20
2471.330000
11
220.135187
21
2470.483334
0
LINE
8
Layer 1
10
220.135000
20
2470.480000
11
220.378416
21
2470.162500
0
LINE
8
Layer 1
10
220.379000
20
2470.160000
11
220.961083
21
2469.260418
0
LINE
8
Layer 1
10
220.961000
20
2469.260000
11
220.974229
21
2469.164750
0
LINE
8
Layer 1
10
220.974000
20
2469.170000
11
221.513749
21
2467.944980
0
LINE
8
Layer 1
10
221.514000
20
2467.940000
11
224.162480
21
2463.251590
0
LINE
8
Layer 1
10
224.162000
20
2463.260000
11
219.418030
21
2463.146229
0
LINE
8
Layer 1
10
219.418000
20
2463.140000
11
217.579150
21
2463.177042
0
LINE
8
Layer 1
10
217.579000
20
2463.180000
11
215.311520
21
2463.097979
0
LINE
8
Layer 1
10
215.312000
20
2463.100000
11
213.682170
21
2462.777209
0
LINE
8
Layer 1
10
213.682000
20
2462.770000
11
211.739960
21
2462.314917
0
LINE
8
Layer 1
10
211.740000
20
2462.320000
11
209.774150
21
2461.602980
0
LINE
8
Layer 1
10
209.774000
20
2461.600000
11
207.345130
21
2460.359110
0
LINE
8
Layer 1
10
207.345000
20
2460.360000
11
205.355340
21
2459.344000
0
LINE
8
Layer 1
10
205.356000
20
2459.350000
11
203.845230
21
2458.913438
0
LINE
8
Layer 1
10
203.845000
20
2458.910000
11
202.199290
21
2458.735375
0
LINE
8
Layer 1
10
202.199000
20
2458.730000
11
201.923834
21
2458.732646
0
LINE
8
Layer 1
10
201.924000
20
2458.740000
11
200.029590
21
2459.213604
0
LINE
8
Layer 1
10
200.030000
20
2459.210000
11
199.077501
21
2459.252333
0
LINE
8
Layer 1
10
199.077000
20
2459.250000
11
198.211814
21
2458.935146
0
LINE
8
Layer 1
10
198.212000
20
2458.940000
11
197.529376
21
2458.326167
0
LINE
8
Layer 1
10
197.529000
20
2458.320000
11
197.121542
21
2457.457459
0
LINE
8
Layer 1
10
197.122000
20
2457.460000
11
197.077021
21
2456.507501
0
LINE
8
Layer 1
10
197.077000
20
2456.510000
11
197.391854
21
2455.647459
0
LINE
8
Layer 1
10
197.392000
20
2455.650000
11
198.008478
21
2454.964730
0
LINE
8
Layer 1
10
198.008000
20
2454.960000
11
198.867895
21
2454.552542
0
LINE
8
Layer 1
10
198.868000
20
2454.550000
11
201.183100
21
2453.975855
0
LINE
8
Layer 1
10
201.183000
20
2453.980000
11
202.042895
21
2453.900625
0
LINE
8
Layer 1
10
202.043000
20
2453.900000
11
202.304937
21
2453.934396
0
LINE
8
Layer 1
10
202.305000
20
2453.930000
11
204.744460
21
2454.184000
0
LINE
8
Layer 1
10
204.745000
20
2454.190000
11
207.176520
21
2454.904374
0
LINE
8
Layer 1
10
207.176000
20
2454.900000
11
209.681600
21
2456.135600
0
LINE
8
Layer 1
10
209.682000
20
2456.140000
11
211.719290
21
2457.214210
0
LINE
8
Layer 1
10
211.719000
20
2457.210000
11
213.084250
21
2457.720645
0
LINE
8
Layer 1
10
213.084000
20
2457.720000
11
214.626520
21
2458.063958
0
LINE
8
Layer 1
10
214.627000
20
2458.070000
11
215.854670
21
2458.329291
0
LINE
8
Layer 1
10
215.854000
20
2458.330000
11
219.529060
21
2458.345875
0
LINE
8
Layer 1
10
219.529000
20
2458.340000
11
224.870930
21
2458.469646
0
LINE
8
Layer 1
10
224.871000
20
2458.470000
11
226.141000
21
2458.470000
0
LINE
8
Layer 1
10
226.141000
20
2458.470000
11
227.350140
21
2458.448833
0
LINE
8
Layer 1
10
227.351000
20
2458.450000
11
229.277160
21
2458.240979
0
LINE
8
Layer 1
10
229.277000
20
2458.240000
11
230.483500
21
2457.986000
0
LINE
8
Layer 1
10
230.483000
20
2457.990000
11
231.673620
21
2457.820667
0
LINE
8
Layer 1
10
231.674000
20
2457.820000
11
232.875210
21
2457.550125
0
LINE
8
Layer 1
10
232.875000
20
2457.550000
11
236.317220
21
2456.986438
0
LINE
8
Layer 1
10
236.317000
20
2456.980000
11
238.732640
21
2456.302668
0
LINE
8
Layer 1
10
238.733000
20
2456.310000
11
239.621999
21
2456.127438
0
LINE
8
Layer 1
10
239.622000
20
2456.130000
11
241.553460
21
2455.476480
0
LINE
8
Layer 1
10
241.553000
20
2455.470000
11
243.714640
21
2454.644501
0
LINE
8
Layer 1
10
243.715000
20
2454.650000
11
245.313080
21
2454.022938
0
LINE
8
Layer 1
10
245.313000
20
2454.020000
11
246.889910
21
2453.088668
0
LINE
8
Layer 1
10
246.890000
20
2453.090000
11
249.498790
21
2451.245860
0
LINE
8
Layer 1
10
249.499000
20
2451.240000
11
250.001708
21
2450.888105
0
LINE
8
Layer 1
10
250.001000
20
2450.890000
11
250.612187
21
2450.305272
0
LINE
8
Layer 1
10
250.613000
20
2450.310000
11
252.703210
21
2448.444690
0
LINE
8
Layer 1
10
252.703000
20
2448.440000
11
253.528499
21
2447.662126
0
LINE
8
Layer 1
10
253.528000
20
2447.660000
11
254.422291
21
2446.950918
0
LINE
8
Layer 1
10
254.423000
20
2446.950000
11
254.917770
21
2446.439355
0
LINE
8
Layer 1
10
254.917000
20
2446.440000
11
257.454350
21
2443.984670
0
LINE
8
Layer 1
10
257.455000
20
2443.990000
11
258.695890
21
2442.600940
0
LINE
8
Layer 1
10
258.696000
20
2442.600000
11
261.071960
21
2439.850980
0
LINE
8
Layer 1
10
261.072000
20
2439.850000
11
262.074770
21
2438.445060
0
LINE
8
Layer 1
10
262.074000
20
2438.450000
11
262.912728
21
2436.997440
0
LINE
8
Layer 1
10
262.913000
20
2436.990000
11
263.270187
21
2436.148626
0
LINE
8
Layer 1
10
263.270000
20
2436.150000
11
263.568979
21
2435.575855
0
LINE
8
Layer 1
10
263.569000
20
2435.580000
11
263.846812
21
2434.667189
0
LINE
8
Layer 1
10
263.847000
20
2434.660000
11
264.722770
21
2431.934800
0
LINE
8
Layer 1
10
264.723000
20
2431.940000
11
265.606707
21
2427.823090
0
LINE
8
Layer 1
10
265.607000
20
2427.820000
11
266.241999
21
2423.673980
0
LINE
8
Layer 1
10
266.242000
20
2423.680000
11
266.593895
21
2421.142650
0
LINE
8
Layer 1
10
266.593000
20
2421.140000
11
266.696187
21
2418.936020
0
LINE
8
Layer 1
10
266.697000
20
2418.940000
11
267.120333
21
2415.251710
0
LINE
8
Layer 1
10
267.120000
20
2415.250000
11
267.403104
21
2413.350290
0
LINE
8
Layer 1
10
267.403000
20
2413.350000
11
267.691395
21
2412.281080
0
LINE
8
Layer 1
10
267.691000
20
2412.280000
11
268.164604
21
2411.147580
0
LINE
8
Layer 1
10
268.165000
20
2411.150000
11
268.778833
21
2410.136650
0
LINE
8
Layer 1
10
268.779000
20
2410.130000
11
269.392833
21
2409.333605
0
LINE
8
Layer 1
10
269.393000
20
2409.340000
11
270.588920
21
2407.905960
0
LINE
8
Layer 1
10
270.589000
20
2407.900000
11
271.951600
21
2406.471250
0
LINE
8
Layer 1
10
271.951000
20
2406.470000
11
272.416666
21
2406.086355
0
LINE
8
Layer 1
10
272.417000
20
2406.090000
11
272.906479
21
2405.716938
0
LINE
8
Layer 1
10
272.906000
20
2405.720000
11
273.358437
21
2405.383980
0
LINE
8
Layer 1
10
273.359000
20
2405.380000
11
273.507166
21
2405.268875
0
LINE
8
Layer 1
10
273.507000
20
2405.270000
11
273.583729
21
2405.211792
0
LINE
8
Layer 1
10
273.584000
20
2405.210000
11
273.533729
21
2405.249688
0
LINE
8
Layer 1
10
273.533000
20
2405.250000
11
273.533000
21
2405.250000
0
LINE
8
Layer 1
10
273.533000
20
2405.250000
11
274.419353
21
2404.556793
0
LINE
8
Layer 1
10
274.420000
20
2404.560000
11
276.020730
21
2403.705397
0
LINE
8
Layer 1
10
276.021000
20
2403.700000
11
277.066100
21
2403.242271
0
LINE
8
Layer 1
10
277.066000
20
2403.240000
11
279.960540
21
2401.348230
0
LINE
8
Layer 1
10
279.960000
20
2401.350000
11
281.476060
21
2400.254630
0
LINE
8
Layer 1
10
281.476000
20
2400.260000
11
281.769687
21
2399.886938
0
LINE
8
Layer 1
10
281.770000
20
2399.880000
11
282.156291
21
2399.430209
0
LINE
8
Layer 1
10
282.156000
20
2399.430000
11
282.219500
21
2399.326813
0
LINE
8
Layer 1
10
282.220000
20
2399.330000
11
282.222000
21
2399.330000
0
LINE
8
Layer 1
10
282.222000
20
2399.330000
11
282.415146
21
2399.049542
0
LINE
8
Layer 1
10
282.416000
20
2399.050000
11
282.553583
21
2398.700750
0
LINE
8
Layer 1
10
282.553000
20
2398.700000
11
282.754083
21
2398.226396
0
LINE
8
Layer 1
10
282.754000
20
2398.230000
11
282.817500
21
2397.412439
0
LINE
8
Layer 1
10
282.818000
20
2397.410000
11
282.812708
21
2397.068688
0
LINE
8
Layer 1
10
282.812000
20
2397.070000
11
281.769540
21
2397.387500
0
LINE
8
Layer 1
10
281.770000
20
2397.390000
11
281.367834
21
2397.498479
0
LINE
8
Layer 1
10
281.368000
20
2397.490000
11
280.008040
21
2397.767812
0
LINE
8
Layer 1
10
280.008000
20
2397.770000
11
279.925979
21
2397.785875
0
LINE
8
Layer 1
10
279.926000
20
2397.790000
11
279.412709
21
2397.845562
0
LINE
8
Layer 1
10
279.413000
20
2397.840000
11
278.121830
21
2397.980229
0
LINE
8
Layer 1
10
278.121000
20
2397.980000
11
277.713542
21
2398.022333
0
LINE
8
Layer 1
10
277.714000
20
2398.030000
11
277.560542
21
2398.051167
0
LINE
8
Layer 1
10
277.560000
20
2398.050000
11
276.036000
21
2398.259021
0
LINE
8
Layer 1
10
276.036000
20
2398.260000
11
275.938104
21
2398.273229
0
LINE
8
Layer 1
10
275.939000
20
2398.270000
11
275.817292
21
2398.272646
0
LINE
8
Layer 1
10
275.817000
20
2398.270000
11
275.137022
21
2398.288521
0
LINE
8
Layer 1
10
275.137000
20
2398.290000
11
274.808917
21
2398.263542
0
LINE
8
Layer 1
10
274.809000
20
2398.260000
11
274.163417
21
2398.400229
0
LINE
8
Layer 1
10
274.163000
20
2398.400000
11
274.096854
21
2398.407937
0
LINE
8
Layer 1
10
274.097000
20
2398.410000
11
273.448772
21
2398.502604
0
LINE
8
Layer 1
10
273.449000
20
2398.500000
11
273.345813
21
2398.507937
0
LINE
8
Layer 1
10
273.346000
20
2398.510000
11
272.412022
21
2398.483542
0
LINE
8
Layer 1
10
272.412000
20
2398.490000
11
272.369000
21
2398.490000
0
LINE
8
Layer 1
10
272.369000
20
2398.490000
11
272.369000
21
2398.490000
0
LINE
8
Layer 1
10
272.369000
20
2398.490000
11
272.302854
21
2398.479417
0
LINE
8
Layer 1
10
272.303000
20
2398.480000
11
271.485439
21
2398.321250
0
LINE
8
Layer 1
10
271.486000
20
2398.320000
11
271.417208
21
2398.309417
0
LINE
8
Layer 1
10
271.417000
20
2398.310000
11
271.379958
21
2398.291479
0
LINE
8
Layer 1
10
271.380000
20
2398.290000
11
270.525397
21
2397.922230
0
LINE
8
Layer 1
10
270.525000
20
2397.920000
11
270.487958
21
2397.904125
0
LINE
8
Layer 1
10
270.488000
20
2397.910000
11
270.011751
21
2397.669229
0
LINE
8
Layer 1
10
270.012000
20
2397.670000
11
270.070208
21
2397.712333
0
LINE
8
Layer 1
10
270.070000
20
2397.710000
11
269.890084
21
2397.691479
0
LINE
8
Layer 1
10
269.890000
20
2397.690000
11
269.083022
21
2397.430709
0
LINE
8
Layer 1
10
269.083000
20
2397.430000
11
269.024792
21
2397.411479
0
LINE
8
Layer 1
10
269.025000
20
2397.410000
11
268.953563
21
2397.375604
0
LINE
8
Layer 1
10
268.954000
20
2397.380000
11
268.149668
21
2397.006938
0
LINE
8
Layer 1
10
268.149000
20
2397.000000
11
267.445209
21
2396.626938
0
LINE
8
Layer 1
10
267.445000
20
2396.630000
11
266.974042
21
2396.410396
0
LINE
8
Layer 1
10
266.974000
20
2396.410000
11
266.362813
21
2396.079271
0
LINE
8
Layer 1
10
266.363000
20
2396.080000
11
266.312729
21
2396.050896
0
LINE
8
Layer 1
10
266.313000
20
2396.050000
11
266.281250
21
2396.026188
0
LINE
8
Layer 1
10
266.281000
20
2396.030000
11
265.505772
21
2395.471730
0
LINE
8
Layer 1
10
265.506000
20
2395.470000
11
265.490125
21
2395.459417
0
LINE
8
Layer 1
10
265.490000
20
2395.460000
11
265.476771
21
2395.457354
0
LINE
8
Layer 1
10
265.477000
20
2395.460000
11
265.162146
21
2395.407083
0
LINE
8
Layer 1
10
265.162000
20
2395.400000
11
265.095854
21
2395.378833
0
LINE
8
Layer 1
10
265.096000
20
2395.380000
11
264.228168
21
2395.014875
0
LINE
8
Layer 1
10
264.228000
20
2395.020000
11
264.175083
21
2394.998833
0
LINE
8
Layer 1
10
264.175000
20
2395.000000
11
263.180168
21
2394.354417
0
LINE
8
Layer 1
10
263.180000
20
2394.350000
11
262.952459
21
2394.127750
0
LINE
8
Layer 1
10
262.953000
20
2394.130000
11
262.939771
21
2394.116771
0
LINE
8
Layer 1
10
262.940000
20
2394.110000
11
261.587980
21
2393.210418
0
LINE
8
Layer 1
10
261.588000
20
2393.220000
11
261.569479
21
2393.206771
0
LINE
8
Layer 1
10
261.569000
20
2393.200000
11
261.473750
21
2393.144438
0
LINE
8
Layer 1
10
261.474000
20
2393.150000
11
261.558667
21
2394.763960
0
LINE
8
Layer 1
10
261.558000
20
2394.760000
11
262.296187
21
2396.575040
0
LINE
8
Layer 1
10
262.297000
20
2396.580000
11
263.262728
21
2398.881870
0
LINE
8
Layer 1
10
263.262000
20
2398.880000
11
263.555687
21
2399.930390
0
LINE
8
Layer 1
10
263.556000
20
2399.930000
11
263.690937
21
2400.903665
0
LINE
8
Layer 1
10
263.691000
20
2400.900000
11
263.706875
21
2402.572160
0
LINE
8
Layer 1
10
263.707000
20
2402.570000
11
263.585292
21
2403.773850
0
LINE
8
Layer 1
10
263.585000
20
2403.780000
11
263.450063
21
2405.581810
0
LINE
8
Layer 1
10
263.450000
20
2405.580000
11
263.127209
21
2407.601410
0
LINE
8
Layer 1
10
263.127000
20
2407.600000
11
262.862417
21
2410.351660
0
LINE
8
Layer 1
10
262.863000
20
2410.350000
11
262.677792
21
2411.072312
0
LINE
8
Layer 1
10
262.678000
20
2411.070000
11
262.611854
21
2411.281666
0
LINE
8
Layer 1
10
262.611000
20
2411.290000
11
262.613646
21
2411.271479
0
LINE
8
Layer 1
10
262.614000
20
2411.270000
11
262.637812
21
2411.026584
0
LINE
8
Layer 1
10
262.638000
20
2411.020000
11
262.651229
21
2410.919458
0
LINE
8
Layer 1
10
262.651000
20
2410.920000
11
262.653646
21
2410.996729
0
LINE
8
Layer 1
10
262.654000
20
2411.000000
11
262.426459
21
2412.092730
0
LINE
8
Layer 1
10
262.426000
20
2412.090000
11
262.227563
21
2412.582124
0
LINE
8
Layer 1
10
262.228000
20
2412.590000
11
262.196250
21
2412.727583
0
LINE
8
Layer 1
10
262.196000
20
2412.720000
11
261.709167
21
2414.691140
0
LINE
8
Layer 1
10
261.709000
20
2414.690000
11
261.452354
21
2416.338350
0
LINE
8
Layer 1
10
261.453000
20
2416.340000
11
261.214875
21
2417.480350
0
LINE
8
Layer 1
10
261.214000
20
2417.480000
11
261.171667
21
2418.202312
0
LINE
8
Layer 1
10
261.172000
20
2418.210000
11
260.629605
21
2420.861120
0
LINE
8
Layer 1
10
260.630000
20
2420.860000
11
260.529458
21
2421.801915
0
LINE
8
Layer 1
10
260.529000
20
2421.800000
11
260.333209
21
2423.239330
0
LINE
8
Layer 1
10
260.333000
20
2423.240000
11
260.150438
21
2423.978187
0
LINE
8
Layer 1
10
260.151000
20
2423.980000
11
260.037229
21
2424.802853
0
LINE
8
Layer 1
10
260.037000
20
2424.800000
11
259.357022
21
2427.096580
0
LINE
8
Layer 1
10
259.357000
20
2427.100000
11
259.240583
21
2427.610645
0
LINE
8
Layer 1
10
259.241000
20
2427.610000
11
259.024042
21
2428.459311
0
LINE
8
Layer 1
10
259.024000
20
2428.460000
11
257.828080
21
2431.439200
0
LINE
8
Layer 1
10
257.828000
20
2431.430000
11
257.126855
21
2433.163020
0
LINE
8
Layer 1
10
257.127000
20
2433.170000
11
256.452313
21
2434.498210
0
LINE
8
Layer 1
10
256.452000
20
2434.500000
11
255.369860
21
2436.598140
0
LINE
8
Layer 1
10
255.370000
20
2436.590000
11
254.052380
21
2438.529390
0
LINE
8
Layer 1
10
254.052000
20
2438.530000
11
252.628540
21
2440.212750
0
LINE
8
Layer 1
10
252.629000
20
2440.220000
11
251.253170
21
2441.823370
0
LINE
8
Layer 1
10
251.253000
20
2441.820000
11
249.866590
21
2443.121750
0
LINE
8
Layer 1
10
249.867000
20
2443.120000
11
248.541440
21
2444.202140
0
LINE
8
Layer 1
10
248.541000
20
2444.200000
11
247.953626
21
2444.700062
0
LINE
8
Layer 1
10
247.954000
20
2444.700000
11
247.292543
21
2445.096875
0
LINE
8
Layer 1
10
247.292000
20
2445.100000
11
246.254830
21
2445.721770
0
LINE
8
Layer 1
10
246.255000
20
2445.720000
11
244.802440
21
2446.336478
0
LINE
8
Layer 1
10
244.802000
20
2446.340000
11
244.204042
21
2446.493458
0
LINE
8
Layer 1
10
244.204000
20
2446.490000
11
244.114000
21
2446.490000
0
LINE
8
Layer 1
10
244.114000
20
2446.490000
11
244.087542
21
2446.516458
0
LINE
8
Layer 1
10
244.088000
20
2446.520000
11
243.632917
21
2446.681396
0
LINE
8
Layer 1
10
243.633000
20
2446.680000
11
242.003170
21
2447.108624
0
LINE
8
Layer 1
10
242.003000
20
2447.110000
11
240.870580
21
2447.448666
0
LINE
8
Layer 1
10
240.871000
20
2447.450000
11
239.325840
21
2447.801895
0
LINE
8
Layer 1
10
239.326000
20
2447.800000
11
235.904940
21
2448.085750
0
LINE
8
Layer 1
10
235.904000
20
2448.080000
11
232.699900
21
2448.095875
0
LINE
8
Layer 1
10
232.700000
20
2448.100000
11
229.569980
21
2448.049729
0
LINE
8
Layer 1
10
229.570000
20
2448.050000
11
227.551230
21
2448.097625
0
LINE
8
Layer 1
10
227.552000
20
2448.100000
11
227.552000
21
2448.100000
0
LINE
8
Layer 1
10
227.552000
20
2448.100000
11
227.030771
21
2448.057667
0
LINE
8
Layer 1
10
227.030000
20
2448.060000
11
227.008833
21
2448.038833
0
LINE
8
Layer 1
10
227.009000
20
2448.040000
11
226.297272
21
2448.058521
0
LINE
8
Layer 1
10
226.297000
20
2448.060000
11
223.923690
21
2447.919771
0
LINE
8
Layer 1
10
223.924000
20
2447.920000
11
220.987130
21
2447.475501
0
LINE
8
Layer 1
10
220.987000
20
2447.470000
11
218.288250
21
2446.845584
0
LINE
8
Layer 1
10
218.289000
20
2446.850000
11
217.516418
21
2446.693896
0
LINE
8
Layer 1
10
217.516000
20
2446.690000
11
216.986834
21
2446.528604
0
LINE
8
Layer 1
10
216.987000
20
2446.530000
11
217.016104
21
2446.516771
0
LINE
8
Layer 1
10
217.016000
20
2446.520000
11
216.933979
21
2446.517354
0
LINE
8
Layer 1
10
216.934000
20
2446.510000
11
216.391605
21
2446.367125
0
LINE
8
Layer 1
10
216.391000
20
2446.370000
11
215.200380
21
2445.906980
0
LINE
8
Layer 1
10
215.201000
20
2445.910000
11
214.621563
21
2445.727438
0
LINE
8
Layer 1
10
214.621000
20
2445.720000
11
212.882690
21
2444.849522
0
LINE
8
Layer 1
10
212.883000
20
2444.850000
11
211.546860
21
2443.958355
0
LINE
8
Layer 1
10
211.547000
20
2443.960000
11
210.433110
21
2442.983689
0
LINE
8
Layer 1
10
210.433000
20
2442.990000
11
209.102150
21
2441.643270
0
LINE
8
Layer 1
10
209.102000
20
2441.640000
11
208.228876
21
2440.743064
0
LINE
8
Layer 1
10
208.229000
20
2440.740000
11
206.072650
21
2437.932770
0
LINE
8
Layer 1
10
206.073000
20
2437.940000
11
205.636438
21
2437.093334
0
LINE
8
Layer 1
10
205.636000
20
2437.090000
11
205.559271
21
2436.171897
0
LINE
8
Layer 1
10
205.559000
20
2436.170000
11
205.834166
21
2435.291584
0
LINE
8
Layer 1
10
205.835000
20
2435.290000
11
206.446187
21
2434.559751
0
LINE
8
Layer 1
10
206.446000
20
2434.560000
11
207.295311
21
2434.123438
0
LINE
8
Layer 1
10
207.295000
20
2434.130000
11
208.210457
21
2434.055917
0
LINE
8
Layer 1
10
208.211000
20
2434.050000
11
209.089416
21
2434.322520
0
LINE
8
Layer 1
10
209.089000
20
2434.320000
11
209.819249
21
2434.931187
0
LINE
8
Layer 1
10
209.819000
20
2434.930000
11
211.911850
21
2437.657850
0
LINE
8
Layer 1
10
211.912000
20
2437.660000
11
212.499374
21
2438.244728
0
LINE
8
Layer 1
10
212.499000
20
2438.250000
11
213.739890
21
2439.509420
0
LINE
8
Layer 1
10
213.740000
20
2439.510000
11
214.269166
21
2440.012708
0
LINE
8
Layer 1
10
214.270000
20
2440.010000
11
216.333750
21
2441.240310
0
LINE
8
Layer 1
10
216.333000
20
2441.240000
11
216.790729
21
2441.377583
0
LINE
8
Layer 1
10
216.791000
20
2441.380000
11
217.812290
21
2441.787458
0
LINE
8
Layer 1
10
217.812000
20
2441.780000
11
217.838458
21
2441.769417
0
LINE
8
Layer 1
10
217.839000
20
2441.770000
11
218.328479
21
2441.894354
0
LINE
8
Layer 1
10
218.328000
20
2441.900000
11
218.801604
21
2442.048166
0
LINE
8
Layer 1
10
218.802000
20
2442.050000
11
218.722625
21
2442.047354
0
LINE
8
Layer 1
10
218.722000
20
2442.040000
11
219.412562
21
2442.174937
0
LINE
8
Layer 1
10
219.413000
20
2442.180000
11
221.958290
21
2442.764728
0
LINE
8
Layer 1
10
221.958000
20
2442.760000
11
224.341890
21
2443.130416
0
LINE
8
Layer 1
10
224.342000
20
2443.130000
11
226.358120
21
2443.249062
0
LINE
8
Layer 1
10
226.358000
20
2443.250000
11
227.180853
21
2443.236771
0
LINE
8
Layer 1
10
227.181000
20
2443.240000
11
227.181000
21
2443.240000
0
LINE
8
Layer 1
10
227.181000
20
2443.240000
11
227.733978
21
2443.282333
0
LINE
8
Layer 1
10
227.734000
20
2443.280000
11
227.781625
21
2443.301167
0
LINE
8
Layer 1
10
227.782000
20
2443.300000
11
227.782000
21
2443.300000
0
LINE
8
Layer 1
10
227.782000
20
2443.300000
11
229.689640
21
2443.249729
0
LINE
8
Layer 1
10
229.689000
20
2443.250000
11
231.795080
21
2443.284396
0
LINE
8
Layer 1
10
231.796000
20
2443.280000
11
231.909771
21
2442.806396
0
LINE
8
Layer 1
10
231.909000
20
2442.810000
11
232.004250
21
2441.439460
0
LINE
8
Layer 1
10
232.005000
20
2441.440000
11
232.192854
21
2439.598500
0
LINE
8
Layer 1
10
232.192000
20
2439.600000
11
232.596812
21
2438.216230
0
LINE
8
Layer 1
10
232.597000
20
2438.210000
11
232.581125
21
2437.244272
0
LINE
8
Layer 1
10
232.581000
20
2437.250000
11
232.729166
21
2436.575313
0
LINE
8
Layer 1
10
232.729000
20
2436.570000
11
232.861291
21
2436.154605
0
LINE
8
Layer 1
10
232.862000
20
2436.160000
11
232.996937
21
2435.707563
0
LINE
8
Layer 1
10
232.997000
20
2435.700000
11
233.026104
21
2435.610042
0
LINE
8
Layer 1
10
233.026000
20
2435.610000
11
232.994250
21
2435.768750
0
LINE
8
Layer 1
10
232.994000
20
2435.770000
11
233.533749
21
2432.962770
0
LINE
8
Layer 1
10
233.534000
20
2432.970000
11
234.190166
21
2430.657540
0
LINE
8
Layer 1
10
234.190000
20
2430.650000
11
234.774728
21
2428.739710
0
LINE
8
Layer 1
10
234.775000
20
2428.740000
11
235.433812
21
2425.707880
0
LINE
8
Layer 1
10
235.434000
20
2425.710000
11
236.233041
21
2422.603800
0
LINE
8
Layer 1
10
236.233000
20
2422.610000
11
236.180083
21
2422.639104
0
LINE
8
Layer 1
10
236.180000
20
2422.630000
11
236.127083
21
2422.333667
0
LINE
8
Layer 1
10
236.127000
20
2422.340000
11
236.333375
21
2420.837170
0
LINE
8
Layer 1
10
236.333000
20
2420.840000
11
236.682250
21
2420.067418
0
LINE
8
Layer 1
10
236.682000
20
2420.060000
11
236.684646
21
2419.374730
0
LINE
8
Layer 1
10
236.685000
20
2419.380000
11
236.989270
21
2417.988290
0
LINE
8
Layer 1
10
236.989000
20
2417.990000
11
237.425562
21
2416.915790
0
LINE
8
Layer 1
10
237.426000
20
2416.910000
11
237.497437
21
2416.005126
0
LINE
8
Layer 1
10
237.497000
20
2416.010000
11
237.888583
21
2413.419730
0
LINE
8
Layer 1
10
237.889000
20
2413.420000
11
238.140354
21
2412.531001
0
LINE
8
Layer 1
10
238.140000
20
2412.530000
11
238.253771
21
2411.365830
0
LINE
8
Layer 1
10
238.254000
20
2411.360000
11
238.521229
21
2410.412793
0
LINE
8
Layer 1
10
238.521000
20
2410.420000
11
238.486604
21
2410.234792
0
LINE
8
Layer 1
10
238.487000
20
2410.230000
11
238.487000
21
2409.860000
0
LINE
8
Layer 1
10
238.487000
20
2409.860000
11
238.614000
21
2409.142980
0
LINE
8
Layer 1
10
238.614000
20
2409.140000
11
238.862708
21
2408.092250
0
LINE
8
Layer 1
10
238.863000
20
2408.090000
11
239.114354
21
2407.208939
0
LINE
8
Layer 1
10
239.114000
20
2407.210000
11
239.164271
21
2406.323647
0
LINE
8
Layer 1
10
239.164000
20
2406.330000
11
239.195750
21
2406.078646
0
LINE
8
Layer 1
10
239.196000
20
2406.070000
11
239.595520
21
2404.598920
0
LINE
8
Layer 1
10
239.595000
20
2404.600000
11
239.621458
21
2403.385560
0
LINE
8
Layer 1
10
239.622000
20
2403.390000
11
239.939500
21
2400.230880
0
LINE
8
Layer 1
10
239.939000
20
2400.230000
11
240.314708
21
2397.793190
0
LINE
8
Layer 1
10
240.315000
20
2397.790000
11
240.510791
21
2395.334670
0
LINE
8
Layer 1
10
240.511000
20
2395.340000
11
240.616833
21
2392.678300
0
LINE
8
Layer 1
10
240.617000
20
2392.680000
11
240.537625
21
2390.007710
0
LINE
8
Layer 1
10
240.537000
20
2390.000000
11
240.341209
21
2386.978460
0
LINE
8
Layer 1
10
240.342000
20
2386.980000
11
240.265271
21
2383.016550
0
LINE
8
Layer 1
10
240.265000
20
2383.020000
11
239.931625
21
2380.151920
0
LINE
8
Layer 1
10
239.931000
20
2380.150000
11
239.772250
21
2379.567917
0
LINE
8
Layer 1
10
239.773000
20
2379.570000
11
239.495188
21
2378.278830
0
LINE
8
Layer 1
10
239.495000
20
2378.280000
11
239.497646
21
2377.015290
0
LINE
8
Layer 1
10
239.498000
20
2377.010000
11
239.373646
21
2376.655459
0
LINE
8
Layer 1
10
239.373000
20
2376.660000
11
238.539564
21
2371.193720
0
LINE
8
Layer 1
10
238.540000
20
2371.190000
11
238.473854
21
2369.607790
0
LINE
8
Layer 1
10
238.474000
20
2369.610000
11
238.106230
21
2368.580770
0
LINE
8
Layer 1
10
238.106000
20
2368.580000
11
237.820250
21
2366.884020
0
LINE
8
Layer 1
10
237.820000
20
2366.880000
11
237.782958
21
2366.099480
0
LINE
8
Layer 1
10
237.783000
20
2366.100000
11
237.624250
21
2365.544376
0
LINE
8
Layer 1
10
237.624000
20
2365.550000
11
237.507583
21
2365.325104
0
LINE
8
Layer 1
10
237.508000
20
2365.320000
11
237.367771
21
2364.962813
0
LINE
8
Layer 1
10
237.368000
20
2364.970000
11
237.121938
21
2363.967230
0
LINE
8
Layer 1
10
237.122000
20
2363.960000
11
236.923563
21
2362.846110
0
LINE
8
Layer 1
10
236.923000
20
2362.850000
11
236.904479
21
2362.725646
0
LINE
8
Layer 1
10
236.905000
20
2362.720000
11
236.849438
21
2362.196126
0
LINE
8
Layer 1
10
236.849000
20
2362.200000
11
236.333063
21
2360.612500
0
LINE
8
Layer 1
10
236.333000
20
2360.610000
11
235.581584
21
2358.678540
0
LINE
8
Layer 1
10
235.582000
20
2358.680000
11
234.997272
21
2356.782940
0
LINE
8
Layer 1
10
234.997000
20
2356.780000
11
234.578959
21
2355.009940
0
LINE
8
Layer 1
10
234.579000
20
2355.010000
11
234.470521
21
2354.462313
0
LINE
8
Layer 1
10
234.470000
20
2354.470000
11
233.948771
21
2353.287310
0
LINE
8
Layer 1
10
233.949000
20
2353.280000
11
233.737334
21
2352.406876
0
LINE
8
Layer 1
10
233.738000
20
2352.410000
11
233.727417
21
2352.026355
0
LINE
8
Layer 1
10
233.727000
20
2352.030000
11
233.467709
21
2351.233605
0
LINE
8
Layer 1
10
233.468000
20
2351.230000
11
233.116105
21
2349.534020
0
LINE
8
Layer 1
10
233.116000
20
2349.540000
11
233.097479
21
2349.434167
0
LINE
8
Layer 1
10
233.097000
20
2349.430000
11
233.046729
21
2349.056938
0
LINE
8
Layer 1
10
233.047000
20
2349.060000
11
232.504605
21
2347.845560
0
LINE
8
Layer 1
10
232.505000
20
2347.840000
11
232.129292
21
2346.861043
0
LINE
8
Layer 1
10
232.129000
20
2346.860000
11
231.824730
21
2345.587360
0
LINE
8
Layer 1
10
231.825000
20
2345.590000
11
231.748271
21
2344.862397
0
LINE
8
Layer 1
10
231.748000
20
2344.860000
11
231.284980
21
2343.616460
0
LINE
8
Layer 1
10
231.285000
20
2343.620000
11
230.806105
21
2340.984750
0
LINE
8
Layer 1
10
230.806000
20
2340.980000
11
229.760900
21
2336.889550
0
LINE
8
Layer 1
10
229.761000
20
2336.890000
11
229.705438
21
2336.318501
0
LINE
8
Layer 1
10
229.705000
20
2336.320000
11
229.421896
21
2335.666480
0
LINE
8
Layer 1
10
229.422000
20
2335.670000
11
229.046292
21
2334.095730
0
LINE
8
Layer 1
10
229.046000
20
2334.090000
11
228.942813
21
2333.298897
0
LINE
8
Layer 1
10
228.943000
20
2333.300000
11
227.659770
21
2329.661980
0
LINE
8
Layer 1
10
227.660000
20
2329.670000
11
227.419229
21
2328.516420
0
LINE
8
Layer 1
10
227.419000
20
2328.510000
11
227.321104
21
2328.070792
0
LINE
8
Layer 1
10
227.321000
20
2328.070000
11
226.868563
21
2326.998440
0
LINE
8
Layer 1
10
226.869000
20
2327.000000
11
226.265751
21
2325.417790
0
LINE
8
Layer 1
10
226.266000
20
2325.420000
11
225.728897
21
2323.470020
0
LINE
8
Layer 1
10
225.729000
20
2323.470000
11
225.239521
21
2321.985690
0
LINE
8
Layer 1
10
225.239000
20
2321.980000
11
225.257521
21
2322.059375
0
LINE
8
Layer 1
10
225.258000
20
2322.060000
11
225.175979
21
2321.967396
0
LINE
8
Layer 1
10
225.176000
20
2321.970000
11
224.747376
21
2321.239751
0
LINE
8
Layer 1
10
224.747000
20
2321.240000
11
224.381875
21
2320.319251
0
LINE
8
Layer 1
10
224.382000
20
2320.320000
11
224.321146
21
2319.825230
0
LINE
8
Layer 1
10
224.321000
20
2319.830000
11
224.252208
21
2319.454292
0
LINE
8
Layer 1
10
224.252000
20
2319.450000
11
223.201610
21
2317.761960
0
LINE
8
Layer 1
10
223.202000
20
2317.760000
11
222.590813
21
2316.431790
0
LINE
8
Layer 1
10
222.591000
20
2316.430000
11
222.239105
21
2315.374310
0
LINE
8
Layer 1
10
222.239000
20
2315.380000
11
221.574897
21
2313.972420
0
LINE
8
Layer 1
10
221.575000
20
2313.970000
11
220.672772
21
2311.964460
0
LINE
8
Layer 1
10
220.672000
20
2311.960000
11
220.433875
21
2311.319709
0
LINE
8
Layer 1
10
220.434000
20
2311.320000
11
220.060938
21
2310.875501
0
LINE
8
Layer 1
10
220.061000
20
2310.880000
11
219.367793
21
2309.387750
0
LINE
8
Layer 1
10
219.368000
20
2309.390000
11
219.111354
21
2308.524814
0
LINE
8
Layer 1
10
219.111000
20
2308.520000
11
218.237876
21
2306.927210
0
LINE
8
Layer 1
10
218.238000
20
2306.930000
11
217.870230
21
2306.033064
0
LINE
8
Layer 1
10
217.871000
20
2306.030000
11
217.828667
21
2305.921521
0
LINE
8
Layer 1
10
217.828000
20
2305.920000
11
217.269730
21
2305.237376
0
LINE
8
Layer 1
10
217.270000
20
2305.240000
11
216.817563
21
2304.282210
0
LINE
8
Layer 1
10
216.817000
20
2304.280000
11
216.803771
21
2304.131834
0
LINE
8
Layer 1
10
216.804000
20
2304.140000
11
216.875437
21
2304.240542
0
LINE
8
Layer 1
10
216.876000
20
2304.240000
11
215.378460
21
2301.676190
0
LINE
8
Layer 1
10
215.378000
20
2301.670000
11
214.743001
21
2300.198920
0
LINE
8
Layer 1
10
214.743000
20
2300.200000
11
212.864460
21
2297.392770
0
LINE
8
Layer 1
10
212.865000
20
2297.390000
11
210.814480
21
2294.498110
0
LINE
8
Layer 1
10
210.814000
20
2294.500000
11
210.118147
21
2293.269690
0
LINE
8
Layer 1
10
210.118000
20
2293.270000
11
209.472417
21
2292.545043
0
LINE
8
Layer 1
10
209.473000
20
2292.550000
11
208.933251
21
2291.626605
0
LINE
8
Layer 1
10
208.933000
20
2291.620000
11
207.062400
21
2289.328710
0
LINE
8
Layer 1
10
207.062000
20
2289.330000
11
206.625438
21
2288.700292
0
LINE
8
Layer 1
10
206.626000
20
2288.700000
11
205.877230
21
2288.094105
0
LINE
8
Layer 1
10
205.877000
20
2288.100000
11
205.398105
21
2287.480876
0
LINE
8
Layer 1
10
205.398000
20
2287.480000
11
205.204854
21
2287.032855
0
LINE
8
Layer 1
10
205.205000
20
2287.030000
11
204.265730
21
2285.725610
0
LINE
8
Layer 1
10
204.266000
20
2285.730000
11
202.469480
21
2283.526020
0
LINE
8
Layer 1
10
202.469000
20
2283.520000
11
201.492689
21
2282.025110
0
LINE
8
Layer 1
10
201.493000
20
2282.030000
11
201.246938
21
2281.844792
0
LINE
8
Layer 1
10
201.247000
20
2281.840000
11
200.500876
21
2280.924543
0
LINE
8
Layer 1
10
200.501000
20
2280.930000
11
200.405750
21
2280.678646
0
LINE
8
Layer 1
10
200.405000
20
2280.670000
11
200.116605
21
2280.296938
0
LINE
8
Layer 1
10
200.117000
20
2280.300000
11
199.558730
21
2279.672938
0
LINE
8
Layer 1
10
199.559000
20
2279.670000
11
198.728209
21
2278.267710
0
LINE
8
Layer 1
10
198.728000
20
2278.270000
11
198.333771
21
2278.002771
0
LINE
8
Layer 1
10
198.334000
20
2278.010000
11
197.773084
21
2277.300918
0
LINE
8
Layer 1
10
197.773000
20
2277.300000
11
197.180334
21
2276.392480
0
LINE
8
Layer 1
10
197.180000
20
2276.390000
11
196.555584
21
2275.929626
0
LINE
8
Layer 1
10
196.556000
20
2275.930000
11
196.397250
21
2275.668063
0
LINE
8
Layer 1
10
196.397000
20
2275.670000
11
196.034521
21
2275.079980
0
LINE
8
Layer 1
10
196.034000
20
2275.080000
11
195.409584
21
2273.823230
0
LINE
8
Layer 1
10
195.410000
20
2273.820000
11
194.817334
21
2273.044772
0
LINE
8
Layer 1
10
194.817000
20
2273.040000
11
194.200522
21
2271.984310
0
LINE
8
Layer 1
10
194.201000
20
2271.990000
11
194.074000
21
2271.833896
0
LINE
8
Layer 1
10
194.074000
20
2271.830000
11
193.962875
21
2271.406667
0
LINE
8
Layer 1
10
193.963000
20
2271.410000
11
193.481459
21
2270.690334
0
LINE
8
Layer 1
10
193.481000
20
2270.690000
11
192.790438
21
2269.263900
0
LINE
8
Layer 1
10
192.791000
20
2269.260000
11
192.399417
21
2268.326022
0
LINE
8
Layer 1
10
192.399000
20
2268.330000
11
191.613188
21
2267.192290
0
LINE
8
Layer 1
10
191.613000
20
2267.190000
11
190.522920
21
2265.353790
0
LINE
8
Layer 1
10
190.523000
20
2265.360000
11
190.523000
21
2265.360000
0
LINE
8
Layer 1
10
190.523000
20
2265.360000
11
190.456854
21
2265.203896
0
LINE
8
Layer 1
10
190.457000
20
2265.200000
11
190.009855
21
2264.382439
0
LINE
8
Layer 1
10
190.010000
20
2264.390000
11
190.010000
21
2264.390000
0
LINE
8
Layer 1
10
190.010000
20
2264.390000
11
189.697792
21
2263.432210
0
LINE
8
Layer 1
10
189.698000
20
2263.430000
11
189.343459
21
2262.919355
0
LINE
8
Layer 1
10
189.343000
20
2262.920000
11
188.760917
21
2261.509770
0
LINE
8
Layer 1
10
188.761000
20
2261.510000
11
188.660458
21
2261.142230
0
LINE
8
Layer 1
10
188.661000
20
2261.140000
11
188.663646
21
2261.084438
0
LINE
8
Layer 1
10
188.663000
20
2261.090000
11
188.578333
21
2260.679896
0
LINE
8
Layer 1
10
188.579000
20
2260.680000
11
188.507563
21
2260.346625
0
LINE
8
Layer 1
10
188.507000
20
2260.340000
11
187.869355
21
2259.077940
0
LINE
8
Layer 1
10
187.869000
20
2259.080000
11
187.120230
21
2257.198810
0
LINE
8
Layer 1
10
187.121000
20
2257.200000
11
186.851125
21
2255.818880
0
LINE
8
Layer 1
10
186.851000
20
2255.820000
11
186.763688
21
2254.817230
0
LINE
8
Layer 1
10
186.763000
20
2254.820000
11
186.273521
21
2252.539290
0
LINE
8
Layer 1
10
186.274000
20
2252.540000
11
186.289875
21
2251.225020
0
LINE
8
Layer 1
10
186.290000
20
2251.220000
11
186.297937
21
2251.201479
0
LINE
8
Layer 1
10
186.298000
20
2251.200000
11
186.171000
21
2249.689230
0
LINE
8
Layer 1
10
186.171000
20
2249.690000
11
185.901125
21
2248.390900
0
LINE
8
Layer 1
10
185.901000
20
2248.390000
11
185.580855
21
2243.241210
0
LINE
8
Layer 1
10
185.581000
20
2243.240000
11
185.477813
21
2238.249960
0
LINE
8
Layer 1
10
185.478000
20
2238.250000
11
185.279563
21
2235.307840
0
LINE
8
Layer 1
10
185.279000
20
2235.310000
11
185.114959
21
2232.021230
0
LINE
8
Layer 1
10
185.115000
20
2232.020000
11
185.212896
21
2227.643800
0
LINE
8
Layer 1
10
185.213000
20
2227.650000
11
185.525208
21
2224.189250
0
LINE
8
Layer 1
10
185.525000
20
2224.190000
11
185.480021
21
2222.904130
0
LINE
8
Layer 1
10
185.480000
20
2222.900000
11
185.477354
21
2222.725375
0
LINE
8
Layer 1
10
185.478000
20
2222.730000
11
185.679083
21
2219.991570
0
LINE
8
Layer 1
10
185.679000
20
2219.990000
11
185.549354
21
2219.392042
0
LINE
8
Layer 1
10
185.549000
20
2219.390000
11
185.538417
21
2219.011646
0
LINE
8
Layer 1
10
185.538000
20
2219.010000
11
185.672937
21
2217.549500
0
LINE
8
Layer 1
10
185.673000
20
2217.550000
11
185.815875
21
2216.862084
0
LINE
8
Layer 1
10
185.816000
20
2216.860000
11
185.982687
21
2216.248813
0
LINE
8
Layer 1
10
185.983000
20
2216.250000
11
186.147041
21
2215.630876
0
LINE
8
Layer 1
10
186.147000
20
2215.630000
11
186.202562
21
2215.442146
0
LINE
8
Layer 1
10
186.203000
20
2215.440000
11
186.359104
21
2214.368440
0
LINE
8
Layer 1
10
186.359000
20
2214.370000
11
186.467479
21
2213.356650
0
LINE
8
Layer 1
10
186.467000
20
2213.360000
11
186.832125
21
2211.857170
0
LINE
8
Layer 1
10
186.832000
20
2211.860000
11
187.244749
21
2210.563540
0
LINE
8
Layer 1
10
187.245000
20
2210.560000
11
187.848249
21
2208.115250
0
LINE
8
Layer 1
10
187.848000
20
2208.120000
11
188.599416
21
2205.418610
0
LINE
8
Layer 1
10
188.600000
20
2205.410000
11
190.110770
21
2201.271920
0
LINE
8
Layer 1
10
190.110000
20
2201.280000
11
191.898580
21
2197.231880
0
LINE
8
Layer 1
10
191.899000
20
2197.230000
11
193.497080
21
2194.242860
0
LINE
8
Layer 1
10
193.497000
20
2194.240000
11
195.285580
21
2191.408960
0
LINE
8
Layer 1
10
195.286000
20
2191.410000
11
197.235980
21
2188.711250
0
LINE
8
Layer 1
10
197.236000
20
2188.710000
11
199.312980
21
2186.132960
0
LINE
8
Layer 1
10
199.313000
20
2186.130000
11
200.453350
21
2184.748880
0
LINE
8
Layer 1
10
200.453000
20
2184.750000
11
200.453000
21
2184.750000
0
LINE
8
Layer 1
10
200.453000
20
2184.750000
11
201.905560
21
2183.522330
0
LINE
8
Layer 1
10
201.906000
20
2183.520000
11
202.969620
21
2182.723605
0
LINE
8
Layer 1
10
202.969000
20
2182.730000
11
207.821450
21
2178.605150
0
LINE
8
Layer 1
10
207.822000
20
2178.600000
11
212.970790
21
2174.734440
0
LINE
8
Layer 1
10
212.970000
20
2174.740000
11
214.811500
21
2173.485880
0
LINE
8
Layer 1
10
214.812000
20
2173.480000
11
214.933708
21
2173.403271
0
LINE
8
Layer 1
10
214.934000
20
2173.400000
11
214.963104
21
2173.344438
0
LINE
8
Layer 1
10
214.963000
20
2173.350000
11
215.497458
21
2173.156854
0
LINE
8
Layer 1
10
215.497000
20
2173.160000
11
215.756291
21
2173.104438
0
LINE
8
Layer 1
10
215.756000
20
2173.100000
11
216.798460
21
2172.367105
0
LINE
8
Layer 1
10
216.799000
20
2172.370000
11
220.294140
21
2170.166020
0
LINE
8
Layer 1
10
220.294000
20
2170.160000
11
223.897620
21
2168.064500
0
LINE
8
Layer 1
10
223.898000
20
2168.070000
11
225.374370
21
2167.379438
0
LINE
8
Layer 1
10
225.374000
20
2167.380000
11
226.241832
21
2167.070438
0
LINE
8
Layer 1
10
226.242000
20
2167.070000
11
226.461604
21
2166.823938
0
LINE
8
Layer 1
10
226.462000
20
2166.820000
11
227.276916
21
2166.282897
0
LINE
8
Layer 1
10
227.276000
20
2166.290000
11
228.326390
21
2165.821688
0
LINE
8
Layer 1
10
228.327000
20
2165.820000
11
228.678895
21
2165.745917
0
LINE
8
Layer 1
10
228.679000
20
2165.740000
11
228.951520
21
2165.623583
0
LINE
8
Layer 1
10
228.951000
20
2165.630000
11
229.400791
21
2165.264875
0
LINE
8
Layer 1
10
229.401000
20
2165.260000
11
230.496370
21
2164.659397
0
LINE
8
Layer 1
10
230.496000
20
2164.660000
11
231.985600
21
2164.069980
0
LINE
8
Layer 1
10
231.986000
20
2164.070000
11
232.830020
21
2163.834521
0
LINE
8
Layer 1
10
232.830000
20
2163.830000
11
233.689895
21
2163.263792
0
LINE
8
Layer 1
10
233.690000
20
2163.270000
11
236.568660
21
2161.986770
0
LINE
8
Layer 1
10
236.569000
20
2161.990000
11
238.902620
21
2160.989880
0
LINE
8
Layer 1
10
238.902000
20
2160.990000
11
238.902000
21
2160.990000
0
LINE
8
Layer 1
10
238.902000
20
2160.990000
11
240.023830
21
2160.296793
0
LINE
8
Layer 1
10
240.024000
20
2160.300000
11
241.714690
21
2159.575043
0
LINE
8
Layer 1
10
241.715000
20
2159.570000
11
242.707186
21
2159.165188
0
LINE
8
Layer 1
10
242.707000
20
2159.170000
11
242.828708
21
2159.000667
0
LINE
8
Layer 1
10
242.829000
20
2159.000000
11
243.768270
21
2158.372938
0
LINE
8
Layer 1
10
243.768000
20
2158.370000
11
244.773420
21
2157.933438
0
LINE
8
Layer 1
10
244.773000
20
2157.930000
11
245.130187
21
2157.847979
0
LINE
8
Layer 1
10
245.130000
20
2157.850000
11
247.847270
21
2156.386860
0
LINE
8
Layer 1
10
247.848000
20
2156.390000
11
248.932790
21
2155.905813
0
LINE
8
Layer 1
10
248.933000
20
2155.910000
11
249.388083
21
2155.790938
0
LINE
8
Layer 1
10
249.388000
20
2155.790000
11
250.107666
21
2155.229084
0
LINE
8
Layer 1
10
250.107000
20
2155.230000
11
253.099430
21
2153.459940
0
LINE
8
Layer 1
10
253.100000
20
2153.460000
11
253.692666
21
2153.168959
0
LINE
8
Layer 1
10
253.692000
20
2153.160000
11
254.271437
21
2152.689042
0
LINE
8
Layer 1
10
254.272000
20
2152.690000
11
256.610910
21
2151.115730
0
LINE
8
Layer 1
10
256.611000
20
2151.120000
11
258.629770
21
2149.746810
0
LINE
8
Layer 1
10
258.630000
20
2149.750000
11
259.082437
21
2149.361063
0
LINE
8
Layer 1
10
259.082000
20
2149.360000
11
259.799020
21
2148.608584
0
LINE
8
Layer 1
10
259.799000
20
2148.610000
11
263.021620
21
2145.628150
0
LINE
8
Layer 1
10
263.022000
20
2145.620000
11
264.043290
21
2144.532560
0
LINE
8
Layer 1
10
264.043000
20
2144.540000
11
265.524660
21
2143.370540
0
LINE
8
Layer 1
10
265.525000
20
2143.370000
11
267.276540
21
2141.509980
0
LINE
8
Layer 1
10
267.276000
20
2141.510000
11
268.815870
21
2140.131520
0
LINE
8
Layer 1
10
268.816000
20
2140.130000
11
270.033080
21
2138.965830
0
LINE
8
Layer 1
10
270.033000
20
2138.960000
11
270.088562
21
2138.883271
0
LINE
8
Layer 1
10
270.089000
20
2138.890000
11
270.395916
21
2138.514292
0
LINE
8
Layer 1
10
270.396000
20
2138.510000
11
271.316749
21
2137.372290
0
LINE
8
Layer 1
10
271.316000
20
2137.370000
11
272.612460
21
2135.753400
0
LINE
8
Layer 1
10
272.613000
20
2135.760000
11
275.306450
21
2132.500340
0
LINE
8
Layer 1
10
275.306000
20
2132.500000
11
276.523080
21
2130.907210
0
LINE
8
Layer 1
10
276.523000
20
2130.900000
11
277.589270
21
2129.291340
0
LINE
8
Layer 1
10
277.590000
20
2129.300000
11
279.262160
21
2125.968900
0
LINE
8
Layer 1
10
279.262000
20
2125.970000
11
281.267540
21
2122.072690
0
LINE
8
Layer 1
10
281.267000
20
2122.070000
11
282.182457
21
2119.805170
0
LINE
8
Layer 1
10
282.183000
20
2119.800000
11
282.767728
21
2118.895126
0
LINE
8
Layer 1
10
282.767000
20
2118.900000
11
283.150645
21
2117.873420
0
LINE
8
Layer 1
10
283.151000
20
2117.870000
11
283.891832
21
2116.314250
0
LINE
8
Layer 1
10
283.892000
20
2116.320000
11
284.352374
21
2115.600334
0
LINE
8
Layer 1
10
284.352000
20
2115.600000
11
284.444604
21
2115.533854
0
LINE
8
Layer 1
10
284.445000
20
2115.530000
11
284.908020
21
2114.222960
0
LINE
8
Layer 1
10
284.908000
20
2114.220000
11
285.709686
21
2112.656310
0
LINE
8
Layer 1
10
285.710000
20
2112.660000
11
287.353060
21
2107.934550
0
LINE
8
Layer 1
10
287.353000
20
2107.930000
11
288.723540
21
2104.728550
0
LINE
8
Layer 1
10
288.723000
20
2104.730000
11
290.704730
21
2097.461900
0
LINE
8
Layer 1
10
290.705000
20
2097.460000
11
291.990870
21
2092.917110
0
LINE
8
Layer 1
10
291.991000
20
2092.920000
11
292.700082
21
2090.935630
0
LINE
8
Layer 1
10
292.700000
20
2090.940000
11
292.885208
21
2089.765250
0
LINE
8
Layer 1
10
292.885000
20
2089.760000
11
293.967140
21
2085.066300
0
LINE
8
Layer 1
10
293.967000
20
2085.070000
11
294.855999
21
2078.481880
0
LINE
8
Layer 1
10
294.856000
20
2078.480000
11
296.218600
21
2069.380990
0
LINE
8
Layer 1
10
296.219000
20
2069.380000
11
296.502104
21
2066.355820
0
LINE
8
Layer 1
10
296.502000
20
2066.360000
11
296.951791
21
2064.335940
0
LINE
8
Layer 1
10
296.952000
20
2064.330000
11
297.322416
21
2062.866860
0
LINE
8
Layer 1
10
297.322000
20
2062.870000
11
297.443708
21
2061.375110
0
LINE
8
Layer 1
10
297.444000
20
2061.380000
11
298.438832
21
2052.609070
0
LINE
8
Layer 1
10
298.439000
20
2052.600000
11
298.505146
21
2049.377380
0
LINE
8
Layer 1
10
298.505000
20
2049.380000
11
298.523521
21
2045.786960
0
LINE
8
Layer 1
10
298.523000
20
2045.790000
11
299.070687
21
2035.873430
0
LINE
8
Layer 1
10
299.071000
20
2035.870000
11
299.475812
21
2031.353570
0
LINE
8
Layer 1
10
299.476000
20
2031.360000
11
299.481292
21
2031.217125
0
LINE
8
Layer 1
10
299.481000
20
2031.210000
11
299.462479
21
2031.151792
0
LINE
8
Layer 1
10
299.463000
20
2031.150000
11
299.399500
21
2030.631417
0
LINE
8
Layer 1
10
299.399000
20
2030.640000
11
299.430750
21
2028.682090
0
LINE
8
Layer 1
10
299.431000
20
2028.680000
11
299.703520
21
2025.251000
0
LINE
8
Layer 1
10
299.703000
20
2025.250000
11
299.684479
21
2022.580360
0
LINE
8
Layer 1
10
299.685000
20
2022.580000
11
299.610917
21
2019.632550
0
LINE
8
Layer 1
10
299.611000
20
2019.630000
11
299.703604
21
2015.812070
0
LINE
8
Layer 1
10
299.703000
20
2015.810000
11
299.919958
21
2012.992190
0
LINE
8
Layer 1
10
299.920000
20
2013.000000
11
300.158125
21
2010.565840
0
LINE
8
Layer 1
10
300.158000
20
2010.560000
11
300.337916
21
2006.665340
0
LINE
8
Layer 1
10
300.338000
20
2006.670000
11
300.248042
21
2005.476730
0
LINE
8
Layer 1
10
300.248000
20
2005.470000
11
300.385583
21
2004.035960
0
LINE
8
Layer 1
10
300.386000
20
2004.040000
11
300.423042
21
2000.745940
0
LINE
8
Layer 1
10
300.423000
20
2000.750000
11
300.293354
21
1997.323650
0
LINE
8
Layer 1
10
300.293000
20
1997.320000
11
299.851146
21
1992.509880
0
LINE
8
Layer 1
10
299.852000
20
1992.510000
11
299.690604
21
1990.721420
0
LINE
8
Layer 1
10
299.690000
20
1990.720000
11
299.684708
21
1990.423667
0
LINE
8
Layer 1
10
299.685000
20
1990.420000
11
299.737917
21
1989.898771
0
LINE
8
Layer 1
10
299.738000
20
1989.900000
11
299.711542
21
1989.608959
0
LINE
8
Layer 1
10
299.711000
20
1989.610000
11
299.359105
21
1987.628270
0
LINE
8
Layer 1
10
299.359000
20
1987.630000
11
299.239938
21
1986.053090
0
LINE
8
Layer 1
10
299.240000
20
1986.050000
11
299.240000
21
1985.470000
0
LINE
8
Layer 1
10
299.240000
20
1985.470000
11
299.136813
21
1984.670959
0
LINE
8
Layer 1
10
299.137000
20
1984.670000
11
200.278200
21
1983.810105
0
LINE
8
Layer 1
10
200.278000
20
1983.810000
11
200.584916
21
1984.397374
0
LINE
8
Layer 1
10
200.585000
20
1984.400000
11
201.111520
21
1985.529770
0
LINE
8
Layer 1
10
201.112000
20
1985.530000
11
201.498291
21
1986.421645
0
LINE
8
Layer 1
10
201.498000
20
1986.420000
11
202.670100
21
1988.719230
0
LINE
8
Layer 1
10
202.670000
20
1988.720000
11
203.913540
21
1991.275870
0
LINE
8
Layer 1
10
203.914000
20
1991.280000
11
205.980390
21
1996.338830
0
LINE
8
Layer 1
10
205.980000
20
1996.340000
11
207.091250
21
1998.977890
0
LINE
8
Layer 1
10
207.091000
20
1998.970000
11
208.183730
21
2001.793100
0
LINE
8
Layer 1
10
208.184000
20
2001.800000
11
209.332290
21
2005.451250
0
LINE
8
Layer 1
10
209.332000
20
2005.450000
11
209.363750
21
2005.532021
0
LINE
8
Layer 1
10
209.364000
20
2005.530000
11
210.705440
21
2008.821410
0
LINE
8
Layer 1
10
210.706000
20
2008.820000
11
212.227350
21
2012.299270
0
LINE
8
Layer 1
10
212.227000
20
2012.300000
11
212.785270
21
2013.752560
0
LINE
8
Layer 1
10
212.785000
20
2013.750000
11
214.692640
21
2017.964810
0
LINE
8
Layer 1
10
214.693000
20
2017.970000
11
216.611230
21
2022.420290
0
LINE
8
Layer 1
10
216.611000
20
2022.420000
11
217.788390
21
2025.679660
0
LINE
8
Layer 1
10
217.788000
20
2025.680000
11
218.936290
21
2028.690950
0
LINE
8
Layer 1
10
218.937000
20
2028.690000
11
219.640791
21
2030.261620
0
LINE
8
Layer 1
10
219.641000
20
2030.260000
11
219.807687
21
2030.508708
0
LINE
8
Layer 1
10
219.807000
20
2030.510000
11
219.912833
21
2030.734896
0
LINE
8
Layer 1
10
219.913000
20
2030.730000
11
220.442166
21
2032.044980
0
LINE
8
Layer 1
10
220.442000
20
2032.050000
11
222.381390
21
2037.167040
0
LINE
8
Layer 1
10
222.382000
20
2037.170000
11
225.575520
21
2044.210550
0
LINE
8
Layer 1
10
225.575000
20
2044.210000
11
226.310541
21
2045.898040
0
LINE
8
Layer 1
10
226.311000
20
2045.890000
11
227.475170
21
2048.189230
0
LINE
8
Layer 1
10
227.475000
20
2048.190000
11
229.430270
21
2052.695850
0
LINE
8
Layer 1
10
229.430000
20
2052.700000
11
231.335000
21
2056.872470
0
LINE
8
Layer 1
10
231.335000
20
2056.870000
11
233.314080
21
2060.211680
0
LINE
8
Layer 1
10
233.314000
20
2060.210000
11
235.441250
21
2063.551680
0
LINE
8
Layer 1
10
235.441000
20
2063.560000
11
235.784958
21
2064.448999
0
LINE
8
Layer 1
10
235.785000
20
2064.440000
11
235.761188
21
2065.360749
0
LINE
8
Layer 1
10
235.762000
20
2065.370000
11
235.394230
21
2066.214020
0
LINE
8
Layer 1
10
235.394000
20
2066.210000
11
234.706084
21
2066.868812
0
LINE
8
Layer 1
10
234.706000
20
2066.870000
11
233.835522
21
2067.211312
0
LINE
8
Layer 1
10
233.835000
20
2067.210000
11
232.898376
21
2067.188833
0
LINE
8
Layer 1
10
232.899000
20
2067.190000
11
232.041751
21
2066.811646
0
LINE
8
Layer 1
10
232.042000
20
2066.810000
11
231.393772
21
2066.135313
0
LINE
8
Layer 1
10
231.393000
20
2066.140000
11
229.249880
21
2062.774500
0
LINE
8
Layer 1
10
229.250000
20
2062.770000
11
227.091000
21
2059.113460
0
LINE
8
Layer 1
10
227.091000
20
2059.110000
11
224.992860
21
2054.556530
0
LINE
8
Layer 1
10
224.993000
20
2054.560000
11
223.132980
21
2050.244650
0
LINE
8
Layer 1
10
223.133000
20
2050.240000
11
221.979420
21
2047.954000
0
LINE
8
Layer 1
10
221.979000
20
2047.960000
11
221.214355
21
2046.216400
0
LINE
8
Layer 1
10
221.215000
20
2046.210000
11
219.206820
21
2041.847030
0
LINE
8
Layer 1
10
219.207000
20
2041.850000
11
218.661959
21
2041.207063
0
LINE
8
Layer 1
10
218.662000
20
2041.210000
11
218.831333
21
2041.474583
0
LINE
8
Layer 1
10
218.831000
20
2041.470000
11
218.341521
21
2040.734459
0
LINE
8
Layer 1
10
218.341000
20
2040.740000
11
217.753626
21
2039.499110
0
LINE
8
Layer 1
10
217.754000
20
2039.500000
11
216.780335
21
2037.841060
0
LINE
8
Layer 1
10
216.780000
20
2037.840000
11
215.004650
21
2034.553880
0
LINE
8
Layer 1
10
215.005000
20
2034.550000
11
214.557855
21
2033.912355
0
LINE
8
Layer 1
10
214.558000
20
2033.910000
11
213.986501
21
2032.737900
0
LINE
8
Layer 1
10
213.986000
20
2032.740000
11
213.917208
21
2032.681792
0
LINE
8
Layer 1
10
213.918000
20
2032.680000
11
213.552875
21
2032.140251
0
LINE
8
Layer 1
10
213.553000
20
2032.140000
11
213.121730
21
2031.322439
0
LINE
8
Layer 1
10
213.121000
20
2031.330000
11
212.618292
21
2030.618272
0
LINE
8
Layer 1
10
212.619000
20
2030.610000
11
211.547440
21
2028.818770
0
LINE
8
Layer 1
10
211.547000
20
2028.820000
11
211.028417
21
2028.097688
0
LINE
8
Layer 1
10
211.028000
20
2028.100000
11
210.668167
21
2027.517917
0
LINE
8
Layer 1
10
210.669000
20
2027.520000
11
210.370021
21
2026.670689
0
LINE
8
Layer 1
10
210.370000
20
2026.670000
11
210.449375
21
2026.950458
0
LINE
8
Layer 1
10
210.449000
20
2026.950000
11
210.319354
21
2026.698646
0
LINE
8
Layer 1
10
210.319000
20
2026.700000
11
209.305650
21
2025.086040
0
LINE
8
Layer 1
10
209.306000
20
2025.080000
11
209.213396
21
2024.942417
0
LINE
8
Layer 1
10
209.213000
20
2024.950000
11
209.260625
21
2025.002917
0
LINE
8
Layer 1
10
209.261000
20
2025.000000
11
208.652459
21
2024.391459
0
LINE
8
Layer 1
10
208.652000
20
2024.390000
11
207.686272
21
2023.133230
0
LINE
8
Layer 1
10
207.687000
20
2023.140000
11
207.107563
21
2022.293334
0
LINE
8
Layer 1
10
207.107000
20
2022.290000
11
204.945360
21
2020.075440
0
LINE
8
Layer 1
10
204.946000
20
2020.070000
11
203.302940
21
2018.204690
0
LINE
8
Layer 1
10
203.303000
20
2018.210000
11
201.786940
21
2016.733630
0
LINE
8
Layer 1
10
201.787000
20
2016.730000
11
200.538170
21
2015.833064
0
LINE
8
Layer 1
10
200.538000
20
2015.840000
11
199.207150
21
2015.083293
0
LINE
8
Layer 1
10
199.207000
20
2015.080000
11
197.616860
21
2014.373563
0
LINE
8
Layer 1
10
197.617000
20
2014.370000
11
196.741230
21
2013.867292
0
LINE
8
Layer 1
10
196.741000
20
2013.870000
11
194.738110
21
2013.190022
0
LINE
8
Layer 1
10
194.738000
20
2013.190000
11
194.277626
21
2013.028604
0
LINE
8
Layer 1
10
194.278000
20
2013.030000
11
194.275354
21
2013.008833
0
LINE
8
Layer 1
10
194.275000
20
2013.010000
11
192.616060
21
2012.695146
0
LINE
8
Layer 1
10
192.616000
20
2012.690000
11
190.718940
21
2012.105272
0
LINE
8
Layer 1
10
190.719000
20
2012.110000
11
189.634210
21
2011.760750
0
LINE
8
Layer 1
10
189.634000
20
2011.760000
11
187.938020
21
2011.767937
0
LINE
8
Layer 1
10
187.938000
20
2011.770000
11
185.763130
21
2011.936687
0
LINE
8
Layer 1
10
185.763000
20
2011.930000
11
181.844530
21
2012.157541
0
LINE
8
Layer 1
10
181.845000
20
2012.160000
11
179.757440
21
2012.731499
0
LINE
8
Layer 1
10
179.757000
20
2012.730000
11
178.854772
21
2012.952250
0
LINE
8
Layer 1
10
178.855000
20
2012.950000
11
176.653670
21
2013.899853
0
LINE
8
Layer 1
10
176.654000
20
2013.900000
11
174.661690
21
2014.762541
0
LINE
8
Layer 1
10
174.661000
20
2014.770000
11
172.946500
21
2015.690749
0
LINE
8
Layer 1
10
172.947000
20
2015.690000
11
171.028770
21
2017.121390
0
LINE
8
Layer 1
10
171.029000
20
2017.120000
11
167.988940
21
2019.667930
0
LINE
8
Layer 1
10
167.989000
20
2019.670000
11
166.779860
21
2020.995560
0
LINE
8
Layer 1
10
166.780000
20
2020.990000
11
165.703150
21
2022.535160
0
LINE
8
Layer 1
10
165.703000
20
2022.540000
11
165.195001
21
2023.428999
0
LINE
8
Layer 1
10
165.195000
20
2023.430000
11
164.827230
21
2024.342811
0
LINE
8
Layer 1
10
164.827000
20
2024.340000
11
164.334876
21
2025.432730
0
LINE
8
Layer 1
10
164.335000
20
2025.430000
11
163.779376
21
2027.300600
0
LINE
8
Layer 1
10
163.779000
20
2027.300000
11
163.347730
21
2029.464290
0
LINE
8
Layer 1
10
163.348000
20
2029.470000
11
163.043730
21
2031.017810
0
LINE
8
Layer 1
10
163.044000
20
2031.010000
11
162.909063
21
2033.587040
0
LINE
8
Layer 1
10
162.909000
20
2033.590000
11
162.890479
21
2036.622120
0
LINE
8
Layer 1
10
162.890000
20
2036.620000
11
163.017000
21
2039.609790
0
LINE
8
Layer 1
10
163.017000
20
2039.610000
11
163.755187
21
2047.142680
0
LINE
8
Layer 1
10
163.755000
20
2047.150000
11
164.241833
21
2050.978520
0
LINE
8
Layer 1
10
164.242000
20
2050.970000
11
165.787160
21
2059.592760
0
LINE
8
Layer 1
10
165.787000
20
2059.600000
11
166.165354
21
2062.412520
0
LINE
8
Layer 1
10
166.166000
20
2062.410000
11
166.417354
21
2065.132560
0
LINE
8
Layer 1
10
166.417000
20
2065.130000
11
166.660416
21
2067.746730
0
LINE
8
Layer 1
10
166.660000
20
2067.750000
11
167.006604
21
2070.247660
0
LINE
8
Layer 1
10
167.007000
20
2070.250000
11
167.739895
21
2073.459390
0
LINE
8
Layer 1
10
167.740000
20
2073.460000
11
167.970187
21
2075.343830
0
LINE
8
Layer 1
10
167.970000
20
2075.340000
11
169.044210
21
2080.306220
0
LINE
8
Layer 1
10
169.044000
20
2080.310000
11
169.567874
21
2082.053600
0
LINE
8
Layer 1
10
169.568000
20
2082.050000
11
169.546833
21
2081.893896
0
LINE
8
Layer 1
10
169.547000
20
2081.890000
11
169.671354
21
2082.027583
0
LINE
8
Layer 1
10
169.671000
20
2082.030000
11
170.041416
21
2083.255020
0
LINE
8
Layer 1
10
170.042000
20
2083.260000
11
170.266896
21
2086.186290
0
LINE
8
Layer 1
10
170.267000
20
2086.180000
11
170.147938
21
2087.127207
0
LINE
8
Layer 1
10
170.148000
20
2087.130000
11
169.692917
21
2087.929041
0
LINE
8
Layer 1
10
169.693000
20
2087.930000
11
168.970688
21
2088.498853
0
LINE
8
Layer 1
10
168.970000
20
2088.500000
11
168.051897
21
2088.756646
0
LINE
8
Layer 1
10
168.052000
20
2088.750000
11
167.107439
21
2088.633583
0
LINE
8
Layer 1
10
167.108000
20
2088.640000
11
166.308959
21
2088.182271
0
LINE
8
Layer 1
10
166.309000
20
2088.180000
11
165.737501
21
2087.457688
0
LINE
8
Layer 1
10
165.737000
20
2087.460000
11
165.480354
21
2086.541897
0
LINE
8
Layer 1
10
165.480000
20
2086.540000
11
165.326542
21
2084.378360
0
LINE
8
Layer 1
10
165.327000
20
2084.380000
11
165.133854
21
2083.885230
0
LINE
8
Layer 1
10
165.134000
20
2083.880000
11
164.385230
21
2081.451130
0
LINE
8
Layer 1
10
164.385000
20
2081.450000
11
163.234060
21
2076.110720
0
LINE
8
Layer 1
10
163.234000
20
2076.120000
11
163.009104
21
2074.278500
0
LINE
8
Layer 1
10
163.009000
20
2074.270000
11
162.284043
21
2071.097650
0
LINE
8
Layer 1
10
162.284000
20
2071.100000
11
161.879188
21
2068.276900
0
LINE
8
Layer 1
10
161.879000
20
2068.280000
11
161.617063
21
2065.546860
0
LINE
8
Layer 1
10
161.618000
20
2065.550000
11
161.054438
21
2060.401210
0
LINE
8
Layer 1
10
161.054000
20
2060.400000
11
159.506190
21
2051.761370
0
LINE
8
Layer 1
10
159.506000
20
2051.760000
11
158.992709
21
2047.735690
0
LINE
8
Layer 1
10
158.993000
20
2047.730000
11
158.231001
21
2039.961840
0
LINE
8
Layer 1
10
158.231000
20
2039.970000
11
158.090771
21
2036.702400
0
LINE
8
Layer 1
10
158.091000
20
2036.700000
11
158.112167
21
2033.472090
0
LINE
8
Layer 1
10
158.112000
20
2033.470000
11
158.149042
21
2032.014790
0
LINE
8
Layer 1
10
158.149000
20
2032.010000
11
158.294521
21
2030.314020
0
LINE
8
Layer 1
10
158.294000
20
2030.320000
11
158.627375
21
2028.594920
0
LINE
8
Layer 1
10
158.628000
20
2028.590000
11
159.093666
21
2026.219340
0
LINE
8
Layer 1
10
159.093000
20
2026.220000
11
159.868228
21
2023.666770
0
LINE
8
Layer 1
10
159.869000
20
2023.670000
11
160.421978
21
2022.431750
0
LINE
8
Layer 1
10
160.422000
20
2022.430000
11
160.890312
21
2021.331980
0
LINE
8
Layer 1
10
160.890000
20
2021.330000
11
161.591145
21
2020.057360
0
LINE
8
Layer 1
10
161.591000
20
2020.060000
11
163.030330
21
2018.001540
0
LINE
8
Layer 1
10
163.030000
20
2018.000000
11
164.609560
21
2016.266980
0
LINE
8
Layer 1
10
164.610000
20
2016.270000
11
166.303330
21
2014.748650
0
LINE
8
Layer 1
10
166.303000
20
2014.750000
11
168.083640
21
2013.329190
0
LINE
8
Layer 1
10
168.084000
20
2013.330000
11
170.346180
21
2011.655190
0
LINE
8
Layer 1
10
170.346000
20
2011.650000
11
172.634640
21
2010.406460
0
LINE
8
Layer 1
10
172.635000
20
2010.410000
11
174.820460
21
2009.468085
0
LINE
8
Layer 1
10
174.820000
20
2009.470000
11
177.301790
21
2008.416960
0
LINE
8
Layer 1
10
177.302000
20
2008.410000
11
178.489980
21
2008.097792
0
LINE
8
Layer 1
10
178.490000
20
2008.100000
11
179.625060
21
2007.750750
0
LINE
8
Layer 1
10
179.625000
20
2007.750000
11
181.175460
21
2007.406042
0
LINE
8
Layer 1
10
181.175000
20
2007.410000
11
183.468930
21
2007.216854
0
LINE
8
Layer 1
10
183.469000
20
2007.220000
11
185.485120
21
2007.145917
0
LINE
8
Layer 1
10
185.486000
20
2007.140000
11
187.605310
21
2006.952146
0
LINE
8
Layer 1
10
187.605000
20
2006.950000
11
190.203210
21
2006.987042
0
LINE
8
Layer 1
10
190.203000
20
2006.990000
11
191.409500
21
2007.220187
0
LINE
8
Layer 1
10
191.410000
20
2007.220000
11
192.386311
21
2007.526916
0
LINE
8
Layer 1
10
192.386000
20
2007.530000
11
193.722140
21
2008.022124
0
LINE
8
Layer 1
10
193.722000
20
2008.020000
11
195.470890
21
2008.358666
0
LINE
8
Layer 1
10
195.471000
20
2008.360000
11
195.471000
21
2008.360000
0
LINE
8
Layer 1
10
195.471000
20
2008.360000
11
196.235645
21
2008.627229
0
LINE
8
Layer 1
10
196.236000
20
2008.630000
11
197.381640
21
2008.981895
0
LINE
8
Layer 1
10
197.381000
20
2008.980000
11
198.822980
21
2009.546208
0
LINE
8
Layer 1
10
198.823000
20
2009.550000
11
199.812540
21
2010.108270
0
LINE
8
Layer 1
10
199.813000
20
2010.100000
11
201.358160
21
2010.785270
0
LINE
8
Layer 1
10
201.358000
20
2010.790000
11
203.128060
21
2011.798060
0
LINE
8
Layer 1
10
203.128000
20
2011.800000
11
204.779000
21
2012.982690
0
LINE
8
Layer 1
10
204.779000
20
2012.980000
11
206.866560
21
2014.974960
0
LINE
8
Layer 1
10
206.866000
20
2014.980000
11
208.527580
21
2016.882350
0
LINE
8
Layer 1
10
208.528000
20
2016.880000
11
209.255603
21
2017.602312
0
LINE
8
Layer 1
10
209.256000
20
2017.600000
11
208.369647
21
2015.631500
0
LINE
8
Layer 1
10
208.369000
20
2015.630000
11
207.792209
21
2014.137750
0
LINE
8
Layer 1
10
207.793000
20
2014.140000
11
206.321920
21
2010.787730
0
LINE
8
Layer 1
10
206.321000
20
2010.790000
11
204.857860
21
2007.178440
0
LINE
8
Layer 1
10
204.858000
20
2007.180000
11
204.175376
21
2005.121540
0
LINE
8
Layer 1
10
204.176000
20
2005.120000
11
203.652126
21
2003.373750
0
LINE
8
Layer 1
10
203.652000
20
2003.370000
11
201.537980
21
1998.155070
0
LINE
8
Layer 1
10
201.538000
20
1998.160000
11
199.513940
21
1993.196420
0
LINE
8
Layer 1
10
199.514000
20
1993.190000
11
197.159210
21
1988.469840
0
LINE
8
Layer 1
10
197.159000
20
1988.470000
11
196.616605
21
1987.210580
0
LINE
8
Layer 1
10
196.617000
20
1987.210000
11
196.344480
21
1986.649084
0
LINE
8
Layer 1
10
196.344000
20
1986.650000
11
194.986690
21
1984.033270
0
LINE
8
Layer 1
10
194.987000
20
1984.030000
11
194.870583
21
1983.760125
0
LINE
8
Layer 1
10
194.870000
20
1983.770000
11
80.364000
21
1982.775168
0
LINE
8
Layer 1
10
80.364100
20
1982.770000
11
80.448767
21
1983.293874
0
LINE
8
Layer 1
10
80.448700
20
1983.290000
11
80.977866
21
1986.324770
0
LINE
8
Layer 1
10
80.977900
20
1986.330000
11
81.311275
21
1989.311850
0
LINE
8
Layer 1
10
81.311300
20
1989.310000
11
81.702883
21
1992.096060
0
LINE
8
Layer 1
10
81.702900
20
1992.100000
11
81.851066
21
1993.311790
0
LINE
8
Layer 1
10
81.851000
20
1993.310000
11
82.081187
21
1994.749330
0
LINE
8
Layer 1
10
82.081200
20
1994.750000
11
82.446325
21
1996.596790
0
LINE
8
Layer 1
10
82.446300
20
1996.590000
11
82.737341
21
1998.547910
0
LINE
8
Layer 1
10
82.737400
20
1998.550000
11
83.017858
21
2002.434080
0
LINE
8
Layer 1
10
83.017800
20
2002.440000
11
83.697778
21
2007.461790
0
LINE
8
Layer 1
10
83.697800
20
2007.460000
11
84.256070
21
2011.105950
0
LINE
8
Layer 1
10
84.256100
20
2011.100000
11
85.547270
21
2010.803667
0
LINE
8
Layer 1
10
85.547300
20
2010.810000
11
87.653380
21
2010.614209
0
LINE
8
Layer 1
10
87.653300
20
2010.610000
11
89.426010
21
2010.570313
0
LINE
8
Layer 1
10
89.426000
20
2010.570000
11
91.164310
21
2010.445646
0
LINE
8
Layer 1
10
91.164300
20
2010.450000
11
92.243800
21
2010.460583
0
LINE
8
Layer 1
10
92.243800
20
2010.460000
11
93.455590
21
2010.621396
0
LINE
8
Layer 1
10
93.455600
20
2010.620000
11
95.971780
21
2011.331728
0
LINE
8
Layer 1
10
95.971800
20
2011.330000
11
98.228690
21
2012.195186
0
LINE
8
Layer 1
10
98.228700
20
2012.200000
11
99.535740
21
2012.702708
0
LINE
8
Layer 1
10
99.535800
20
2012.700000
11
101.202670
21
2013.633978
0
LINE
8
Layer 1
10
101.203000
20
2013.630000
11
103.576310
21
2015.714910
0
LINE
8
Layer 1
10
103.576000
20
2015.720000
11
103.658021
21
2015.817896
0
LINE
8
Layer 1
10
103.658000
20
2015.820000
11
104.253312
21
2016.304187
0
LINE
8
Layer 1
10
104.253000
20
2016.300000
11
104.766291
21
2016.813291
0
LINE
8
Layer 1
10
104.767000
20
2016.810000
11
104.796104
21
2016.886729
0
LINE
8
Layer 1
10
104.796000
20
2016.890000
11
105.563291
21
2017.480020
0
LINE
8
Layer 1
10
105.563000
20
2017.480000
11
105.981041
21
2017.855708
0
LINE
8
Layer 1
10
105.981000
20
2017.860000
11
106.068312
21
2017.939375
0
LINE
8
Layer 1
10
106.068000
20
2017.940000
11
106.218812
21
2018.096104
0
LINE
8
Layer 1
10
106.219000
20
2018.090000
11
106.877812
21
2018.621812
0
LINE
8
Layer 1
10
106.878000
20
2018.620000
11
107.341020
21
2019.135937
0
LINE
8
Layer 1
10
107.341000
20
2019.140000
11
108.298790
21
2020.047520
0
LINE
8
Layer 1
10
108.299000
20
2020.050000
11
109.706580
21
2021.190350
0
LINE
8
Layer 1
10
109.706000
20
2021.190000
11
111.552790
21
2022.766910
0
LINE
8
Layer 1
10
111.553000
20
2022.760000
11
111.889020
21
2023.008708
0
LINE
8
Layer 1
10
111.889000
20
2023.010000
11
112.187979
21
2023.271937
0
LINE
8
Layer 1
10
112.188000
20
2023.280000
11
112.243562
21
2023.319687
0
LINE
8
Layer 1
10
112.244000
20
2023.310000
11
112.720249
21
2024.087874
0
LINE
8
Layer 1
10
112.720000
20
2024.090000
11
113.069250
21
2024.629749
0
LINE
8
Layer 1
10
113.069000
20
2024.630000
11
113.418250
21
2025.516353
0
LINE
8
Layer 1
10
113.418000
20
2025.520000
11
113.402125
21
2026.440749
0
LINE
8
Layer 1
10
113.403000
20
2026.440000
11
113.043167
21
2027.286666
0
LINE
8
Layer 1
10
113.043000
20
2027.290000
11
112.360376
21
2027.956749
0
LINE
8
Layer 1
10
112.360000
20
2027.950000
11
111.473647
21
2028.299250
0
LINE
8
Layer 1
10
111.474000
20
2028.300000
11
110.555897
21
2028.281479
0
LINE
8
Layer 1
10
110.556000
20
2028.280000
11
109.709334
21
2027.920167
0
LINE
8
Layer 1
10
109.709000
20
2027.920000
11
109.042251
21
2027.240022
0
LINE
8
Layer 1
10
109.042000
20
2027.240000
11
108.560459
21
2026.499168
0
LINE
8
Layer 1
10
108.561000
20
2026.500000
11
106.497250
21
2024.753750
0
LINE
8
Layer 1
10
106.497000
20
2024.760000
11
105.221710
21
2023.733420
0
LINE
8
Layer 1
10
105.222000
20
2023.730000
11
104.182190
21
2022.753689
0
LINE
8
Layer 1
10
104.182000
20
2022.750000
11
104.348687
21
2022.953729
0
LINE
8
Layer 1
10
104.349000
20
2022.960000
11
103.772209
21
2022.417605
0
LINE
8
Layer 1
10
103.772000
20
2022.420000
11
103.499480
21
2022.105146
0
LINE
8
Layer 1
10
103.499000
20
2022.100000
11
103.252938
21
2021.896271
0
LINE
8
Layer 1
10
103.253000
20
2021.900000
11
102.731771
21
2021.394646
0
LINE
8
Layer 1
10
102.732000
20
2021.390000
11
102.459480
21
2021.141292
0
LINE
8
Layer 1
10
102.459000
20
2021.140000
11
101.501210
21
2020.380647
0
LINE
8
Layer 1
10
101.502000
20
2020.380000
11
101.248000
21
2020.094250
0
LINE
8
Layer 1
10
101.248000
20
2020.100000
11
100.657980
21
2019.629042
0
LINE
8
Layer 1
10
100.658000
20
2019.630000
11
100.184396
21
2019.159042
0
LINE
8
Layer 1
10
100.184000
20
2019.160000
11
100.128438
21
2019.064750
0
LINE
8
Layer 1
10
100.128000
20
2019.060000
11
98.363230
21
2017.504250
0
LINE
8
Layer 1
10
98.363700
20
2017.500000
11
96.429600
21
2016.645397
0
LINE
8
Layer 1
10
96.429500
20
2016.650000
11
94.389570
21
2015.869480
0
LINE
8
Layer 1
10
94.389600
20
2015.870000
11
92.476660
21
2015.322313
0
LINE
8
Layer 1
10
92.476700
20
2015.320000
11
91.338990
21
2015.275021
0
LINE
8
Layer 1
10
91.339000
20
2015.280000
11
89.643020
21
2015.372604
0
LINE
8
Layer 1
10
89.643000
20
2015.370000
11
87.822670
21
2015.422917
0
LINE
8
Layer 1
10
87.822700
20
2015.420000
11
86.341040
21
2015.541708
0
LINE
8
Layer 1
10
86.341000
20
2015.540000
11
84.859340
21
2015.965979
0
LINE
8
Layer 1
10
84.859300
20
2015.970000
11
83.060140
21
2016.660562
0
LINE
8
Layer 1
10
83.060200
20
2016.660000
11
81.909260
21
2017.072749
0
LINE
8
Layer 1
10
81.909200
20
2017.070000
11
81.657846
21
2017.144083
0
LINE
8
Layer 1
10
81.657900
20
2017.150000
11
81.411838
21
2017.197625
0
LINE
8
Layer 1
10
81.411800
20
2017.200000
11
80.750343
21
2017.514854
0
LINE
8
Layer 1
10
80.750400
20
2017.510000
11
80.517567
21
2017.581437
0
LINE
8
Layer 1
10
80.517500
20
2017.580000
11
80.300542
21
2017.730812
0
LINE
8
Layer 1
10
80.300600
20
2017.730000
11
77.228790
21
2019.870480
0
LINE
8
Layer 1
10
77.228800
20
2019.870000
11
76.392718
21
2020.346249
0
LINE
8
Layer 1
10
76.392700
20
2020.350000
11
76.511762
21
2020.297083
0
LINE
8
Layer 1
10
76.511700
20
2020.300000
11
76.064555
21
2020.670416
0
LINE
8
Layer 1
10
76.064600
20
2020.670000
11
73.328810
21
2022.892500
0
LINE
8
Layer 1
10
73.328800
20
2022.890000
11
72.209610
21
2023.935100
0
LINE
8
Layer 1
10
72.209600
20
2023.930000
11
71.540205
21
2024.681416
0
LINE
8
Layer 1
10
71.540200
20
2024.690000
11
70.764972
21
2026.044660
0
LINE
8
Layer 1
10
70.765000
20
2026.040000
11
70.193501
21
2027.384080
0
LINE
8
Layer 1
10
70.193500
20
2027.380000
11
69.862771
21
2028.523000
0
LINE
8
Layer 1
10
69.862800
20
2028.530000
11
69.214572
21
2030.064580
0
LINE
8
Layer 1
10
69.214500
20
2030.060000
11
68.947271
21
2030.983395
0
LINE
8
Layer 1
10
68.947300
20
2030.990000
11
68.751509
21
2032.050980
0
LINE
8
Layer 1
10
68.751500
20
2032.050000
11
67.949814
21
2035.873220
0
LINE
8
Layer 1
10
67.949800
20
2035.870000
11
67.322738
21
2038.989430
0
LINE
8
Layer 1
10
67.322800
20
2038.990000
11
66.978842
21
2041.932160
0
LINE
8
Layer 1
10
66.978800
20
2041.930000
11
66.954988
21
2043.702710
0
LINE
8
Layer 1
10
66.955000
20
2043.700000
11
67.026437
21
2045.538850
0
LINE
8
Layer 1
10
67.026400
20
2045.540000
11
67.052858
21
2048.984870
0
LINE
8
Layer 1
10
67.052900
20
2048.990000
11
67.248691
21
2052.114730
0
LINE
8
Layer 1
10
67.248700
20
2052.110000
11
67.251346
21
2052.125875
0
LINE
8
Layer 1
10
67.251300
20
2052.130000
11
67.312154
21
2052.426333
0
LINE
8
Layer 1
10
67.312200
20
2052.420000
11
67.502700
21
2053.343395
0
LINE
8
Layer 1
10
67.502700
20
2053.350000
11
67.841366
21
2054.995710
0
LINE
8
Layer 1
10
67.841400
20
2054.990000
11
68.801836
21
2059.733970
0
LINE
8
Layer 1
10
68.801800
20
2059.740000
11
70.172340
21
2065.238030
0
LINE
8
Layer 1
10
70.172300
20
2065.240000
11
71.564010
21
2071.481510
0
LINE
8
Layer 1
10
71.564000
20
2071.480000
11
73.156790
21
2078.840700
0
LINE
8
Layer 1
10
73.156800
20
2078.840000
11
74.474420
21
2083.144770
0
LINE
8
Layer 1
10
74.474500
20
2083.140000
11
76.379500
21
2090.622410
0
LINE
8
Layer 1
10
76.379500
20
2090.620000
11
76.744625
21
2092.554100
0
LINE
8
Layer 1
10
76.744600
20
2092.560000
11
77.683870
21
2096.314430
0
LINE
8
Layer 1
10
77.683800
20
2096.310000
11
78.141529
21
2097.878980
0
LINE
8
Layer 1
10
78.141600
20
2097.880000
11
78.525245
21
2100.584040
0
LINE
8
Layer 1
10
78.525200
20
2100.590000
11
78.469638
21
2101.542499
0
LINE
8
Layer 1
10
78.469700
20
2101.540000
11
78.067534
21
2102.365499
0
LINE
8
Layer 1
10
78.067500
20
2102.360000
11
77.382230
21
2102.976478
0
LINE
8
Layer 1
10
77.382200
20
2102.980000
11
76.485264
21
2103.297500
0
LINE
8
Layer 1
10
76.485300
20
2103.300000
11
76.485300
21
2103.290000
0
LINE
8
Layer 1
10
76.485300
20
2103.290000
11
75.532801
21
2103.234438
0
LINE
8
Layer 1
10
75.532800
20
2103.230000
11
74.704655
21
2102.825188
0
LINE
8
Layer 1
10
74.704600
20
2102.830000
11
74.090767
21
2102.147376
0
LINE
8
Layer 1
10
74.090800
20
2102.150000
11
73.773300
21
2101.250418
0
LINE
8
Layer 1
10
73.773300
20
2101.250000
11
73.429342
21
2098.799960
0
LINE
8
Layer 1
10
73.429300
20
2098.800000
11
73.069467
21
2097.627900
0
LINE
8
Layer 1
10
73.069500
20
2097.630000
11
72.053500
21
2093.571300
0
LINE
8
Layer 1
10
72.053500
20
2093.570000
11
71.691021
21
2091.659710
0
LINE
8
Layer 1
10
71.691000
20
2091.660000
11
69.870670
21
2084.497740
0
LINE
8
Layer 1
10
69.870700
20
2084.490000
11
68.502810
21
2080.000030
0
LINE
8
Layer 1
10
68.502800
20
2080.000000
11
66.870320
21
2072.469970
0
LINE
8
Layer 1
10
66.870300
20
2072.470000
11
65.489180
21
2066.276110
0
LINE
8
Layer 1
10
65.489200
20
2066.280000
11
64.134540
21
2060.853400
0
LINE
8
Layer 1
10
64.134500
20
2060.850000
11
63.139668
21
2055.941990
0
LINE
8
Layer 1
10
63.139700
20
2055.950000
11
62.801034
21
2054.309590
0
LINE
8
Layer 1
10
62.801100
20
2054.310000
11
62.610600
21
2053.383960
0
LINE
8
Layer 1
10
62.610600
20
2053.380000
11
62.549746
21
2053.078375
0
LINE
8
Layer 1
10
62.549700
20
2053.080000
11
62.531179
21
2052.987396
0
LINE
8
Layer 1
10
62.531200
20
2052.990000
11
62.523263
21
2052.955604
0
LINE
8
Layer 1
10
62.523200
20
2052.950000
11
62.523200
21
2052.970000
0
LINE
8
Layer 1
10
62.523200
20
2052.970000
11
62.499388
21
2052.808604
0
LINE
8
Layer 1
10
62.499400
20
2052.810000
11
62.242754
21
2049.068800
0
LINE
8
Layer 1
10
62.242800
20
2049.070000
11
62.226925
21
2045.635710
0
LINE
8
Layer 1
10
62.226900
20
2045.640000
11
62.158108
21
2043.753520
0
LINE
8
Layer 1
10
62.158100
20
2043.750000
11
62.181912
21
2041.720650
0
LINE
8
Layer 1
10
62.181900
20
2041.720000
11
62.589358
21
2038.156070
0
LINE
8
Layer 1
10
62.589400
20
2038.160000
11
63.256149
21
2034.858000
0
LINE
8
Layer 1
10
63.256100
20
2034.860000
11
64.047203
21
2031.076460
0
LINE
8
Layer 1
10
64.047200
20
2031.070000
11
64.303846
21
2029.757670
0
LINE
8
Layer 1
10
64.303900
20
2029.760000
11
64.917733
21
2027.918500
0
LINE
8
Layer 1
10
64.917700
20
2027.920000
11
65.343679
21
2026.904000
0
LINE
8
Layer 1
10
65.343700
20
2026.900000
11
65.647970
21
2025.833730
0
LINE
8
Layer 1
10
65.648000
20
2025.840000
11
66.478791
21
2023.876790
0
LINE
8
Layer 1
10
66.478800
20
2023.870000
11
67.484220
21
2022.110520
0
LINE
8
Layer 1
10
67.484200
20
2022.110000
11
68.156241
21
2021.191897
0
LINE
8
Layer 1
10
68.156200
20
2021.200000
11
68.849407
21
2020.461813
0
LINE
8
Layer 1
10
68.849400
20
2020.460000
11
70.061190
21
2019.369920
0
LINE
8
Layer 1
10
70.061200
20
2019.370000
11
73.095970
21
2016.890860
0
LINE
8
Layer 1
10
73.096000
20
2016.890000
11
73.029854
21
2016.924396
0
LINE
8
Layer 1
10
73.029800
20
2016.920000
11
73.098592
21
2016.837979
0
LINE
8
Layer 1
10
73.098600
20
2016.840000
11
73.678037
21
2016.384917
0
LINE
8
Layer 1
10
73.678100
20
2016.390000
11
74.614724
21
2015.844959
0
LINE
8
Layer 1
10
74.614700
20
2015.840000
11
77.585970
21
2013.765670
0
LINE
8
Layer 1
10
77.585900
20
2013.770000
11
77.503879
21
2013.807042
0
LINE
8
Layer 1
10
77.503900
20
2013.800000
11
77.585921
21
2013.707396
0
LINE
8
Layer 1
10
77.585900
20
2013.710000
11
78.313503
21
2013.246980
0
LINE
8
Layer 1
10
78.313600
20
2013.250000
11
78.694600
21
2013.112417
0
LINE
8
Layer 1
10
78.694600
20
2013.110000
11
79.480412
21
2012.744875
0
LINE
8
Layer 1
10
79.480400
20
2012.740000
11
79.591525
21
2012.705604
0
LINE
8
Layer 1
10
79.591500
20
2012.710000
11
78.964438
21
2008.249130
0
LINE
8
Layer 1
10
78.964400
20
2008.250000
11
78.543713
21
2005.575070
0
LINE
8
Layer 1
10
78.543700
20
2005.570000
11
78.234138
21
2002.794520
0
LINE
8
Layer 1
10
78.234200
20
2002.800000
11
77.972263
21
1999.114360
0
LINE
8
Layer 1
10
77.972200
20
1999.110000
11
77.715554
21
1997.379630
0
LINE
8
Layer 1
10
77.715600
20
1997.380000
11
77.353121
21
1995.554380
0
LINE
8
Layer 1
10
77.353100
20
1995.560000
11
77.067350
21
1993.689400
0
LINE
8
Layer 1
10
77.067400
20
1993.690000
11
76.958921
21
1992.811584
0
LINE
8
Layer 1
10
76.958900
20
1992.810000
11
76.532921
21
1989.746130
0
LINE
8
Layer 1
10
76.532900
20
1989.740000
11
76.223338
21
1986.969820
0
LINE
8
Layer 1
10
76.223300
20
1986.970000
11
75.760280
21
1984.303000
0
LINE
8
Layer 1
10
75.760300
20
1984.310000
11
75.498363
21
1982.722500
0
LINE
8
Layer 1
10
75.498400
20
1982.720000
11
19.562900
21
1982.233167
0
LINE
8
Layer 1
10
19.562900
20
1982.230000
11
19.621108
21
1982.409916
0
LINE
8
Layer 1
10
19.621100
20
1982.410000
11
22.147870
21
1982.417937
0
LINE
8
Layer 1
10
22.147900
20
1982.420000
11
22.221983
21
1982.639604
0
LINE
8
Layer 1
10
22.222000
20
1982.640000
11
22.412500
21
1983.248541
0
LINE
8
Layer 1
10
22.412500
20
1983.250000
11
22.446896
21
1983.339958
0
LINE
8
Layer 1
10
22.446900
20
1983.340000
11
22.669150
21
1983.599291
0
LINE
8
Layer 1
10
22.669100
20
1983.600000
11
23.192974
21
1984.541915
0
LINE
8
Layer 1
10
23.193000
20
1984.540000
11
23.587229
21
1985.585100
0
LINE
8
Layer 1
10
23.587200
20
1985.590000
11
23.730075
21
1986.135041
0
LINE
8
Layer 1
10
23.730100
20
1986.130000
11
24.121683
21
1986.929041
0
LINE
8
Layer 1
10
24.121700
20
1986.930000
11
24.703783
21
1988.311120
0
LINE
8
Layer 1
10
24.703700
20
1988.310000
11
24.955054
21
1989.468870
0
LINE
8
Layer 1
10
24.955100
20
1989.470000
11
25.317579
21
1990.110291
0
LINE
8
Layer 1
10
25.317600
20
1990.110000
11
25.889099
21
1991.472600
0
LINE
8
Layer 1
10
25.889100
20
1991.470000
11
26.129871
21
1992.446311
0
LINE
8
Layer 1
10
26.129800
20
1992.450000
11
26.105988
21
1992.608750
0
LINE
8
Layer 1
10
26.106000
20
1992.610000
11
26.582249
21
1993.962020
0
LINE
8
Layer 1
10
26.582300
20
1993.960000
11
26.952716
21
1995.439020
0
LINE
8
Layer 1
10
26.952700
20
1995.440000
11
27.167012
21
1996.471870
0
LINE
8
Layer 1
10
27.167000
20
1996.470000
11
27.137896
21
1996.353583
0
LINE
8
Layer 1
10
27.137900
20
1996.350000
11
27.161712
21
1996.432021
0
LINE
8
Layer 1
10
27.161700
20
1996.440000
11
27.272825
21
1996.834229
0
LINE
8
Layer 1
10
27.272800
20
1996.830000
11
27.537383
21
1997.732228
0
LINE
8
Layer 1
10
27.537400
20
1997.730000
11
27.989837
21
1999.312210
0
LINE
8
Layer 1
10
27.989900
20
1999.310000
11
28.865670
21
2003.199370
0
LINE
8
Layer 1
10
28.865600
20
2003.200000
11
29.288933
21
2004.353580
0
LINE
8
Layer 1
10
29.289000
20
2004.360000
11
29.590625
21
2005.857540
0
LINE
8
Layer 1
10
29.590600
20
2005.860000
11
29.585308
21
2005.897042
0
LINE
8
Layer 1
10
29.585300
20
2005.890000
11
29.688487
21
2006.104312
0
LINE
8
Layer 1
10
29.688500
20
2006.110000
11
30.275874
21
2007.406460
0
LINE
8
Layer 1
10
30.275900
20
2007.400000
11
30.635733
21
2008.759960
0
LINE
8
Layer 1
10
30.635700
20
2008.760000
11
30.659512
21
2008.778521
0
LINE
8
Layer 1
10
30.659500
20
2008.780000
11
31.897750
21
2011.671890
0
LINE
8
Layer 1
10
31.897800
20
2011.670000
11
32.112112
21
2012.006020
0
LINE
8
Layer 1
10
32.112100
20
2012.010000
11
32.535433
21
2013.018060
0
LINE
8
Layer 1
10
32.535400
20
2013.020000
11
32.784108
21
2014.125960
0
LINE
8
Layer 1
10
32.784100
20
2014.120000
11
32.781454
21
2014.321083
0
LINE
8
Layer 1
10
32.781500
20
2014.320000
11
32.739167
21
2014.275021
0
LINE
8
Layer 1
10
32.739100
20
2014.280000
11
33.440245
21
2016.126790
0
LINE
8
Layer 1
10
33.440300
20
2016.130000
11
34.339882
21
2018.418640
0
LINE
8
Layer 1
10
34.339900
20
2018.410000
11
35.112482
21
2020.579580
0
LINE
8
Layer 1
10
35.112400
20
2020.580000
11
35.853232
21
2023.037980
0
LINE
8
Layer 1
10
35.853300
20
2023.040000
11
36.033216
21
2024.056000
0
LINE
8
Layer 1
10
36.033200
20
2024.060000
11
36.670845
21
2025.573410
0
LINE
8
Layer 1
10
36.670800
20
2025.570000
11
36.916862
21
2026.575420
0
LINE
8
Layer 1
10
36.916900
20
2026.580000
11
36.893088
21
2026.749333
0
LINE
8
Layer 1
10
36.893100
20
2026.750000
11
37.959370
21
2029.297930
0
LINE
8
Layer 1
10
37.959400
20
2029.290000
11
39.425190
21
2033.332830
0
LINE
8
Layer 1
10
39.425100
20
2033.340000
11
40.110370
21
2034.943370
0
LINE
8
Layer 1
10
40.110400
20
2034.940000
11
40.499337
21
2036.487810
0
LINE
8
Layer 1
10
40.499300
20
2036.490000
11
41.253362
21
2038.522000
0
LINE
8
Layer 1
10
41.253400
20
2038.520000
11
41.311608
21
2038.694625
0
LINE
8
Layer 1
10
41.311600
20
2038.700000
11
41.306308
21
2038.692063
0
LINE
8
Layer 1
10
41.306300
20
2038.690000
11
41.390967
21
2038.970458
0
LINE
8
Layer 1
10
41.391000
20
2038.970000
11
41.645000
21
2039.808728
0
LINE
8
Layer 1
10
41.645000
20
2039.810000
11
41.904291
21
2040.661957
0
LINE
8
Layer 1
10
41.904300
20
2040.660000
11
42.020717
21
2041.027770
0
LINE
8
Layer 1
10
42.020700
20
2041.030000
11
42.044512
21
2041.106729
0
LINE
8
Layer 1
10
42.044500
20
2041.100000
11
42.010104
21
2041.002104
0
LINE
8
Layer 1
10
42.010100
20
2041.000000
11
45.907410
21
2051.194400
0
LINE
8
Layer 1
10
45.907400
20
2051.200000
11
46.275170
21
2052.422370
0
LINE
8
Layer 1
10
46.275200
20
2052.420000
11
46.470991
21
2053.451870
0
LINE
8
Layer 1
10
46.471000
20
2053.450000
11
46.709125
21
2054.884040
0
LINE
8
Layer 1
10
46.709100
20
2054.890000
11
47.161537
21
2055.945690
0
LINE
8
Layer 1
10
47.161500
20
2055.940000
11
47.664208
21
2057.789440
0
LINE
8
Layer 1
10
47.664300
20
2057.790000
11
48.489799
21
2060.263850
0
LINE
8
Layer 1
10
48.489800
20
2060.270000
11
49.201528
21
2063.069290
0
LINE
8
Layer 1
10
49.201500
20
2063.070000
11
50.601140
21
2070.719090
0
LINE
8
Layer 1
10
50.601100
20
2070.710000
11
51.132912
21
2073.617770
0
LINE
8
Layer 1
10
51.132900
20
2073.620000
11
52.847400
21
2078.408950
0
LINE
8
Layer 1
10
52.847400
20
2078.410000
11
53.088171
21
2079.010603
0
LINE
8
Layer 1
10
53.088200
20
2079.010000
11
53.310450
21
2079.327500
0
LINE
8
Layer 1
10
53.310500
20
2079.330000
11
53.426917
21
2079.565479
0
LINE
8
Layer 1
10
53.426900
20
2079.570000
11
54.003691
21
2081.128390
0
LINE
8
Layer 1
10
54.003700
20
2081.120000
11
54.876824
21
2083.887540
0
LINE
8
Layer 1
10
54.876800
20
2083.890000
11
54.845050
21
2083.805333
0
LINE
8
Layer 1
10
54.845000
20
2083.810000
11
54.945542
21
2084.011083
0
LINE
8
Layer 1
10
54.945600
20
2084.010000
11
55.236641
21
2084.541812
0
LINE
8
Layer 1
10
55.236600
20
2084.540000
11
55.845133
21
2085.698870
0
LINE
8
Layer 1
10
55.845200
20
2085.700000
11
57.411530
21
2089.674040
0
LINE
8
Layer 1
10
57.411500
20
2089.670000
11
58.504230
21
2091.802540
0
LINE
8
Layer 1
10
58.504200
20
2091.800000
11
59.218574
21
2093.900790
0
LINE
8
Layer 1
10
59.218600
20
2093.910000
11
60.856370
21
2097.548020
0
LINE
8
Layer 1
10
60.856400
20
2097.540000
11
61.369699
21
2098.727980
0
LINE
8
Layer 1
10
61.369700
20
2098.730000
11
61.628991
21
2099.396749
0
LINE
8
Layer 1
10
61.628900
20
2099.400000
11
61.710921
21
2099.804812
0
LINE
8
Layer 1
10
61.711000
20
2099.800000
11
61.737458
21
2100.027541
0
LINE
8
Layer 1
10
61.737400
20
2100.030000
11
61.874983
21
2100.368666
0
LINE
8
Layer 1
10
61.875000
20
2100.370000
11
62.917460
21
2102.550160
0
LINE
8
Layer 1
10
62.917500
20
2102.550000
11
64.137230
21
2104.952410
0
LINE
8
Layer 1
10
64.137200
20
2104.950000
11
65.026199
21
2106.950250
0
LINE
8
Layer 1
10
65.026200
20
2106.950000
11
64.973283
21
2106.801834
0
LINE
8
Layer 1
10
64.973300
20
2106.800000
11
65.073842
21
2106.876729
0
LINE
8
Layer 1
10
65.073800
20
2106.880000
11
65.618841
21
2107.774291
0
LINE
8
Layer 1
10
65.618900
20
2107.780000
11
65.991962
21
2108.713978
0
LINE
8
Layer 1
10
65.991900
20
2108.710000
11
66.026296
21
2108.956062
0
LINE
8
Layer 1
10
66.026300
20
2108.960000
11
66.798882
21
2110.682440
0
LINE
8
Layer 1
10
66.798900
20
2110.680000
11
68.534560
21
2113.929080
0
LINE
8
Layer 1
10
68.534600
20
2113.930000
11
69.299245
21
2115.790020
0
LINE
8
Layer 1
10
69.299200
20
2115.790000
11
71.341780
21
2119.771970
0
LINE
8
Layer 1
10
71.341800
20
2119.770000
11
72.360440
21
2121.921060
0
LINE
8
Layer 1
10
72.360400
20
2121.920000
11
73.400210
21
2124.330350
0
LINE
8
Layer 1
10
73.400200
20
2124.330000
11
73.823533
21
2125.597350
0
LINE
8
Layer 1
10
73.823600
20
2125.600000
11
75.045970
21
2127.862180
0
LINE
8
Layer 1
10
75.046000
20
2127.860000
11
75.466687
21
2128.960670
0
LINE
8
Layer 1
10
75.466600
20
2128.960000
11
75.688850
21
2129.893978
0
LINE
8
Layer 1
10
75.688900
20
2129.890000
11
76.408566
21
2131.083270
0
LINE
8
Layer 1
10
76.408600
20
2131.090000
11
76.988037
21
2132.561080
0
LINE
8
Layer 1
10
76.988000
20
2132.560000
11
77.273750
21
2133.425186
0
LINE
8
Layer 1
10
77.273700
20
2133.420000
11
77.728783
21
2134.184645
0
LINE
8
Layer 1
10
77.728800
20
2134.190000
11
78.432591
21
2135.626690
0
LINE
8
Layer 1
10
78.432600
20
2135.630000
11
78.718350
21
2136.603665
0
LINE
8
Layer 1
10
78.718400
20
2136.600000
11
79.715878
21
2138.774870
0
LINE
8
Layer 1
10
79.715800
20
2138.770000
11
81.599630
21
2143.212350
0
LINE
8
Layer 1
10
81.599700
20
2143.220000
11
82.533678
21
2145.506000
0
LINE
8
Layer 1
10
82.533700
20
2145.500000
11
82.658054
21
2145.592604
0
LINE
8
Layer 1
10
82.658000
20
2145.590000
11
83.197749
21
2146.367874
0
LINE
8
Layer 1
10
83.197800
20
2146.370000
11
84.343440
21
2148.669230
0
LINE
8
Layer 1
10
84.343400
20
2148.670000
11
85.131857
21
2150.548540
0
LINE
8
Layer 1
10
85.131900
20
2150.550000
11
85.370025
21
2151.015666
0
LINE
8
Layer 1
10
85.370000
20
2151.020000
11
85.624000
21
2151.295166
0
LINE
8
Layer 1
10
85.624000
20
2151.290000
11
86.187562
21
2152.157832
0
LINE
8
Layer 1
10
86.187500
20
2152.160000
11
88.812160
21
2157.173850
0
LINE
8
Layer 1
10
88.812200
20
2157.170000
11
90.444680
21
2159.543310
0
LINE
8
Layer 1
10
90.444700
20
2159.550000
11
92.847110
21
2163.508160
0
LINE
8
Layer 1
10
92.847100
20
2163.500000
11
93.090516
21
2163.878354
0
LINE
8
Layer 1
10
93.090500
20
2163.880000
11
92.966146
21
2163.676271
0
LINE
8
Layer 1
10
92.966200
20
2163.680000
11
93.103783
21
2163.727625
0
LINE
8
Layer 1
10
93.103700
20
2163.730000
11
93.921261
21
2164.738060
0
LINE
8
Layer 1
10
93.921300
20
2164.730000
11
94.447820
21
2165.804210
0
LINE
8
Layer 1
10
94.447800
20
2165.810000
11
94.553633
21
2166.209520
0
LINE
8
Layer 1
10
94.553700
20
2166.210000
11
96.194110
21
2168.781750
0
LINE
8
Layer 1
10
96.194100
20
2168.780000
11
97.080453
21
2170.632080
0
LINE
8
Layer 1
10
97.080400
20
2170.630000
11
97.691587
21
2171.405228
0
LINE
8
Layer 1
10
97.691600
20
2171.410000
11
98.601766
21
2172.669420
0
LINE
8
Layer 1
10
98.601800
20
2172.670000
11
100.422130
21
2175.741810
0
LINE
8
Layer 1
10
100.422000
20
2175.740000
11
100.858562
21
2176.613124
0
LINE
8
Layer 1
10
100.859000
20
2176.610000
11
100.930437
21
2176.771396
0
LINE
8
Layer 1
10
100.930000
20
2176.770000
11
101.051708
21
2177.074270
0
LINE
8
Layer 1
10
101.052000
20
2177.080000
11
101.906603
21
2178.249460
0
LINE
8
Layer 1
10
101.906000
20
2178.250000
11
103.374440
21
2180.932870
0
LINE
8
Layer 1
10
103.375000
20
2180.930000
11
103.340604
21
2180.855917
0
LINE
8
Layer 1
10
103.340000
20
2180.860000
11
103.435250
21
2180.989646
0
LINE
8
Layer 1
10
103.436000
20
2180.990000
11
103.798479
21
2181.492708
0
LINE
8
Layer 1
10
103.798000
20
2181.490000
11
104.493853
21
2182.423978
0
LINE
8
Layer 1
10
104.494000
20
2182.420000
11
104.877645
21
2183.105270
0
LINE
8
Layer 1
10
104.878000
20
2183.110000
11
104.899167
21
2183.223771
0
LINE
8
Layer 1
10
104.899000
20
2183.220000
11
106.407120
21
2185.484830
0
LINE
8
Layer 1
10
106.407000
20
2185.490000
11
108.071230
21
2188.117310
0
LINE
8
Layer 1
10
108.071000
20
2188.110000
11
108.806541
21
2189.805980
0
LINE
8
Layer 1
10
108.807000
20
2189.810000
11
109.809770
21
2191.527140
0
LINE
8
Layer 1
10
109.810000
20
2191.530000
11
111.040310
21
2193.503790
0
LINE
8
Layer 1
10
111.040000
20
2193.500000
11
112.048060
21
2195.373250
0
LINE
8
Layer 1
10
112.048000
20
2195.370000
11
112.521604
21
2195.922978
0
LINE
8
Layer 1
10
112.521000
20
2195.930000
11
112.716791
21
2196.176062
0
LINE
8
Layer 1
10
112.717000
20
2196.170000
11
114.201310
21
2198.670310
0
LINE
8
Layer 1
10
114.202000
20
2198.670000
11
115.461420
21
2200.479750
0
LINE
8
Layer 1
10
115.461000
20
2200.480000
11
116.797140
21
2202.591370
0
LINE
8
Layer 1
10
116.797000
20
2202.590000
11
117.397603
21
2204.013460
0
LINE
8
Layer 1
10
117.398000
20
2204.020000
11
117.593791
21
2204.750249
0
LINE
8
Layer 1
10
117.594000
20
2204.750000
11
118.154916
21
2205.810980
0
LINE
8
Layer 1
10
118.154000
20
2205.810000
11
118.564104
21
2207.077350
0
LINE
8
Layer 1
10
118.565000
20
2207.080000
11
118.811062
21
2208.133040
0
LINE
8
Layer 1
10
118.811000
20
2208.130000
11
119.144375
21
2210.662060
0
LINE
8
Layer 1
10
119.144000
20
2210.660000
11
119.080500
21
2213.120620
0
LINE
8
Layer 1
10
119.081000
20
2213.120000
11
118.430126
21
2217.538540
0
LINE
8
Layer 1
10
118.430000
20
2217.540000
11
118.382375
21
2218.230562
0
LINE
8
Layer 1
10
118.382000
20
2218.230000
11
118.135938
21
2219.494710
0
LINE
8
Layer 1
10
118.136000
20
2219.500000
11
117.889938
21
2220.248770
0
LINE
8
Layer 1
10
117.890000
20
2220.240000
11
117.696854
21
2221.740190
0
LINE
8
Layer 1
10
117.697000
20
2221.740000
11
117.112272
21
2223.959850
0
LINE
8
Layer 1
10
117.112000
20
2223.960000
11
116.167439
21
2228.211850
0
LINE
8
Layer 1
10
116.167000
20
2228.220000
11
115.793938
21
2229.318020
0
LINE
8
Layer 1
10
115.794000
20
2229.310000
11
115.833687
21
2229.238563
0
LINE
8
Layer 1
10
115.834000
20
2229.240000
11
115.836646
21
2229.382875
0
LINE
8
Layer 1
10
115.837000
20
2229.390000
11
115.625334
21
2230.294874
0
LINE
8
Layer 1
10
115.625000
20
2230.290000
11
115.212251
21
2231.443580
0
LINE
8
Layer 1
10
115.212000
20
2231.440000
11
115.005625
21
2231.821000
0
LINE
8
Layer 1
10
115.006000
20
2231.820000
11
114.228126
21
2234.714540
0
LINE
8
Layer 1
10
114.228000
20
2234.720000
11
113.267564
21
2237.646290
0
LINE
8
Layer 1
10
113.268000
20
2237.650000
11
111.704310
21
2241.420310
0
LINE
8
Layer 1
10
111.704000
20
2241.420000
11
111.746333
21
2241.369729
0
LINE
8
Layer 1
10
111.746000
20
2241.370000
11
111.738063
21
2241.555208
0
LINE
8
Layer 1
10
111.738000
20
2241.550000
11
111.425792
21
2242.573940
0
LINE
8
Layer 1
10
111.426000
20
2242.570000
11
110.941813
21
2243.525145
0
LINE
8
Layer 1
10
110.942000
20
2243.530000
11
110.820292
21
2243.670229
0
LINE
8
Layer 1
10
110.820000
20
2243.670000
11
110.822646
21
2243.603854
0
LINE
8
Layer 1
10
110.823000
20
2243.600000
11
109.550360
21
2247.060750
0
LINE
8
Layer 1
10
109.550000
20
2247.060000
11
108.788001
21
2248.541660
0
LINE
8
Layer 1
10
108.788000
20
2248.550000
11
108.256188
21
2249.380791
0
LINE
8
Layer 1
10
108.256000
20
2249.380000
11
107.999354
21
2250.274291
0
LINE
8
Layer 1
10
108.000000
20
2250.270000
11
107.177147
21
2252.156480
0
LINE
8
Layer 1
10
107.177000
20
2252.160000
11
107.221979
21
2252.120312
0
LINE
8
Layer 1
10
107.222000
20
2252.120000
11
107.211417
21
2252.347541
0
LINE
8
Layer 1
10
107.211000
20
2252.350000
11
106.785021
21
2253.503580
0
LINE
8
Layer 1
10
106.785000
20
2253.500000
11
106.295521
21
2254.306978
0
LINE
8
Layer 1
10
106.296000
20
2254.310000
11
106.007605
21
2254.608979
0
LINE
8
Layer 1
10
106.007000
20
2254.610000
11
105.824438
21
2255.022749
0
LINE
8
Layer 1
10
105.825000
20
2255.020000
11
104.584110
21
2257.440930
0
LINE
8
Layer 1
10
104.584000
20
2257.440000
11
104.626333
21
2257.384438
0
LINE
8
Layer 1
10
104.626000
20
2257.380000
11
104.604833
21
2257.522875
0
LINE
8
Layer 1
10
104.605000
20
2257.530000
11
104.282209
21
2258.363436
0
LINE
8
Layer 1
10
104.282000
20
2258.360000
11
103.398293
21
2259.968660
0
LINE
8
Layer 1
10
103.399000
20
2259.970000
11
102.703147
21
2261.134170
0
LINE
8
Layer 1
10
102.703000
20
2261.130000
11
102.253209
21
2262.106311
0
LINE
8
Layer 1
10
102.253000
20
2262.110000
11
101.837605
21
2262.726478
0
LINE
8
Layer 1
10
101.838000
20
2262.730000
11
101.464938
21
2263.574020
0
LINE
8
Layer 1
10
101.465000
20
2263.570000
11
101.086646
21
2264.167958
0
LINE
8
Layer 1
10
101.086000
20
2264.170000
11
100.644146
21
2264.807645
0
LINE
8
Layer 1
10
100.644000
20
2264.810000
11
100.218021
21
2265.421187
0
LINE
8
Layer 1
10
100.218000
20
2265.420000
11
100.051313
21
2265.668708
0
LINE
8
Layer 1
10
100.052000
20
2265.670000
11
100.052000
21
2265.660000
0
LINE
8
Layer 1
10
100.052000
20
2265.660000
11
99.223855
21
2267.268660
0
LINE
8
Layer 1
10
99.223500
20
2267.270000
11
99.112375
21
2267.476375
0
LINE
8
Layer 1
10
99.112400
20
2267.470000
11
98.427130
21
2268.480710
0
LINE
8
Layer 1
10
98.427200
20
2268.480000
11
97.977409
21
2268.905979
0
LINE
8
Layer 1
10
97.977400
20
2268.910000
11
97.956233
21
2268.923229
0
LINE
8
Layer 1
10
97.956200
20
2268.920000
11
96.032680
21
2272.280200
0
LINE
8
Layer 1
10
96.032700
20
2272.280000
11
95.029930
21
2273.677000
0
LINE
8
Layer 1
10
95.029900
20
2273.680000
11
94.786484
21
2274.322937
0
LINE
8
Layer 1
10
94.786500
20
2274.320000
11
93.892209
21
2275.711710
0
LINE
8
Layer 1
10
93.892200
20
2275.710000
11
92.992618
21
2276.810670
0
LINE
8
Layer 1
10
92.992600
20
2276.810000
11
92.352309
21
2277.974170
0
LINE
8
Layer 1
10
92.352300
20
2277.980000
11
91.458009
21
2279.699790
0
LINE
8
Layer 1
10
91.458000
20
2279.700000
11
89.468340
21
2283.076080
0
LINE
8
Layer 1
10
89.468400
20
2283.070000
11
88.015840
21
2285.234290
0
LINE
8
Layer 1
10
88.015800
20
2285.240000
11
86.769610
21
2286.946560
0
LINE
8
Layer 1
10
86.769600
20
2286.950000
11
85.272060
21
2289.537620
0
LINE
8
Layer 1
10
85.272100
20
2289.530000
11
83.838060
21
2292.302830
0
LINE
8
Layer 1
10
83.838000
20
2292.310000
11
83.216230
21
2293.720230
0
LINE
8
Layer 1
10
83.216300
20
2293.720000
11
82.655384
21
2294.585186
0
LINE
8
Layer 1
10
82.655400
20
2294.580000
11
82.139463
21
2296.405620
0
LINE
8
Layer 1
10
82.139400
20
2296.410000
11
81.520276
21
2297.709100
0
LINE
8
Layer 1
10
81.520300
20
2297.710000
11
81.250425
21
2298.236520
0
LINE
8
Layer 1
10
81.250400
20
2298.230000
11
80.451359
21
2300.923450
0
LINE
8
Layer 1
10
80.451400
20
2300.930000
11
79.326920
21
2304.001810
0
LINE
8
Layer 1
10
79.326900
20
2304.000000
11
78.980296
21
2304.809624
0
LINE
8
Layer 1
10
78.980300
20
2304.810000
11
78.628405
21
2305.460874
0
LINE
8
Layer 1
10
78.628400
20
2305.460000
11
78.310900
21
2306.298728
0
LINE
8
Layer 1
10
78.310900
20
2306.300000
11
77.771151
21
2307.871620
0
LINE
8
Layer 1
10
77.771200
20
2307.870000
11
77.273784
21
2308.803978
0
LINE
8
Layer 1
10
77.273700
20
2308.800000
11
77.268408
21
2308.998437
0
LINE
8
Layer 1
10
77.268400
20
2309.000000
11
77.032921
21
2309.875770
0
LINE
8
Layer 1
10
77.033000
20
2309.880000
11
76.646709
21
2310.866895
0
LINE
8
Layer 1
10
76.646700
20
2310.860000
11
76.075201
21
2311.910390
0
LINE
8
Layer 1
10
76.075200
20
2311.910000
11
75.924388
21
2312.320104
0
LINE
8
Layer 1
10
75.924400
20
2312.320000
11
74.262820
21
2315.995060
0
LINE
8
Layer 1
10
74.262800
20
2316.000000
11
73.447884
21
2317.531940
0
LINE
8
Layer 1
10
73.447900
20
2317.530000
11
73.545796
21
2317.334209
0
LINE
8
Layer 1
10
73.545800
20
2317.340000
11
73.564321
21
2317.371750
0
LINE
8
Layer 1
10
73.564300
20
2317.370000
11
73.334113
21
2318.131999
0
LINE
8
Layer 1
10
73.334100
20
2318.130000
11
72.630309
21
2319.804810
0
LINE
8
Layer 1
10
72.630300
20
2319.800000
11
72.619717
21
2319.815875
0
LINE
8
Layer 1
10
72.619700
20
2319.820000
11
72.439784
21
2320.259208
0
LINE
8
Layer 1
10
72.439800
20
2320.260000
11
70.759700
21
2324.879620
0
LINE
8
Layer 1
10
70.759700
20
2324.880000
11
69.328310
21
2329.256200
0
LINE
8
Layer 1
10
69.328300
20
2329.250000
11
68.912905
21
2331.072980
0
LINE
8
Layer 1
10
68.912900
20
2331.080000
11
68.349338
21
2332.606640
0
LINE
8
Layer 1
10
68.349400
20
2332.600000
11
67.920776
21
2334.004940
0
LINE
8
Layer 1
10
67.920700
20
2334.010000
11
67.904825
21
2334.044396
0
LINE
8
Layer 1
10
67.904900
20
2334.040000
11
67.822879
21
2334.706749
0
LINE
8
Layer 1
10
67.822800
20
2334.710000
11
67.428571
21
2336.342480
0
LINE
8
Layer 1
10
67.428600
20
2336.340000
11
67.013205
21
2337.549140
0
LINE
8
Layer 1
10
67.013200
20
2337.550000
11
65.909890
21
2342.227830
0
LINE
8
Layer 1
10
65.909900
20
2342.230000
11
65.124088
21
2347.008370
0
LINE
8
Layer 1
10
65.124100
20
2347.010000
11
64.864809
21
2349.745790
0
LINE
8
Layer 1
10
64.864800
20
2349.740000
11
64.732508
21
2352.576330
0
LINE
8
Layer 1
10
64.732500
20
2352.580000
11
64.407063
21
2358.535760
0
LINE
8
Layer 1
10
64.407100
20
2358.540000
11
63.957309
21
2362.434660
0
LINE
8
Layer 1
10
63.957300
20
2362.430000
11
63.819717
21
2365.324540
0
LINE
8
Layer 1
10
63.819700
20
2365.330000
11
63.560409
21
2368.131930
0
LINE
8
Layer 1
10
63.560400
20
2368.130000
11
63.417525
21
2370.701750
0
LINE
8
Layer 1
10
63.417500
20
2370.700000
11
63.687375
21
2376.078970
0
LINE
8
Layer 1
10
63.687400
20
2376.080000
11
64.200691
21
2381.649470
0
LINE
8
Layer 1
10
64.200700
20
2381.650000
11
64.227158
21
2381.951625
0
LINE
8
Layer 1
10
64.227200
20
2381.950000
11
64.449450
21
2387.167580
0
LINE
8
Layer 1
10
64.449400
20
2387.170000
11
64.549942
21
2389.606810
0
LINE
8
Layer 1
10
64.549900
20
2389.600000
11
64.795962
21
2391.907160
0
LINE
8
Layer 1
10
64.796000
20
2391.910000
11
64.798646
21
2391.920583
0
LINE
8
Layer 1
10
64.798700
20
2391.920000
11
64.803992
21
2391.949104
0
LINE
8
Layer 1
10
64.803900
20
2391.950000
11
65.057900
21
2392.936895
0
LINE
8
Layer 1
10
65.057900
20
2392.940000
11
65.605587
21
2395.088410
0
LINE
8
Layer 1
10
65.605600
20
2395.090000
11
65.605600
21
2395.090000
0
LINE
8
Layer 1
10
65.605600
20
2395.090000
11
66.849140
21
2401.220390
0
LINE
8
Layer 1
10
66.849200
20
2401.220000
11
66.849200
21
2401.220000
0
LINE
8
Layer 1
10
66.849200
20
2401.220000
11
67.137595
21
2402.696370
0
LINE
8
Layer 1
10
67.137600
20
2402.700000
11
67.275183
21
2403.406437
0
LINE
8
Layer 1
10
67.275100
20
2403.400000
11
67.277746
21
2403.413229
0
LINE
8
Layer 1
10
67.277800
20
2403.410000
11
68.042445
21
2406.013500
0
LINE
8
Layer 1
10
68.042400
20
2406.020000
11
68.373129
21
2407.152420
0
LINE
8
Layer 1
10
68.373200
20
2407.150000
11
68.717158
21
2408.414710
0
LINE
8
Layer 1
10
68.717100
20
2408.420000
11
68.624496
21
2408.308875
0
LINE
8
Layer 1
10
68.624500
20
2408.300000
11
68.643021
21
2408.342333
0
LINE
8
Layer 1
10
68.643000
20
2408.350000
11
68.701208
21
2408.506104
0
LINE
8
Layer 1
10
68.701300
20
2408.500000
11
68.725113
21
2408.439146
0
LINE
8
Layer 1
10
68.725100
20
2408.440000
11
68.873266
21
2408.987687
0
LINE
8
Layer 1
10
68.873200
20
2408.990000
11
68.923471
21
2409.333958
0
LINE
8
Layer 1
10
68.923500
20
2409.330000
11
68.881167
21
2409.962353
0
LINE
8
Layer 1
10
68.881200
20
2409.970000
11
69.537366
21
2412.216310
0
LINE
8
Layer 1
10
69.537300
20
2412.210000
11
69.772779
21
2413.837190
0
LINE
8
Layer 1
10
69.772800
20
2413.840000
11
70.013571
21
2414.898330
0
LINE
8
Layer 1
10
70.013600
20
2414.900000
11
70.077100
21
2414.989958
0
LINE
8
Layer 1
10
70.077100
20
2414.990000
11
70.362850
21
2415.717603
0
LINE
8
Layer 1
10
70.362800
20
2415.720000
11
70.571821
21
2416.508457
0
LINE
8
Layer 1
10
70.571900
20
2416.500000
11
70.897337
21
2418.256830
0
LINE
8
Layer 1
10
70.897300
20
2418.260000
11
71.077216
21
2419.749600
0
LINE
8
Layer 1
10
71.077200
20
2419.750000
11
71.892116
21
2423.467390
0
LINE
8
Layer 1
10
71.892100
20
2423.470000
11
72.045558
21
2424.226707
0
LINE
8
Layer 1
10
72.045600
20
2424.220000
11
72.040308
21
2424.304667
0
LINE
8
Layer 1
10
72.040300
20
2424.310000
11
71.992675
21
2424.198875
0
LINE
8
Layer 1
10
71.992700
20
2424.200000
11
73.172740
21
2427.083950
0
LINE
8
Layer 1
10
73.172700
20
2427.080000
11
73.598679
21
2428.516690
0
LINE
8
Layer 1
10
73.598700
20
2428.520000
11
76.212780
21
2435.706070
0
LINE
8
Layer 1
10
76.212800
20
2435.700000
11
76.617612
21
2437.382750
0
LINE
8
Layer 1
10
76.617600
20
2437.390000
11
76.739308
21
2438.107020
0
LINE
8
Layer 1
10
76.739300
20
2438.100000
11
76.776342
21
2438.356646
0
LINE
8
Layer 1
10
76.776300
20
2438.360000
11
77.800240
21
2442.408120
0
LINE
8
Layer 1
10
77.800300
20
2442.410000
11
77.914071
21
2442.560812
0
LINE
8
Layer 1
10
77.914000
20
2442.560000
11
78.218270
21
2443.504561
0
LINE
8
Layer 1
10
78.218300
20
2443.500000
11
78.374404
21
2444.555690
0
LINE
8
Layer 1
10
78.374400
20
2444.560000
11
78.572837
21
2445.102395
0
LINE
8
Layer 1
10
78.572800
20
2445.100000
11
78.927341
21
2446.428210
0
LINE
8
Layer 1
10
78.927400
20
2446.430000
11
79.620607
21
2447.935480
0
LINE
8
Layer 1
10
79.620600
20
2447.940000
11
80.557224
21
2449.937600
0
LINE
8
Layer 1
10
80.557200
20
2449.930000
11
82.038860
21
2453.671200
0
LINE
8
Layer 1
10
82.038900
20
2453.680000
11
82.147379
21
2453.896958
0
LINE
8
Layer 1
10
82.147400
20
2453.890000
11
82.150046
21
2453.892646
0
LINE
8
Layer 1
10
82.150000
20
2453.890000
11
83.594620
21
2456.805700
0
LINE
8
Layer 1
10
83.594600
20
2456.810000
11
84.237537
21
2458.111750
0
LINE
8
Layer 1
10
84.237600
20
2458.110000
11
84.237600
21
2458.110000
0
LINE
8
Layer 1
10
84.237600
20
2458.110000
11
85.258890
21
2459.909160
0
LINE
8
Layer 1
10
85.258900
20
2459.910000
11
87.343810
21
2463.579770
0
LINE
8
Layer 1
10
87.343800
20
2463.580000
11
87.984091
21
2464.810310
0
LINE
8
Layer 1
10
87.984100
20
2464.810000
11
87.984100
21
2464.810000
0
LINE
8
Layer 1
10
87.984100
20
2464.810000
11
90.309780
21
2469.284100
0
LINE
8
Layer 1
10
90.309700
20
2469.280000
11
91.024074
21
2470.637310
0
LINE
8
Layer 1
10
91.024100
20
2470.640000
11
91.386579
21
2471.671870
0
LINE
8
Layer 1
10
91.386600
20
2471.670000
11
91.397183
21
2471.775833
0
LINE
8
Layer 1
10
91.397200
20
2471.780000
11
91.373387
21
2471.674167
0
LINE
8
Layer 1
10
91.373400
20
2471.670000
11
91.331067
21
2471.431875
0
LINE
8
Layer 1
10
91.331000
20
2471.430000
11
91.733166
21
2472.329582
0
LINE
8
Layer 1
10
91.733200
20
2472.330000
11
93.778430
21
2476.087080
0
LINE
8
Layer 1
10
93.778400
20
2476.090000
11
95.381770
21
2479.132700
0
LINE
8
Layer 1
10
95.381800
20
2479.130000
11
96.863460
21
2481.828750
0
LINE
8
Layer 1
10
96.863500
20
2481.830000
11
99.178600
21
2484.846250
0
LINE
8
Layer 1
10
99.178600
20
2484.850000
11
102.361530
21
2489.056870
0
LINE
8
Layer 1
10
102.362000
20
2489.060000
11
104.150580
21
2491.097290
0
LINE
8
Layer 1
10
104.150000
20
2491.090000
11
104.933166
21
2492.201250
0
LINE
8
Layer 1
10
104.933000
20
2492.200000
11
105.213458
21
2492.491041
0
LINE
8
Layer 1
10
105.214000
20
2492.490000
11
106.060666
21
2493.098541
0
LINE
8
Layer 1
10
106.060000
20
2493.100000
11
107.139500
21
2494.026040
0
LINE
8
Layer 1
10
107.140000
20
2494.030000
11
107.565979
21
2494.506249
0
LINE
8
Layer 1
10
107.566000
20
2494.510000
11
107.669187
21
2494.721666
0
LINE
8
Layer 1
10
107.669000
20
2494.720000
11
108.190229
21
2495.249166
0
LINE
8
Layer 1
10
108.190000
20
2495.250000
11
108.967874
21
2495.884999
0
LINE
8
Layer 1
10
108.968000
20
2495.880000
11
113.312450
21
2500.139790
0
LINE
8
Layer 1
10
113.313000
20
2500.140000
11
113.797187
21
2500.483958
0
LINE
8
Layer 1
10
113.797000
20
2500.490000
11
114.860620
21
2501.548330
0
LINE
8
Layer 1
10
114.860000
20
2501.540000
11
114.701250
21
2501.354792
0
LINE
8
Layer 1
10
114.702000
20
2501.360000
11
116.810730
21
2503.635410
0
LINE
8
Layer 1
10
116.810000
20
2503.630000
11
117.997980
21
2504.503124
0
LINE
8
Layer 1
10
117.998000
20
2504.510000
11
119.365890
21
2505.356666
0
LINE
8
Layer 1
10
119.366000
20
2505.350000
11
122.440450
21
2507.069790
0
LINE
8
Layer 1
10
122.441000
20
2507.070000
11
123.083937
21
2507.519791
0
LINE
8
Layer 1
10
123.084000
20
2507.520000
11
123.427958
21
2507.652292
0
LINE
8
Layer 1
10
123.428000
20
2507.660000
11
126.748520
21
2508.638957
0
LINE
8
Layer 1
10
126.748000
20
2508.630000
11
130.401890
21
2509.979370
0
LINE
8
Layer 1
10
130.402000
20
2509.980000
11
131.896890
21
2510.271041
0
LINE
8
Layer 1
10
131.897000
20
2510.270000
11
133.640600
21
2510.825624
0
LINE
8
Layer 1
10
133.641000
20
2510.830000
11
134.741670
21
2511.279791
0
LINE
8
Layer 1
10
134.741000
20
2511.280000
11
135.352187
21
2511.306458
0
LINE
8
Layer 1
10
135.352000
20
2511.310000
11
136.423560
21
2511.574583
0
LINE
8
Layer 1
10
136.424000
20
2511.570000
11
138.490390
21
2512.204999
0
LINE
8
Layer 1
10
138.490000
20
2512.210000
11
139.516580
21
2512.157083
0
LINE
8
Layer 1
10
139.517000
20
2512.150000
11
141.691870
21
2512.308750
0
LINE
8
Layer 1
10
141.692000
20
2512.310000
11
143.631390
21
2512.548125
0
LINE
8
Layer 1
10
143.631000
20
2512.550000
11
147.044120
21
2512.523542
0
LINE
8
Layer 1
10
147.044000
20
2512.520000
11
152.198080
21
2512.731666
0
LINE
8
Layer 1
10
152.198000
20
2512.740000
11
152.198000
21
2512.740000
0
LINE
8
Layer 1
10
67.904900
20
2334.040000
11
67.915483
21
2333.939458
0
LINE
8
Layer 1
10
67.915400
20
2333.940000
11
67.904817
21
2334.040542
0
LINE
8
Layer 1
10
67.904900
20
2334.040000
11
67.904900
21
2334.040000
0
LINE
8
Layer 1
10
108.256000
20
2249.370000
11
108.142229
21
2249.549916
0
LINE
8
Layer 1
10
108.143000
20
2249.550000
11
108.256771
21
2249.370084
0
LINE
8
Layer 1
10
108.256000
20
2249.370000
11
108.256000
21
2249.370000
0
LINE
8
Layer 1
10
237.426000
20
2416.920000
11
237.457750
21
2416.880312
0
LINE
8
Layer 1
10
237.458000
20
2416.880000
11
237.426250
21
2416.919688
0
LINE
8
Layer 1
10
237.426000
20
2416.920000
11
237.426000
21
2416.920000
0
LINE
8
Layer 1
10
72.479500
20
2467.640000
11
73.365853
21
2467.637354
0
LINE
8
Layer 1
10
73.365800
20
2467.640000
11
73.365800
21
2467.640000
0
LINE
8
Layer 1
10
73.365800
20
2467.640000
11
74.995630
21
2467.470667
0
LINE
8
Layer 1
10
74.995700
20
2467.470000
11
76.638760
21
2467.110167
0
LINE
8
Layer 1
10
76.638700
20
2467.110000
11
79.927470
21
2465.932610
0
LINE
8
Layer 1
10
79.927500
20
2465.930000
11
79.948667
21
2465.919417
0
LINE
8
Layer 1
10
79.948700
20
2465.920000
11
82.504570
21
2464.771710
0
LINE
8
Layer 1
10
82.504500
20
2464.770000
11
79.977730
21
2460.330300
0
LINE
8
Layer 1
10
79.977800
20
2460.330000
11
78.932700
21
2458.218630
0
LINE
8
Layer 1
10
78.932700
20
2458.220000
11
77.144120
21
2459.021686
0
LINE
8
Layer 1
10
77.144100
20
2459.020000
11
77.067371
21
2459.049104
0
LINE
8
Layer 1
10
77.067400
20
2459.050000
11
74.223130
21
2459.772312
0
LINE
8
Layer 1
10
74.223100
20
2459.780000
11
72.736140
21
2459.936104
0
LINE
8
Layer 1
10
72.736100
20
2459.930000
11
71.217390
21
2459.927354
0
LINE
8
Layer 1
10
71.217400
20
2459.930000
11
70.889317
21
2459.885021
0
LINE
8
Layer 1
10
70.889400
20
2459.880000
11
69.002920
21
2459.374646
0
LINE
8
Layer 1
10
69.002900
20
2459.380000
11
67.248710
21
2458.681501
0
LINE
8
Layer 1
10
67.248700
20
2458.680000
11
64.097520
21
2456.970790
0
LINE
8
Layer 1
10
64.097500
20
2456.970000
11
64.063104
21
2456.948833
0
LINE
8
Layer 1
10
64.063100
20
2456.950000
11
61.356420
21
2455.052940
0
LINE
8
Layer 1
10
61.356400
20
2455.050000
11
58.837560
21
2452.928040
0
LINE
8
Layer 1
10
58.837600
20
2452.930000
11
56.517210
21
2450.604320
0
LINE
8
Layer 1
10
56.517200
20
2450.610000
11
54.397900
21
2448.109690
0
LINE
8
Layer 1
10
54.397900
20
2448.110000
11
54.355567
21
2448.057083
0
LINE
8
Layer 1
10
54.355600
20
2448.050000
11
52.606710
21
2445.245420
0
LINE
8
Layer 1
10
52.606700
20
2445.250000
11
51.249390
21
2442.453360
0
LINE
8
Layer 1
10
51.249400
20
2442.450000
11
51.230879
21
2442.407667
0
LINE
8
Layer 1
10
51.230800
20
2442.410000
11
50.140720
21
2439.536630
0
LINE
8
Layer 1
10
50.140800
20
2439.540000
11
50.090529
21
2439.336271
0
LINE
8
Layer 1
10
50.090500
20
2439.330000
11
49.778292
21
2436.533360
0
LINE
8
Layer 1
10
49.778300
20
2436.540000
11
49.751842
21
2433.968250
0
LINE
8
Layer 1
10
49.751800
20
2433.960000
11
49.754446
21
2433.885917
0
LINE
8
Layer 1
10
49.754500
20
2433.890000
11
50.048187
21
2429.291550
0
LINE
8
Layer 1
10
50.048100
20
2429.290000
11
50.497891
21
2424.784150
0
LINE
8
Layer 1
10
50.497900
20
2424.790000
11
50.500546
21
2424.768833
0
LINE
8
Layer 1
10
50.500600
20
2424.760000
11
50.733433
21
2422.307320
0
LINE
8
Layer 1
10
50.733400
20
2422.310000
11
50.701650
21
2420.116610
0
LINE
8
Layer 1
10
50.701700
20
2420.120000
11
50.699054
21
2420.088250
0
LINE
8
Layer 1
10
50.699000
20
2420.090000
11
50.288896
21
2418.179710
0
LINE
8
Layer 1
10
50.288900
20
2418.180000
11
49.751797
21
2418.613916
0
LINE
8
Layer 1
10
49.751800
20
2418.610000
11
49.556009
21
2418.697312
0
LINE
8
Layer 1
10
49.556000
20
2418.700000
11
48.420940
21
2419.533436
0
LINE
8
Layer 1
10
48.421000
20
2419.530000
11
47.685459
21
2419.855437
0
LINE
8
Layer 1
10
47.685400
20
2419.860000
11
47.568983
21
2419.918208
0
LINE
8
Layer 1
10
47.569000
20
2419.910000
11
47.426125
21
2419.962917
0
LINE
8
Layer 1
10
47.426100
20
2419.970000
11
47.031871
21
2420.115521
0
LINE
8
Layer 1
10
47.031900
20
2420.110000
11
46.410130
21
2420.276687
0
LINE
8
Layer 1
10
46.410100
20
2420.280000
11
46.209017
21
2420.362021
0
LINE
8
Layer 1
10
46.209100
20
2420.360000
11
45.478851
21
2420.682791
0
LINE
8
Layer 1
10
45.478800
20
2420.680000
11
43.835740
21
2421.333520
0
LINE
8
Layer 1
10
43.835700
20
2421.340000
11
42.110620
21
2421.911499
0
LINE
8
Layer 1
10
42.110700
20
2421.910000
11
42.071013
21
2421.923229
0
LINE
8
Layer 1
10
42.071000
20
2421.920000
11
42.020729
21
2421.930583
0
LINE
8
Layer 1
10
42.020700
20
2421.930000
11
40.181850
21
2422.390374
0
LINE
8
Layer 1
10
40.181800
20
2422.390000
11
40.171217
21
2422.395292
0
LINE
8
Layer 1
10
40.171300
20
2422.400000
11
38.298050
21
2422.751895
0
LINE
8
Layer 1
10
38.298000
20
2422.750000
11
36.445920
21
2423.067500
0
LINE
8
Layer 1
10
36.445900
20
2423.070000
11
35.535734
21
2423.226104
0
LINE
8
Layer 1
10
35.535800
20
2423.220000
11
35.297675
21
2423.262333
0
LINE
8
Layer 1
10
35.297600
20
2423.270000
11
35.289700
21
2423.270000
0
LINE
8
Layer 1
10
35.289700
20
2423.270000
11
33.900640
21
2423.656291
0
LINE
8
Layer 1
10
33.900600
20
2423.650000
11
32.331620
21
2424.001895
0
LINE
8
Layer 1
10
32.331700
20
2424.000000
11
32.323700
21
2424.000000
0
LINE
8
Layer 1
10
32.323700
20
2424.000000
11
31.355326
21
2424.068792
0
LINE
8
Layer 1
10
31.355400
20
2424.070000
11
31.344800
21
2424.070000
0
LINE
8
Layer 1
10
31.344800
20
2424.070000
11
30.730967
21
2424.051479
0
LINE
8
Layer 1
10
30.730900
20
2424.050000
11
29.796922
21
2423.751021
0
LINE
8
Layer 1
10
29.797000
20
2423.760000
11
29.254605
21
2423.442500
0
LINE
8
Layer 1
10
29.254600
20
2423.440000
11
28.751892
21
2423.527312
0
LINE
8
Layer 1
10
28.751900
20
2423.530000
11
28.569338
21
2423.537937
0
LINE
8
Layer 1
10
28.569300
20
2423.530000
11
28.786258
21
2423.905708
0
LINE
8
Layer 1
10
28.786300
20
2423.910000
11
28.810112
21
2423.947042
0
LINE
8
Layer 1
10
28.810100
20
2423.950000
11
30.262660
21
2425.963480
0
LINE
8
Layer 1
10
30.262600
20
2425.960000
11
31.889790
21
2427.775040
0
LINE
8
Layer 1
10
31.889800
20
2427.780000
11
33.966780
21
2429.473330
0
LINE
8
Layer 1
10
33.966800
20
2429.470000
11
36.316300
21
2430.822020
0
LINE
8
Layer 1
10
36.316300
20
2430.820000
11
36.395675
21
2430.857042
0
LINE
8
Layer 1
10
36.395700
20
2430.860000
11
38.388010
21
2431.907750
0
LINE
8
Layer 1
10
38.388000
20
2431.910000
11
39.470140
21
2432.600562
0
LINE
8
Layer 1
10
39.470100
20
2432.600000
11
40.552240
21
2433.475770
0
LINE
8
Layer 1
10
40.552300
20
2433.470000
11
40.700466
21
2433.618166
0
LINE
8
Layer 1
10
40.700400
20
2433.620000
11
41.457107
21
2434.646580
0
LINE
8
Layer 1
10
41.457100
20
2434.650000
11
41.949224
21
2435.668640
0
LINE
8
Layer 1
10
41.949300
20
2435.660000
11
42.465237
21
2437.432710
0
LINE
8
Layer 1
10
42.465200
20
2437.440000
11
44.277590
21
2443.520120
0
LINE
8
Layer 1
10
44.277600
20
2443.520000
11
44.290829
21
2443.562333
0
LINE
8
Layer 1
10
44.290800
20
2443.560000
11
46.214320
21
2450.182510
0
LINE
8
Layer 1
10
46.214300
20
2450.180000
11
46.949841
21
2452.307250
0
LINE
8
Layer 1
10
46.949900
20
2452.310000
11
47.931503
21
2454.246750
0
LINE
8
Layer 1
10
47.931500
20
2454.250000
11
47.960604
21
2454.294979
0
LINE
8
Layer 1
10
47.960600
20
2454.290000
11
48.921036
21
2455.758440
0
LINE
8
Layer 1
10
48.921000
20
2455.760000
11
50.037540
21
2457.175520
0
LINE
8
Layer 1
10
50.037600
20
2457.180000
11
52.619930
21
2459.884040
0
LINE
8
Layer 1
10
52.619900
20
2459.880000
11
52.641067
21
2459.901167
0
LINE
8
Layer 1
10
52.641100
20
2459.900000
11
55.593840
21
2462.495560
0
LINE
8
Layer 1
10
55.593800
20
2462.500000
11
57.154840
21
2463.616540
0
LINE
8
Layer 1
10
57.154800
20
2463.610000
11
58.779340
21
2464.575728
0
LINE
8
Layer 1
10
58.779400
20
2464.580000
11
58.821733
21
2464.603813
0
LINE
8
Layer 1
10
58.821700
20
2464.600000
11
61.234700
21
2465.727120
0
LINE
8
Layer 1
10
61.234700
20
2465.730000
11
63.748250
21
2466.444374
0
LINE
8
Layer 1
10
63.748300
20
2466.440000
11
63.806508
21
2466.450583
0
LINE
8
Layer 1
10
63.806500
20
2466.450000
11
66.798930
21
2467.032083
0
LINE
8
Layer 1
10
66.798900
20
2467.040000
11
69.799270
21
2467.476562
0
LINE
8
Layer 1
10
69.799300
20
2467.470000
11
72.479530
21
2467.636687
0
LINE
8
Layer 1
10
72.479500
20
2467.640000
11
72.479500
21
2467.640000
0
LINE
8
Layer 1
10
47.685400
20
2419.860000
11
47.725088
21
2419.838833
0
LINE
8
Layer 1
10
47.725100
20
2419.830000
11
47.685412
21
2419.851167
0
LINE
8
Layer 1
10
47.685400
20
2419.860000
11
47.685400
21
2419.860000
0
LINE
8
Layer 1
10
107.439000
20
2461.630000
11
107.441646
21
2461.627354
0
LINE
8
Layer 1
10
107.441000
20
2461.630000
11
107.446292
21
2461.614125
0
LINE
8
Layer 1
10
107.447000
20
2461.610000
11
105.682230
21
2461.533271
0
LINE
8
Layer 1
10
105.682000
20
2461.540000
11
103.856380
21
2461.341563
0
LINE
8
Layer 1
10
103.856000
20
2461.340000
11
102.403440
21
2460.837292
0
LINE
8
Layer 1
10
102.404000
20
2460.830000
11
101.451501
21
2460.343167
0
LINE
8
Layer 1
10
101.451000
20
2460.350000
11
101.207584
21
2460.228292
0
LINE
8
Layer 1
10
101.208000
20
2460.230000
11
101.268854
21
2460.248521
0
LINE
8
Layer 1
10
101.269000
20
2460.240000
11
101.303396
21
2460.247937
0
LINE
8
Layer 1
10
101.303000
20
2460.250000
11
101.162771
21
2460.218250
0
LINE
8
Layer 1
10
101.163000
20
2460.220000
11
100.083500
21
2459.727876
0
LINE
8
Layer 1
10
100.083000
20
2459.730000
11
98.889730
21
2458.769564
0
LINE
8
Layer 1
10
98.890200
20
2458.770000
11
98.633554
21
2458.558334
0
LINE
8
Layer 1
10
98.633500
20
2458.560000
11
98.739333
21
2458.623500
0
LINE
8
Layer 1
10
98.739400
20
2458.620000
11
98.334588
21
2458.482417
0
LINE
8
Layer 1
10
98.334500
20
2458.480000
11
97.170330
21
2457.569834
0
LINE
8
Layer 1
10
97.170400
20
2457.570000
11
96.760296
21
2457.117563
0
LINE
8
Layer 1
10
96.760300
20
2457.120000
11
96.540696
21
2456.818375
0
LINE
8
Layer 1
10
96.540700
20
2456.820000
11
96.289346
21
2456.671834
0
LINE
8
Layer 1
10
96.289300
20
2456.670000
11
95.011360
21
2455.571980
0
LINE
8
Layer 1
10
95.011400
20
2455.570000
11
94.715067
21
2455.218105
0
LINE
8
Layer 1
10
94.715100
20
2455.220000
11
94.736267
21
2455.225292
0
LINE
8
Layer 1
10
94.736200
20
2455.230000
11
93.323330
21
2453.679540
0
LINE
8
Layer 1
10
93.323300
20
2453.680000
11
93.050780
21
2453.328105
0
LINE
8
Layer 1
10
93.050800
20
2453.320000
11
93.077258
21
2453.333229
0
LINE
8
Layer 1
10
93.077300
20
2453.340000
11
92.143322
21
2452.199650
0
LINE
8
Layer 1
10
92.143300
20
2452.200000
11
91.762300
21
2451.684063
0
LINE
8
Layer 1
10
91.762300
20
2451.680000
11
91.661758
21
2451.529188
0
LINE
8
Layer 1
10
91.661800
20
2451.530000
11
91.566550
21
2451.350084
0
LINE
8
Layer 1
10
91.566500
20
2451.350000
11
91.553271
21
2451.336771
0
LINE
8
Layer 1
10
91.553300
20
2451.340000
11
90.344160
21
2449.741920
0
LINE
8
Layer 1
10
90.344100
20
2449.740000
11
89.976330
21
2449.155272
0
LINE
8
Layer 1
10
89.976400
20
2449.150000
11
89.883796
21
2448.988604
0
LINE
8
Layer 1
10
89.883800
20
2448.990000
11
89.793842
21
2448.857709
0
LINE
8
Layer 1
10
89.793800
20
2448.860000
11
89.388988
21
2448.367876
0
LINE
8
Layer 1
10
89.389000
20
2448.370000
11
89.243479
21
2448.248292
0
LINE
8
Layer 1
10
89.243500
20
2448.250000
11
88.529126
21
2447.474772
0
LINE
8
Layer 1
10
88.529100
20
2447.470000
11
88.140163
21
2446.858813
0
LINE
8
Layer 1
10
88.140200
20
2446.860000
11
87.555472
21
2445.949834
0
LINE
8
Layer 1
10
87.555400
20
2445.950000
11
87.547463
21
2445.936771
0
LINE
8
Layer 1
10
87.547500
20
2445.940000
11
87.566021
21
2445.953229
0
LINE
8
Layer 1
10
87.566000
20
2445.950000
11
87.539542
21
2445.926187
0
LINE
8
Layer 1
10
87.539600
20
2445.930000
11
87.494621
21
2445.869146
0
LINE
8
Layer 1
10
87.494600
20
2445.860000
11
87.515767
21
2445.897042
0
LINE
8
Layer 1
10
87.515700
20
2445.900000
11
87.470721
21
2445.860313
0
LINE
8
Layer 1
10
87.470800
20
2445.860000
11
87.288238
21
2445.640396
0
LINE
8
Layer 1
10
87.288200
20
2445.640000
11
86.843701
21
2444.989126
0
LINE
8
Layer 1
10
86.843700
20
2444.990000
11
86.550013
21
2444.482001
0
LINE
8
Layer 1
10
86.550000
20
2444.480000
11
85.623960
21
2442.836940
0
LINE
8
Layer 1
10
85.624000
20
2442.840000
11
85.134521
21
2441.876918
0
LINE
8
Layer 1
10
85.134500
20
2441.880000
11
85.131854
21
2441.877354
0
LINE
8
Layer 1
10
85.131900
20
2441.870000
11
84.732380
21
2441.237647
0
LINE
8
Layer 1
10
84.732300
20
2441.240000
11
84.174030
21
2440.014980
0
LINE
8
Layer 1
10
84.174100
20
2440.020000
11
83.965079
21
2439.281813
0
LINE
8
Layer 1
10
83.965000
20
2439.280000
11
83.962354
21
2439.153000
0
LINE
8
Layer 1
10
83.962400
20
2439.150000
11
83.409422
21
2437.753000
0
LINE
8
Layer 1
10
83.409400
20
2437.760000
11
83.285046
21
2437.355188
0
LINE
8
Layer 1
10
83.285100
20
2437.350000
11
82.766517
21
2436.111750
0
LINE
8
Layer 1
10
82.766500
20
2436.110000
11
82.470167
21
2434.734170
0
LINE
8
Layer 1
10
82.470200
20
2434.740000
11
82.480783
21
2434.811437
0
LINE
8
Layer 1
10
82.480700
20
2434.810000
11
82.382804
21
2434.511021
0
LINE
8
Layer 1
10
82.382800
20
2434.510000
11
82.020321
21
2433.142110
0
LINE
8
Layer 1
10
82.020400
20
2433.140000
11
81.816671
21
2431.981130
0
LINE
8
Layer 1
10
81.816600
20
2431.980000
11
81.578475
21
2431.284147
0
LINE
8
Layer 1
10
81.578500
20
2431.290000
11
81.438271
21
2430.758188
0
LINE
8
Layer 1
10
81.438300
20
2430.750000
11
81.417133
21
2430.615063
0
LINE
8
Layer 1
10
81.417100
20
2430.620000
11
81.398579
21
2430.553854
0
LINE
8
Layer 1
10
81.398600
20
2430.550000
11
81.388017
21
2430.547354
0
LINE
8
Layer 1
10
81.388000
20
2430.550000
11
81.279521
21
2430.190167
0
LINE
8
Layer 1
10
81.279500
20
2430.190000
11
81.075771
21
2429.134310
0
LINE
8
Layer 1
10
81.075800
20
2429.130000
11
81.078446
21
2429.222604
0
LINE
8
Layer 1
10
81.078400
20
2429.230000
11
80.861442
21
2428.661147
0
LINE
8
Layer 1
10
80.861500
20
2428.660000
11
80.480500
21
2426.860840
0
LINE
8
Layer 1
10
80.480500
20
2426.860000
11
80.417000
21
2425.513270
0
LINE
8
Layer 1
10
80.417000
20
2425.510000
11
80.512250
21
2424.472830
0
LINE
8
Layer 1
10
80.512200
20
2424.480000
11
80.546596
21
2423.170310
0
LINE
8
Layer 1
10
80.546600
20
2423.170000
11
80.620683
21
2421.934400
0
LINE
8
Layer 1
10
80.620700
20
2421.930000
11
80.483117
21
2420.252540
0
LINE
8
Layer 1
10
80.483100
20
2420.250000
11
80.393142
21
2419.162560
0
LINE
8
Layer 1
10
80.393200
20
2419.170000
11
80.385263
21
2418.995375
0
LINE
8
Layer 1
10
80.385200
20
2418.990000
11
80.350804
21
2418.818021
0
LINE
8
Layer 1
10
80.350800
20
2418.820000
11
80.350800
21
2418.820000
0
LINE
8
Layer 1
10
80.350800
20
2418.820000
11
80.149717
21
2417.647900
0
LINE
8
Layer 1
10
80.149800
20
2417.650000
11
80.136571
21
2415.969900
0
LINE
8
Layer 1
10
80.136500
20
2415.970000
11
80.141792
21
2415.925021
0
LINE
8
Layer 1
10
80.141800
20
2415.920000
11
80.091529
21
2415.467563
0
LINE
8
Layer 1
10
80.091500
20
2415.470000
11
80.075625
21
2415.202771
0
LINE
8
Layer 1
10
80.075700
20
2415.200000
11
80.073054
21
2415.030667
0
LINE
8
Layer 1
10
80.073000
20
2415.030000
11
80.083583
21
2414.942688
0
LINE
8
Layer 1
10
80.083600
20
2414.950000
11
80.080954
21
2414.926187
0
LINE
8
Layer 1
10
80.081000
20
2414.920000
11
79.969875
21
2414.340563
0
LINE
8
Layer 1
10
79.969800
20
2414.340000
11
79.662884
21
2413.538314
0
LINE
8
Layer 1
10
79.662900
20
2413.540000
11
79.419484
21
2412.354670
0
LINE
8
Layer 1
10
79.419500
20
2412.360000
11
79.366583
21
2411.783209
0
LINE
8
Layer 1
10
79.366600
20
2411.780000
11
79.263413
21
2411.552459
0
LINE
8
Layer 1
10
79.263400
20
2411.550000
11
79.070254
21
2410.557814
0
LINE
8
Layer 1
10
79.070300
20
2410.560000
11
79.091467
21
2408.948690
0
LINE
8
Layer 1
10
79.091400
20
2408.950000
11
79.131087
21
2407.169360
0
LINE
8
Layer 1
10
79.131100
20
2407.170000
11
79.146975
21
2406.789000
0
LINE
8
Layer 1
10
79.147000
20
2406.790000
11
79.213146
21
2406.364021
0
LINE
8
Layer 1
10
79.213100
20
2406.360000
11
79.197225
21
2406.452604
0
LINE
8
Layer 1
10
79.197300
20
2406.450000
11
79.199946
21
2406.280667
0
LINE
8
Layer 1
10
79.199900
20
2406.280000
11
79.191963
21
2403.406630
0
LINE
8
Layer 1
10
79.192000
20
2403.410000
11
79.192000
21
2403.400000
0
LINE
8
Layer 1
10
79.192000
20
2403.400000
11
79.199937
21
2402.897292
0
LINE
8
Layer 1
10
79.199900
20
2402.900000
11
79.202546
21
2402.810042
0
LINE
8
Layer 1
10
79.202600
20
2402.810000
11
79.218475
21
2402.534834
0
LINE
8
Layer 1
10
79.218400
20
2402.530000
11
79.218400
21
2402.520000
0
LINE
8
Layer 1
10
79.218400
20
2402.520000
11
79.162838
21
2401.332020
0
LINE
8
Layer 1
10
79.162900
20
2401.330000
11
79.210525
21
2399.864210
0
LINE
8
Layer 1
10
79.210500
20
2399.860000
11
79.202563
21
2399.875875
0
LINE
8
Layer 1
10
79.202600
20
2399.880000
11
79.154975
21
2399.528105
0
LINE
8
Layer 1
10
79.154900
20
2399.530000
11
79.062296
21
2398.379060
0
LINE
8
Layer 1
10
79.062300
20
2398.380000
11
78.980279
21
2397.885230
0
LINE
8
Layer 1
10
78.980300
20
2397.880000
11
78.935321
21
2396.980418
0
LINE
8
Layer 1
10
78.935300
20
2396.980000
11
78.885029
21
2394.246860
0
LINE
8
Layer 1
10
78.885100
20
2394.250000
11
78.755454
21
2391.974590
0
LINE
8
Layer 1
10
78.755400
20
2391.970000
11
78.752754
21
2391.366751
0
LINE
8
Layer 1
10
78.752800
20
2391.370000
11
78.752800
21
2391.230000
0
LINE
8
Layer 1
10
78.752800
20
2391.230000
11
78.681363
21
2388.981040
0
LINE
8
Layer 1
10
78.681300
20
2388.980000
11
78.644258
21
2387.654440
0
LINE
8
Layer 1
10
78.644300
20
2387.650000
11
78.660175
21
2387.308688
0
LINE
8
Layer 1
10
78.660200
20
2387.310000
11
78.668137
21
2387.360271
0
LINE
8
Layer 1
10
78.668100
20
2387.360000
11
78.673392
21
2385.182480
0
LINE
8
Layer 1
10
78.673400
20
2385.180000
11
78.750129
21
2383.714210
0
LINE
8
Layer 1
10
78.750100
20
2383.720000
11
78.816246
21
2381.828230
0
LINE
8
Layer 1
10
78.816300
20
2381.820000
11
78.871862
21
2380.856918
0
LINE
8
Layer 1
10
78.871800
20
2380.860000
11
78.953821
21
2377.647960
0
LINE
8
Layer 1
10
78.953800
20
2377.650000
11
79.109904
21
2375.739710
0
LINE
8
Layer 1
10
79.109900
20
2375.740000
11
79.152233
21
2374.144560
0
LINE
8
Layer 1
10
79.152300
20
2374.140000
11
79.197279
21
2373.637292
0
LINE
8
Layer 1
10
79.197300
20
2373.640000
11
79.271383
21
2373.317209
0
LINE
8
Layer 1
10
79.271300
20
2373.320000
11
79.273946
21
2373.267083
0
LINE
8
Layer 1
10
79.274000
20
2373.270000
11
79.292521
21
2373.100667
0
LINE
8
Layer 1
10
79.292500
20
2373.100000
11
79.289854
21
2373.118521
0
LINE
8
Layer 1
10
79.289900
20
2373.110000
11
79.287254
21
2372.395626
0
LINE
8
Layer 1
10
79.287200
20
2372.400000
11
79.482991
21
2370.815150
0
LINE
8
Layer 1
10
79.483000
20
2370.820000
11
79.580896
21
2370.401959
0
LINE
8
Layer 1
10
79.580900
20
2370.400000
11
79.554442
21
2370.463500
0
LINE
8
Layer 1
10
79.554400
20
2370.460000
11
79.641712
21
2370.012855
0
LINE
8
Layer 1
10
79.641800
20
2370.010000
11
79.755571
21
2369.591959
0
LINE
8
Layer 1
10
79.755500
20
2369.600000
11
79.766083
21
2369.607937
0
LINE
8
Layer 1
10
79.766100
20
2369.600000
11
80.012162
21
2368.591940
0
LINE
8
Layer 1
10
80.012200
20
2368.600000
11
80.102158
21
2368.285146
0
LINE
8
Layer 1
10
80.102100
20
2368.280000
11
80.088871
21
2368.261479
0
LINE
8
Layer 1
10
80.088900
20
2368.260000
11
80.184150
21
2367.765230
0
LINE
8
Layer 1
10
80.184200
20
2367.770000
11
80.435554
21
2366.984188
0
LINE
8
Layer 1
10
80.435500
20
2366.980000
11
80.681562
21
2366.059251
0
LINE
8
Layer 1
10
80.681600
20
2366.060000
11
81.446245
21
2364.199980
0
LINE
8
Layer 1
10
81.446200
20
2364.200000
11
81.790158
21
2363.414188
0
LINE
8
Layer 1
10
81.790200
20
2363.420000
11
83.052260
21
2361.488540
0
LINE
8
Layer 1
10
83.052200
20
2361.480000
11
83.110408
21
2361.368875
0
LINE
8
Layer 1
10
83.110400
20
2361.370000
11
83.501983
21
2360.832897
0
LINE
8
Layer 1
10
83.502000
20
2360.840000
11
84.007354
21
2360.287022
0
LINE
8
Layer 1
10
84.007400
20
2360.280000
11
84.213775
21
2360.007480
0
LINE
8
Layer 1
10
84.213800
20
2360.010000
11
84.399008
21
2359.793042
0
LINE
8
Layer 1
10
84.399000
20
2359.790000
11
84.539229
21
2359.652417
0
LINE
8
Layer 1
10
84.539200
20
2359.660000
11
84.719116
21
2359.429813
0
LINE
8
Layer 1
10
84.719100
20
2359.430000
11
84.816996
21
2359.310938
0
LINE
8
Layer 1
10
84.817000
20
2359.310000
11
85.105395
21
2358.992500
0
LINE
8
Layer 1
10
85.105400
20
2358.990000
11
85.115983
21
2358.945021
0
LINE
8
Layer 1
10
85.116000
20
2358.940000
11
85.502291
21
2358.537834
0
LINE
8
Layer 1
10
85.502300
20
2358.540000
11
85.920341
21
2358.182813
0
LINE
8
Layer 1
10
85.920300
20
2358.180000
11
85.925592
21
2358.203812
0
LINE
8
Layer 1
10
85.925600
20
2358.210000
11
86.213995
21
2357.918959
0
LINE
8
Layer 1
10
86.214000
20
2357.920000
11
87.491940
21
2356.954272
0
LINE
8
Layer 1
10
87.491900
20
2356.950000
11
87.896712
21
2356.735688
0
LINE
8
Layer 1
10
87.896700
20
2356.740000
11
88.695741
21
2356.308730
0
LINE
8
Layer 1
10
88.695800
20
2356.310000
11
89.738260
21
2355.939584
0
LINE
8
Layer 1
10
89.738200
20
2355.940000
11
89.719679
21
2355.953229
0
LINE
8
Layer 1
10
89.719700
20
2355.950000
11
89.780554
21
2355.918250
0
LINE
8
Layer 1
10
89.780600
20
2355.920000
11
90.431474
21
2355.700396
0
LINE
8
Layer 1
10
90.431500
20
2355.700000
11
91.518940
21
2355.517438
0
LINE
8
Layer 1
10
91.518900
20
2355.510000
11
93.196360
21
2355.168688
0
LINE
8
Layer 1
10
93.196300
20
2355.170000
11
93.352404
21
2355.156771
0
LINE
8
Layer 1
10
93.352400
20
2355.160000
11
93.595816
21
2355.149417
0
LINE
8
Layer 1
10
93.595900
20
2355.150000
11
93.773171
21
2355.139417
0
LINE
8
Layer 1
10
93.773100
20
2355.140000
11
93.818079
21
2355.137354
0
LINE
8
Layer 1
10
93.818100
20
2355.140000
11
94.558932
21
2355.073854
0
LINE
8
Layer 1
10
94.558900
20
2355.070000
11
94.619754
21
2355.075292
0
LINE
8
Layer 1
10
94.619800
20
2355.080000
11
95.326237
21
2354.937125
0
LINE
8
Layer 1
10
95.326200
20
2354.930000
11
96.048512
21
2354.850625
0
LINE
8
Layer 1
10
96.048600
20
2354.850000
11
95.955996
21
2354.852646
0
LINE
8
Layer 1
10
95.955900
20
2354.860000
11
96.347483
21
2354.804438
0
LINE
8
Layer 1
10
96.347500
20
2354.800000
11
97.149186
21
2354.760313
0
LINE
8
Layer 1
10
97.149200
20
2354.760000
11
97.950886
21
2354.662104
0
LINE
8
Layer 1
10
97.950900
20
2354.660000
11
97.950900
21
2354.670000
0
LINE
8
Layer 1
10
97.950900
20
2354.670000
11
98.752586
21
2354.651479
0
LINE
8
Layer 1
10
98.752600
20
2354.650000
11
98.427163
21
2354.647354
0
LINE
8
Layer 1
10
98.427200
20
2354.650000
11
98.498637
21
2354.639417
0
LINE
8
Layer 1
10
98.498600
20
2354.640000
11
99.638950
21
2354.563271
0
LINE
8
Layer 1
10
99.638900
20
2354.560000
11
100.408837
21
2354.647312
0
LINE
8
Layer 1
10
100.409000
20
2354.650000
11
100.422229
21
2354.652646
0
LINE
8
Layer 1
10
100.422000
20
2354.650000
11
100.363792
21
2354.628833
0
LINE
8
Layer 1
10
100.364000
20
2354.630000
11
100.824374
21
2354.680271
0
LINE
8
Layer 1
10
100.824000
20
2354.680000
11
101.829420
21
2354.896958
0
LINE
8
Layer 1
10
101.830000
20
2354.900000
11
102.679311
21
2355.058750
0
LINE
8
Layer 1
10
102.679000
20
2355.060000
11
103.829940
21
2355.459520
0
LINE
8
Layer 1
10
103.830000
20
2355.460000
11
104.761332
21
2355.761625
0
LINE
8
Layer 1
10
104.761000
20
2355.760000
11
106.097140
21
2356.302395
0
LINE
8
Layer 1
10
106.097000
20
2356.300000
11
106.308666
21
2356.379375
0
LINE
8
Layer 1
10
106.309000
20
2356.380000
11
106.869916
21
2356.649875
0
LINE
8
Layer 1
10
106.870000
20
2356.650000
11
107.121354
21
2356.792875
0
LINE
8
Layer 1
10
107.121000
20
2356.790000
11
107.499354
21
2357.057229
0
LINE
8
Layer 1
10
107.500000
20
2357.060000
11
107.574083
21
2357.139375
0
LINE
8
Layer 1
10
107.574000
20
2357.140000
11
108.253978
21
2357.605666
0
LINE
8
Layer 1
10
108.254000
20
2357.600000
11
109.158874
21
2358.491645
0
LINE
8
Layer 1
10
109.159000
20
2358.500000
11
109.571749
21
2359.084728
0
LINE
8
Layer 1
10
109.571000
20
2359.080000
11
109.809125
21
2359.386916
0
LINE
8
Layer 1
10
109.810000
20
2359.390000
11
110.169833
21
2359.871541
0
LINE
8
Layer 1
10
110.169000
20
2359.870000
11
110.425646
21
2360.293333
0
LINE
8
Layer 1
10
110.426000
20
2360.290000
11
110.346625
21
2360.189458
0
LINE
8
Layer 1
10
110.347000
20
2360.190000
11
110.354937
21
2360.213813
0
LINE
8
Layer 1
10
110.355000
20
2360.220000
11
110.355000
21
2360.210000
0
LINE
8
Layer 1
10
110.355000
20
2360.210000
11
110.722770
21
2360.781499
0
LINE
8
Layer 1
10
110.722000
20
2360.780000
11
111.372874
21
2362.142600
0
LINE
8
Layer 1
10
111.373000
20
2362.150000
11
111.867770
21
2363.494080
0
LINE
8
Layer 1
10
111.868000
20
2363.490000
11
112.069083
21
2364.024458
0
LINE
8
Layer 1
10
112.069000
20
2364.020000
11
112.330937
21
2365.012186
0
LINE
8
Layer 1
10
112.331000
20
2365.020000
11
112.331000
21
2365.010000
0
LINE
8
Layer 1
10
112.331000
20
2365.010000
11
112.402437
21
2365.750832
0
LINE
8
Layer 1
10
112.402000
20
2365.750000
11
112.407292
21
2365.763229
0
LINE
8
Layer 1
10
112.408000
20
2365.760000
11
112.402708
21
2365.643583
0
LINE
8
Layer 1
10
112.402000
20
2365.650000
11
112.484021
21
2366.075979
0
LINE
8
Layer 1
10
112.484000
20
2366.070000
11
112.484000
21
2366.080000
0
LINE
8
Layer 1
10
112.484000
20
2366.080000
11
112.616291
21
2367.590770
0
LINE
8
Layer 1
10
112.617000
20
2367.590000
11
112.693729
21
2368.238228
0
LINE
8
Layer 1
10
112.693000
20
2368.240000
11
112.737979
21
2370.192620
0
LINE
8
Layer 1
10
112.738000
20
2370.190000
11
112.743292
21
2370.142375
0
LINE
8
Layer 1
10
112.744000
20
2370.140000
11
112.770458
21
2370.486604
0
LINE
8
Layer 1
10
112.770000
20
2370.490000
11
112.740896
21
2372.731020
0
LINE
8
Layer 1
10
112.741000
20
2372.730000
11
112.741000
21
2372.740000
0
LINE
8
Layer 1
10
112.741000
20
2372.740000
11
112.719833
21
2374.470370
0
LINE
8
Layer 1
10
112.720000
20
2374.470000
11
112.505688
21
2376.933270
0
LINE
8
Layer 1
10
112.506000
20
2376.930000
11
112.400167
21
2379.308600
0
LINE
8
Layer 1
10
112.400000
20
2379.310000
11
112.376188
21
2380.257207
0
LINE
8
Layer 1
10
112.376000
20
2380.260000
11
112.391875
21
2380.852666
0
LINE
8
Layer 1
10
112.392000
20
2380.850000
11
112.407875
21
2380.958479
0
LINE
8
Layer 1
10
112.408000
20
2380.960000
11
112.532354
21
2381.706124
0
LINE
8
Layer 1
10
112.532000
20
2381.710000
11
112.569042
21
2382.625457
0
LINE
8
Layer 1
10
112.569000
20
2382.620000
11
112.569000
21
2382.620000
0
LINE
8
Layer 1
10
112.569000
20
2382.620000
11
112.600750
21
2383.434916
0
LINE
8
Layer 1
10
112.601000
20
2383.430000
11
112.601000
21
2383.440000
0
LINE
8
Layer 1
10
112.601000
20
2383.440000
11
112.566604
21
2384.802600
0
LINE
8
Layer 1
10
112.566000
20
2384.800000
11
112.566000
21
2384.800000
0
LINE
8
Layer 1
10
112.566000
20
2384.800000
11
112.600396
21
2385.961520
0
LINE
8
Layer 1
10
112.601000
20
2385.960000
11
112.690958
21
2388.288330
0
LINE
8
Layer 1
10
112.691000
20
2388.290000
11
112.847104
21
2389.586460
0
LINE
8
Layer 1
10
112.847000
20
2389.590000
11
112.884042
21
2390.232937
0
LINE
8
Layer 1
10
112.884000
20
2390.230000
11
112.897229
21
2390.518395
0
LINE
8
Layer 1
10
112.897000
20
2390.520000
11
112.904937
21
2390.620542
0
LINE
8
Layer 1
10
112.905000
20
2390.620000
11
112.897063
21
2390.543271
0
LINE
8
Layer 1
10
112.897000
20
2390.540000
11
112.910229
21
2390.502958
0
LINE
8
Layer 1
10
112.910000
20
2390.500000
11
112.965562
21
2390.976249
0
LINE
8
Layer 1
10
112.966000
20
2390.980000
11
112.966000
21
2390.990000
0
LINE
8
Layer 1
10
112.966000
20
2390.990000
11
113.037437
21
2392.566910
0
LINE
8
Layer 1
10
113.037000
20
2392.570000
11
113.119021
21
2393.623040
0
LINE
8
Layer 1
10
113.119000
20
2393.620000
11
113.119000
21
2393.620000
0
LINE
8
Layer 1
10
113.119000
20
2393.620000
11
113.116354
21
2394.260291
0
LINE
8
Layer 1
10
113.117000
20
2394.260000
11
113.093187
21
2394.334083
0
LINE
8
Layer 1
10
113.093000
20
2394.330000
11
113.106229
21
2394.520500
0
LINE
8
Layer 1
10
113.106000
20
2394.520000
11
113.172146
21
2395.371957
0
LINE
8
Layer 1
10
113.172000
20
2395.380000
11
113.187875
21
2395.837729
0
LINE
8
Layer 1
10
113.188000
20
2395.830000
11
113.426125
21
2397.859350
0
LINE
8
Layer 1
10
113.426000
20
2397.860000
11
113.375729
21
2399.722660
0
LINE
8
Layer 1
10
113.376000
20
2399.730000
11
113.357479
21
2400.679853
0
LINE
8
Layer 1
10
113.358000
20
2400.680000
11
113.371229
21
2400.648250
0
LINE
8
Layer 1
10
113.371000
20
2400.640000
11
113.408042
21
2401.103020
0
LINE
8
Layer 1
10
113.408000
20
2401.110000
11
113.408000
21
2401.110000
0
LINE
8
Layer 1
10
113.408000
20
2401.110000
11
113.405354
21
2401.819082
0
LINE
8
Layer 1
10
113.405000
20
2401.820000
11
113.434104
21
2402.828060
0
LINE
8
Layer 1
10
113.434000
20
2402.830000
11
113.447229
21
2403.171312
0
LINE
8
Layer 1
10
113.448000
20
2403.170000
11
113.485042
21
2403.389604
0
LINE
8
Layer 1
10
113.485000
20
2403.390000
11
113.516750
21
2403.749833
0
LINE
8
Layer 1
10
113.516000
20
2403.750000
11
113.584792
21
2405.689390
0
LINE
8
Layer 1
10
113.585000
20
2405.690000
11
113.640562
21
2406.160958
0
LINE
8
Layer 1
10
113.641000
20
2406.160000
11
113.648937
21
2406.239375
0
LINE
8
Layer 1
10
113.649000
20
2406.240000
11
113.688687
21
2406.753291
0
LINE
8
Layer 1
10
113.688000
20
2406.750000
11
113.764729
21
2408.109960
0
LINE
8
Layer 1
10
113.765000
20
2408.110000
11
113.759708
21
2407.993583
0
LINE
8
Layer 1
10
113.760000
20
2407.990000
11
113.815562
21
2408.307500
0
LINE
8
Layer 1
10
113.815000
20
2408.310000
11
113.894375
21
2409.140791
0
LINE
8
Layer 1
10
113.895000
20
2409.140000
11
113.892354
21
2409.174396
0
LINE
8
Layer 1
10
113.892000
20
2409.180000
11
113.910521
21
2409.304354
0
LINE
8
Layer 1
10
113.911000
20
2409.300000
11
113.932167
21
2409.461396
0
LINE
8
Layer 1
10
113.932000
20
2409.460000
11
114.021958
21
2410.277561
0
LINE
8
Layer 1
10
114.022000
20
2410.280000
11
114.022000
21
2410.290000
0
LINE
8
Layer 1
10
114.022000
20
2410.290000
11
114.011417
21
2411.980690
0
LINE
8
Layer 1
10
114.011000
20
2411.980000
11
114.085083
21
2412.906040
0
LINE
8
Layer 1
10
114.085000
20
2412.910000
11
114.172312
21
2414.262020
0
LINE
8
Layer 1
10
114.172000
20
2414.260000
11
114.463041
21
2415.675520
0
LINE
8
Layer 1
10
114.464000
20
2415.670000
11
114.551312
21
2416.810350
0
LINE
8
Layer 1
10
114.551000
20
2416.810000
11
114.648896
21
2417.471458
0
LINE
8
Layer 1
10
114.649000
20
2417.470000
11
114.831562
21
2418.565370
0
LINE
8
Layer 1
10
114.831000
20
2418.570000
11
114.857458
21
2419.077999
0
LINE
8
Layer 1
10
114.858000
20
2419.080000
11
114.828896
21
2418.931834
0
LINE
8
Layer 1
10
114.829000
20
2418.930000
11
114.829000
21
2418.930000
0
LINE
8
Layer 1
10
114.829000
20
2418.930000
11
114.897792
21
2419.361270
0
LINE
8
Layer 1
10
114.897000
20
2419.360000
11
115.061041
21
2420.796690
0
LINE
8
Layer 1
10
115.061000
20
2420.800000
11
115.219750
21
2421.974750
0
LINE
8
Layer 1
10
115.220000
20
2421.970000
11
115.222646
21
2422.009687
0
LINE
8
Layer 1
10
115.223000
20
2422.010000
11
115.230937
21
2422.068208
0
LINE
8
Layer 1
10
115.231000
20
2422.070000
11
115.244229
21
2422.241979
0
LINE
8
Layer 1
10
115.244000
20
2422.240000
11
115.273104
21
2422.409333
0
LINE
8
Layer 1
10
115.273000
20
2422.410000
11
115.368250
21
2423.166707
0
LINE
8
Layer 1
10
115.368000
20
2423.170000
11
115.344187
21
2423.267896
0
LINE
8
Layer 1
10
115.345000
20
2423.270000
11
115.342354
21
2423.230313
0
LINE
8
Layer 1
10
115.342000
20
2423.230000
11
115.416083
21
2423.499875
0
LINE
8
Layer 1
10
115.416000
20
2423.500000
11
115.939874
21
2425.021350
0
LINE
8
Layer 1
10
115.940000
20
2425.020000
11
116.283958
21
2426.088920
0
LINE
8
Layer 1
10
116.284000
20
2426.090000
11
116.434812
21
2426.465708
0
LINE
8
Layer 1
10
116.435000
20
2426.460000
11
116.636083
21
2427.039437
0
LINE
8
Layer 1
10
116.636000
20
2427.040000
11
116.707437
21
2427.249021
0
LINE
8
Layer 1
10
116.707000
20
2427.250000
11
117.114458
21
2428.228957
0
LINE
8
Layer 1
10
117.115000
20
2428.230000
11
117.329312
21
2429.023749
0
LINE
8
Layer 1
10
117.329000
20
2429.020000
11
117.442771
21
2429.739666
0
LINE
8
Layer 1
10
117.443000
20
2429.740000
11
117.450937
21
2429.737354
0
LINE
8
Layer 1
10
117.451000
20
2429.740000
11
117.533021
21
2430.049562
0
LINE
8
Layer 1
10
117.533000
20
2430.050000
11
117.802875
21
2431.388790
0
LINE
8
Layer 1
10
117.803000
20
2431.390000
11
117.829458
21
2431.514354
0
LINE
8
Layer 1
10
117.829000
20
2431.510000
11
117.797250
21
2431.414750
0
LINE
8
Layer 1
10
117.797000
20
2431.420000
11
117.947812
21
2431.724270
0
LINE
8
Layer 1
10
117.948000
20
2431.720000
11
118.339583
21
2432.627520
0
LINE
8
Layer 1
10
118.340000
20
2432.630000
11
118.861229
21
2434.423870
0
LINE
8
Layer 1
10
118.861000
20
2434.420000
11
118.972125
21
2435.033833
0
LINE
8
Layer 1
10
118.972000
20
2435.040000
11
118.995812
21
2435.198750
0
LINE
8
Layer 1
10
118.996000
20
2435.200000
11
118.980125
21
2435.067708
0
LINE
8
Layer 1
10
118.980000
20
2435.060000
11
119.069958
21
2435.369562
0
LINE
8
Layer 1
10
119.070000
20
2435.370000
11
119.784374
21
2437.105660
0
LINE
8
Layer 1
10
119.784000
20
2437.110000
11
120.326395
21
2438.602250
0
LINE
8
Layer 1
10
120.327000
20
2438.600000
11
120.543958
21
2438.941312
0
LINE
8
Layer 1
10
120.544000
20
2438.940000
11
121.120791
21
2440.064480
0
LINE
8
Layer 1
10
121.120000
20
2440.070000
11
121.847603
21
2441.609870
0
LINE
8
Layer 1
10
121.848000
20
2441.610000
11
122.864000
21
2444.213500
0
LINE
8
Layer 1
10
122.864000
20
2444.210000
11
123.713311
21
2446.562140
0
LINE
8
Layer 1
10
123.713000
20
2446.560000
11
124.514686
21
2448.295660
0
LINE
8
Layer 1
10
124.515000
20
2448.300000
11
124.414458
21
2449.284249
0
LINE
8
Layer 1
10
124.414000
20
2449.280000
11
123.921876
21
2450.142541
0
LINE
8
Layer 1
10
123.922000
20
2450.150000
11
123.911417
21
2450.271708
0
LINE
8
Layer 1
10
123.912000
20
2450.270000
11
123.919937
21
2450.156229
0
LINE
8
Layer 1
10
123.920000
20
2450.150000
11
123.808875
21
2450.753249
0
LINE
8
Layer 1
10
123.809000
20
2450.760000
11
123.549709
21
2451.312978
0
LINE
8
Layer 1
10
123.549000
20
2451.310000
11
123.422000
21
2451.603687
0
LINE
8
Layer 1
10
123.422000
20
2451.600000
11
123.400833
21
2451.647625
0
LINE
8
Layer 1
10
123.401000
20
2451.650000
11
123.387771
21
2451.700271
0
LINE
8
Layer 1
10
123.388000
20
2451.700000
11
123.388000
21
2451.700000
0
LINE
8
Layer 1
10
123.388000
20
2451.700000
11
123.385354
21
2451.707937
0
LINE
8
Layer 1
10
123.385000
20
2451.710000
11
123.340021
21
2451.810542
0
LINE
8
Layer 1
10
123.340000
20
2451.810000
11
123.276500
21
2451.947583
0
LINE
8
Layer 1
10
123.277000
20
2451.950000
11
123.144708
21
2452.235750
0
LINE
8
Layer 1
10
123.144000
20
2452.230000
11
123.252479
21
2452.042146
0
LINE
8
Layer 1
10
123.253000
20
2452.050000
11
123.263583
21
2452.100271
0
LINE
8
Layer 1
10
123.264000
20
2452.100000
11
122.914750
21
2452.867291
0
LINE
8
Layer 1
10
122.914000
20
2452.860000
11
122.533000
21
2453.476478
0
LINE
8
Layer 1
10
122.533000
20
2453.480000
11
122.427167
21
2453.567312
0
LINE
8
Layer 1
10
122.427000
20
2453.570000
11
122.217979
21
2453.906020
0
LINE
8
Layer 1
10
122.218000
20
2453.900000
11
122.024854
21
2454.140771
0
LINE
8
Layer 1
10
122.025000
20
2454.140000
11
121.702209
21
2454.634770
0
LINE
8
Layer 1
10
121.703000
20
2454.640000
11
121.581292
21
2454.825208
0
LINE
8
Layer 1
10
121.581000
20
2454.820000
11
121.387854
21
2455.071354
0
LINE
8
Layer 1
10
121.388000
20
2455.070000
11
121.110188
21
2455.350458
0
LINE
8
Layer 1
10
121.110000
20
2455.360000
11
120.882459
21
2455.632520
0
LINE
8
Layer 1
10
120.882000
20
2455.630000
11
120.360771
21
2456.116833
0
LINE
8
Layer 1
10
120.361000
20
2456.110000
11
120.273688
21
2456.149687
0
LINE
8
Layer 1
10
120.274000
20
2456.150000
11
119.506709
21
2456.983436
0
LINE
8
Layer 1
10
119.506000
20
2456.990000
11
118.595834
21
2457.643520
0
LINE
8
Layer 1
10
118.596000
20
2457.640000
11
117.696418
21
2458.282937
0
LINE
8
Layer 1
10
117.697000
20
2458.280000
11
116.778897
21
2458.748312
0
LINE
8
Layer 1
10
116.779000
20
2458.750000
11
116.752542
21
2458.757937
0
LINE
8
Layer 1
10
116.752000
20
2458.760000
11
116.802271
21
2458.730896
0
LINE
8
Layer 1
10
116.802000
20
2458.730000
11
116.286063
21
2459.031625
0
LINE
8
Layer 1
10
116.287000
20
2459.030000
11
115.972146
21
2459.188750
0
LINE
8
Layer 1
10
115.972000
20
2459.190000
11
115.974646
21
2459.176771
0
LINE
8
Layer 1
10
115.974000
20
2459.180000
11
115.664438
21
2459.359916
0
LINE
8
Layer 1
10
115.665000
20
2459.360000
11
114.916230
21
2459.743645
0
LINE
8
Layer 1
10
114.916000
20
2459.740000
11
113.976730
21
2460.099833
0
LINE
8
Layer 1
10
113.977000
20
2460.100000
11
112.881630
21
2460.552437
0
LINE
8
Layer 1
10
112.881000
20
2460.550000
11
111.383460
21
2460.986562
0
LINE
8
Layer 1
10
111.384000
20
2460.990000
11
110.241000
21
2461.283687
0
LINE
8
Layer 1
10
110.241000
20
2461.280000
11
108.875750
21
2461.515479
0
LINE
8
Layer 1
10
108.876000
20
2461.520000
11
108.463251
21
2461.557042
0
LINE
8
Layer 1
10
108.463000
20
2461.560000
11
107.809480
21
2461.517667
0
LINE
8
Layer 1
10
107.809000
20
2461.510000
11
108.232333
21
2461.549687
0
LINE
8
Layer 1
10
108.233000
20
2461.550000
11
108.031917
21
2461.563229
0
LINE
8
Layer 1
10
108.032000
20
2461.570000
11
107.441980
21
2461.636146
0
LINE
8
Layer 1
10
107.441000
20
2461.630000
11
107.438354
21
2461.627354
0
LINE
8
Layer 1
10
123.922000
20
2450.150000
11
123.922000
21
2450.150000
0
LINE
8
Layer 1
10
123.922000
20
2450.150000
11
123.924646
21
2450.110312
0
LINE
8
Layer 1
10
123.925000
20
2450.110000
11
123.940875
21
2449.898334
0
LINE
8
Layer 1
10
123.941000
20
2449.890000
11
123.941000
21
2449.890000
0
LINE
8
Layer 1
10
123.941000
20
2449.890000
11
123.919833
21
2450.159875
0
LINE
8
Layer 1
10
123.920000
20
2450.160000
11
123.920000
21
2450.160000
0
LINE
8
Layer 1
10
123.920000
20
2450.160000
11
123.922646
21
2450.152063
0
LINE
8
Layer 1
10
123.922000
20
2450.150000
11
123.922000
21
2450.150000
0
LINE
8
Layer 1
10
154.093000
20
2456.580000
11
154.093000
21
2456.570000
0
LINE
8
Layer 1
10
154.093000
20
2456.570000
11
153.476522
21
2456.474750
0
LINE
8
Layer 1
10
153.476000
20
2456.470000
11
153.388688
21
2456.443542
0
LINE
8
Layer 1
10
153.389000
20
2456.450000
11
153.523937
21
2456.484396
0
LINE
8
Layer 1
10
153.524000
20
2456.480000
11
153.545167
21
2456.487937
0
LINE
8
Layer 1
10
153.545000
20
2456.490000
11
152.711564
21
2456.445021
0
LINE
8
Layer 1
10
152.712000
20
2456.450000
11
152.682896
21
2456.465875
0
LINE
8
Layer 1
10
152.683000
20
2456.460000
11
152.140605
21
2456.391208
0
LINE
8
Layer 1
10
152.140000
20
2456.390000
11
150.981130
21
2455.969313
0
LINE
8
Layer 1
10
150.981000
20
2455.970000
11
150.734938
21
2455.753042
0
LINE
8
Layer 1
10
150.735000
20
2455.750000
11
150.586834
21
2455.686500
0
LINE
8
Layer 1
10
150.587000
20
2455.690000
11
150.457354
21
2455.626500
0
LINE
8
Layer 1
10
150.457000
20
2455.630000
11
150.226813
21
2455.505646
0
LINE
8
Layer 1
10
150.227000
20
2455.500000
11
149.012560
21
2454.875584
0
LINE
8
Layer 1
10
149.013000
20
2454.880000
11
148.587021
21
2454.657750
0
LINE
8
Layer 1
10
148.587000
20
2454.660000
11
148.351521
21
2454.511834
0
LINE
8
Layer 1
10
148.351000
20
2454.510000
11
147.827126
21
2454.287750
0
LINE
8
Layer 1
10
147.827000
20
2454.290000
11
146.871855
21
2453.784646
0
LINE
8
Layer 1
10
146.872000
20
2453.780000
11
146.739709
21
2453.727083
0
LINE
8
Layer 1
10
146.740000
20
2453.730000
11
146.472771
21
2453.695604
0
LINE
8
Layer 1
10
146.473000
20
2453.690000
11
145.496689
21
2453.234917
0
LINE
8
Layer 1
10
145.496000
20
2453.240000
11
145.109709
21
2452.972771
0
LINE
8
Layer 1
10
145.110000
20
2452.970000
11
145.170854
21
2452.993812
0
LINE
8
Layer 1
10
145.171000
20
2453.000000
11
145.271542
21
2453.076729
0
LINE
8
Layer 1
10
145.272000
20
2453.070000
11
144.959792
21
2452.874209
0
LINE
8
Layer 1
10
144.959000
20
2452.880000
11
143.879500
21
2452.083605
0
LINE
8
Layer 1
10
143.880000
20
2452.080000
11
142.774040
21
2450.884080
0
LINE
8
Layer 1
10
142.774000
20
2450.880000
11
142.281876
21
2450.311147
0
LINE
8
Layer 1
10
142.282000
20
2450.310000
11
142.282000
21
2450.320000
0
LINE
8
Layer 1
10
142.282000
20
2450.320000
11
142.035938
21
2449.960167
0
LINE
8
Layer 1
10
142.036000
20
2449.960000
11
142.028063
21
2449.928250
0
LINE
8
Layer 1
10
142.028000
20
2449.930000
11
141.403584
21
2448.919290
0
LINE
8
Layer 1
10
141.403000
20
2448.920000
11
141.088146
21
2448.158001
0
LINE
8
Layer 1
10
141.089000
20
2448.160000
11
141.163083
21
2448.387541
0
LINE
8
Layer 1
10
141.163000
20
2448.380000
11
141.123312
21
2448.366771
0
LINE
8
Layer 1
10
141.123000
20
2448.370000
11
140.810792
21
2447.586834
0
LINE
8
Layer 1
10
140.811000
20
2447.590000
11
140.646959
21
2446.878272
0
LINE
8
Layer 1
10
140.647000
20
2446.880000
11
140.649646
21
2446.729188
0
LINE
8
Layer 1
10
140.649000
20
2446.720000
11
140.564333
21
2446.373396
0
LINE
8
Layer 1
10
140.565000
20
2446.380000
11
140.165480
21
2445.501584
0
LINE
8
Layer 1
10
140.165000
20
2445.500000
11
139.834271
21
2444.835897
0
LINE
8
Layer 1
10
139.834000
20
2444.840000
11
139.095813
21
2442.935000
0
LINE
8
Layer 1
10
139.096000
20
2442.930000
11
138.894917
21
2442.443167
0
LINE
8
Layer 1
10
138.895000
20
2442.440000
11
138.098605
21
2440.889540
0
LINE
8
Layer 1
10
138.099000
20
2440.890000
11
137.405793
21
2439.072310
0
LINE
8
Layer 1
10
137.406000
20
2439.080000
11
136.649293
21
2436.775480
0
LINE
8
Layer 1
10
136.649000
20
2436.770000
11
136.490250
21
2436.097959
0
LINE
8
Layer 1
10
136.490000
20
2436.100000
11
135.997876
21
2434.189710
0
LINE
8
Layer 1
10
135.998000
20
2434.190000
11
135.651396
21
2432.409360
0
LINE
8
Layer 1
10
135.651000
20
2432.410000
11
135.121834
21
2430.565860
0
LINE
8
Layer 1
10
135.122000
20
2430.560000
11
134.764813
21
2428.207860
0
LINE
8
Layer 1
10
134.765000
20
2428.210000
11
134.336376
21
2426.402900
0
LINE
8
Layer 1
10
134.336000
20
2426.400000
11
134.209000
21
2425.786167
0
LINE
8
Layer 1
10
134.209000
20
2425.790000
11
134.140208
21
2425.440750
0
LINE
8
Layer 1
10
134.141000
20
2425.440000
11
134.101312
21
2425.230979
0
LINE
8
Layer 1
10
134.101000
20
2425.230000
11
134.003104
21
2424.661147
0
LINE
8
Layer 1
10
134.003000
20
2424.660000
11
133.971250
21
2424.445688
0
LINE
8
Layer 1
10
133.971000
20
2424.450000
11
133.690542
21
2423.489564
0
LINE
8
Layer 1
10
133.691000
20
2423.490000
11
133.378792
21
2422.061250
0
LINE
8
Layer 1
10
133.379000
20
2422.060000
11
133.296979
21
2421.176293
0
LINE
8
Layer 1
10
133.297000
20
2421.180000
11
132.916000
21
2419.648060
0
LINE
8
Layer 1
10
132.916000
20
2419.640000
11
132.783708
21
2418.481130
0
LINE
8
Layer 1
10
132.783000
20
2418.490000
11
132.690396
21
2417.802084
0
LINE
8
Layer 1
10
132.691000
20
2417.800000
11
132.651312
21
2417.067105
0
LINE
8
Layer 1
10
132.651000
20
2417.060000
11
132.508125
21
2415.530710
0
LINE
8
Layer 1
10
132.508000
20
2415.540000
11
132.418042
21
2415.042584
0
LINE
8
Layer 1
10
132.418000
20
2415.040000
11
132.232792
21
2412.119000
0
LINE
8
Layer 1
10
132.233000
20
2412.120000
11
132.116583
21
2409.257210
0
LINE
8
Layer 1
10
132.117000
20
2409.250000
11
132.143458
21
2407.419090
0
LINE
8
Layer 1
10
132.143000
20
2407.420000
11
132.092729
21
2406.517772
0
LINE
8
Layer 1
10
132.093000
20
2406.520000
11
132.093000
21
2406.520000
0
LINE
8
Layer 1
10
132.093000
20
2406.520000
11
132.085063
21
2406.099313
0
LINE
8
Layer 1
10
132.085000
20
2406.100000
11
132.085000
21
2406.090000
0
LINE
8
Layer 1
10
132.085000
20
2406.090000
11
132.085000
21
2406.090000
0
LINE
8
Layer 1
10
132.085000
20
2406.090000
11
132.002979
21
2405.478813
0
LINE
8
Layer 1
10
132.003000
20
2405.480000
11
131.989771
21
2404.818543
0
LINE
8
Layer 1
10
131.990000
20
2404.820000
11
131.950312
21
2403.116090
0
LINE
8
Layer 1
10
131.950000
20
2403.110000
11
131.838875
21
2401.202360
0
LINE
8
Layer 1
10
131.839000
20
2401.210000
11
131.820479
21
2400.678188
0
LINE
8
Layer 1
10
131.820000
20
2400.670000
11
131.817354
21
2400.593271
0
LINE
8
Layer 1
10
131.818000
20
2400.600000
11
131.820646
21
2400.179313
0
LINE
8
Layer 1
10
131.820000
20
2400.180000
11
131.835875
21
2400.206458
0
LINE
8
Layer 1
10
131.836000
20
2400.200000
11
131.854521
21
2400.332292
0
LINE
8
Layer 1
10
131.855000
20
2400.340000
11
131.735938
21
2399.646793
0
LINE
8
Layer 1
10
131.736000
20
2399.640000
11
131.651333
21
2398.515520
0
LINE
8
Layer 1
10
131.651000
20
2398.520000
11
131.484313
21
2397.120360
0
LINE
8
Layer 1
10
131.484000
20
2397.120000
11
131.454896
21
2397.056500
0
LINE
8
Layer 1
10
131.455000
20
2397.050000
11
131.402083
21
2396.473209
0
LINE
8
Layer 1
10
131.402000
20
2396.480000
11
131.433750
21
2395.778855
0
LINE
8
Layer 1
10
131.434000
20
2395.780000
11
131.434000
21
2395.300000
0
LINE
8
Layer 1
10
131.434000
20
2395.300000
11
131.336104
21
2393.746900
0
LINE
8
Layer 1
10
131.336000
20
2393.750000
11
131.346583
21
2390.863400
0
LINE
8
Layer 1
10
131.347000
20
2390.860000
11
131.378750
21
2390.045084
0
LINE
8
Layer 1
10
131.378000
20
2390.050000
11
131.298625
21
2388.637130
0
LINE
8
Layer 1
10
131.299000
20
2388.640000
11
131.296354
21
2386.893750
0
LINE
8
Layer 1
10
131.296000
20
2386.890000
11
131.264250
21
2385.424210
0
LINE
8
Layer 1
10
131.265000
20
2385.420000
11
131.378771
21
2383.335090
0
LINE
8
Layer 1
10
131.378000
20
2383.340000
11
131.367417
21
2383.355875
0
LINE
8
Layer 1
10
131.368000
20
2383.350000
11
131.370646
21
2382.982230
0
LINE
8
Layer 1
10
131.370000
20
2382.990000
11
131.518166
21
2381.212000
0
LINE
8
Layer 1
10
131.519000
20
2381.210000
11
131.646000
21
2379.725690
0
LINE
8
Layer 1
10
131.646000
20
2379.720000
11
131.730667
21
2379.047959
0
LINE
8
Layer 1
10
131.730000
20
2379.050000
11
131.780271
21
2378.671646
0
LINE
8
Layer 1
10
131.780000
20
2378.670000
11
131.899062
21
2377.325920
0
LINE
8
Layer 1
10
131.900000
20
2377.330000
11
131.979375
21
2376.848459
0
LINE
8
Layer 1
10
131.979000
20
2376.850000
11
132.053083
21
2376.241459
0
LINE
8
Layer 1
10
132.053000
20
2376.240000
11
132.174708
21
2375.710834
0
LINE
8
Layer 1
10
132.175000
20
2375.710000
11
132.161771
21
2375.863458
0
LINE
8
Layer 1
10
132.161000
20
2375.860000
11
132.436166
21
2374.026440
0
LINE
8
Layer 1
10
132.437000
20
2374.030000
11
132.548125
21
2373.572271
0
LINE
8
Layer 1
10
132.548000
20
2373.570000
11
132.553292
21
2373.612333
0
LINE
8
Layer 1
10
132.553000
20
2373.610000
11
132.793771
21
2372.313540
0
LINE
8
Layer 1
10
132.794000
20
2372.320000
11
133.127375
21
2371.071170
0
LINE
8
Layer 1
10
133.127000
20
2371.070000
11
133.108479
21
2371.128208
0
LINE
8
Layer 1
10
133.109000
20
2371.130000
11
133.153979
21
2370.876000
0
LINE
8
Layer 1
10
133.154000
20
2370.870000
11
133.225437
21
2370.404334
0
LINE
8
Layer 1
10
133.225000
20
2370.410000
11
133.436666
21
2369.446918
0
LINE
8
Layer 1
10
133.437000
20
2369.450000
11
133.844458
21
2367.619090
0
LINE
8
Layer 1
10
133.844000
20
2367.610000
11
134.182666
21
2366.765980
0
LINE
8
Layer 1
10
134.183000
20
2366.770000
11
134.471395
21
2365.994772
0
LINE
8
Layer 1
10
134.471000
20
2365.990000
11
134.772625
21
2365.304730
0
LINE
8
Layer 1
10
134.773000
20
2365.310000
11
134.799458
21
2365.270312
0
LINE
8
Layer 1
10
134.799000
20
2365.270000
11
134.830750
21
2365.182688
0
LINE
8
Layer 1
10
134.831000
20
2365.180000
11
135.741166
21
2363.185040
0
LINE
8
Layer 1
10
135.741000
20
2363.190000
11
136.238416
21
2362.314230
0
LINE
8
Layer 1
10
136.239000
20
2362.310000
11
137.286750
21
2360.550520
0
LINE
8
Layer 1
10
137.286000
20
2360.550000
11
138.873500
21
2358.695270
0
LINE
8
Layer 1
10
138.874000
20
2358.700000
11
139.379354
21
2358.160251
0
LINE
8
Layer 1
10
139.379000
20
2358.160000
11
140.217728
21
2357.474730
0
LINE
8
Layer 1
10
140.218000
20
2357.470000
11
141.297500
21
2356.837647
0
LINE
8
Layer 1
10
141.298000
20
2356.840000
11
142.311350
21
2356.236751
0
LINE
8
Layer 1
10
142.311000
20
2356.240000
11
143.758270
21
2355.628813
0
LINE
8
Layer 1
10
143.758000
20
2355.630000
11
144.297749
21
2355.508292
0
LINE
8
Layer 1
10
144.298000
20
2355.500000
11
145.927830
21
2355.208959
0
LINE
8
Layer 1
10
145.928000
20
2355.210000
11
145.930646
21
2355.207354
0
LINE
8
Layer 1
10
145.930000
20
2355.210000
11
146.252791
21
2355.178250
0
LINE
8
Layer 1
10
146.253000
20
2355.180000
11
146.147167
21
2355.203812
0
LINE
8
Layer 1
10
146.147000
20
2355.200000
11
146.147000
21
2355.200000
0
LINE
8
Layer 1
10
146.147000
20
2355.200000
11
146.924874
21
2355.041250
0
LINE
8
Layer 1
10
146.925000
20
2355.040000
11
148.689770
21
2354.868021
0
LINE
8
Layer 1
10
148.690000
20
2354.870000
11
150.309250
21
2355.047271
0
LINE
8
Layer 1
10
150.309000
20
2355.050000
11
150.647666
21
2355.110854
0
LINE
8
Layer 1
10
150.648000
20
2355.110000
11
150.597729
21
2355.112646
0
LINE
8
Layer 1
10
150.598000
20
2355.110000
11
151.029270
21
2355.147042
0
LINE
8
Layer 1
10
151.029000
20
2355.150000
11
153.180060
21
2355.602437
0
LINE
8
Layer 1
10
153.180000
20
2355.600000
11
155.013560
21
2356.084187
0
LINE
8
Layer 1
10
155.014000
20
2356.080000
11
155.381770
21
2356.217583
0
LINE
8
Layer 1
10
155.381000
20
2356.220000
11
155.309563
21
2356.206771
0
LINE
8
Layer 1
10
155.310000
20
2356.210000
11
155.683062
21
2356.323771
0
LINE
8
Layer 1
10
155.683000
20
2356.320000
11
157.262560
21
2357.034374
0
LINE
8
Layer 1
10
157.262000
20
2357.040000
11
158.315040
21
2357.712041
0
LINE
8
Layer 1
10
158.316000
20
2357.710000
11
159.011853
21
2358.249749
0
LINE
8
Layer 1
10
159.011000
20
2358.250000
11
160.161940
21
2359.160166
0
LINE
8
Layer 1
10
160.162000
20
2359.160000
11
160.569458
21
2359.638895
0
LINE
8
Layer 1
10
160.570000
20
2359.640000
11
160.564708
21
2359.610896
0
LINE
8
Layer 1
10
160.564000
20
2359.610000
11
160.852395
21
2359.977770
0
LINE
8
Layer 1
10
160.853000
20
2359.980000
11
161.107000
21
2360.361000
0
LINE
8
Layer 1
10
161.107000
20
2360.360000
11
161.017042
21
2360.256813
0
LINE
8
Layer 1
10
161.017000
20
2360.250000
11
160.950854
21
2360.141521
0
LINE
8
Layer 1
10
160.951000
20
2360.140000
11
161.205000
21
2360.457500
0
LINE
8
Layer 1
10
161.205000
20
2360.460000
11
161.205000
21
2360.460000
0
LINE
8
Layer 1
10
161.205000
20
2360.460000
11
162.072832
21
2361.764390
0
LINE
8
Layer 1
10
162.073000
20
2361.760000
11
162.231750
21
2361.984896
0
LINE
8
Layer 1
10
162.231000
20
2361.990000
11
162.141042
21
2361.841834
0
LINE
8
Layer 1
10
162.141000
20
2361.840000
11
162.498187
21
2362.300374
0
LINE
8
Layer 1
10
162.499000
20
2362.300000
11
162.800625
21
2362.778895
0
LINE
8
Layer 1
10
162.800000
20
2362.780000
11
162.699458
21
2362.653000
0
LINE
8
Layer 1
10
162.700000
20
2362.650000
11
162.919604
21
2362.983375
0
LINE
8
Layer 1
10
162.919000
20
2362.990000
11
162.919000
21
2362.990000
0
LINE
8
Layer 1
10
162.919000
20
2362.990000
11
162.903125
21
2362.934438
0
LINE
8
Layer 1
10
162.903000
20
2362.930000
11
163.196687
21
2363.303062
0
LINE
8
Layer 1
10
163.197000
20
2363.310000
11
164.062186
21
2364.664660
0
LINE
8
Layer 1
10
164.062000
20
2364.660000
11
164.503854
21
2365.538416
0
LINE
8
Layer 1
10
164.504000
20
2365.540000
11
164.657458
21
2365.854854
0
LINE
8
Layer 1
10
164.658000
20
2365.850000
11
164.874958
21
2366.326249
0
LINE
8
Layer 1
10
164.875000
20
2366.330000
11
165.025812
21
2366.798312
0
LINE
8
Layer 1
10
165.025000
20
2366.800000
11
165.001188
21
2366.773542
0
LINE
8
Layer 1
10
165.002000
20
2366.770000
11
165.065500
21
2366.986958
0
LINE
8
Layer 1
10
165.065000
20
2366.990000
11
165.088812
21
2367.048208
0
LINE
8
Layer 1
10
165.089000
20
2367.050000
11
165.123396
21
2367.171708
0
LINE
8
Layer 1
10
165.123000
20
2367.170000
11
165.152104
21
2367.299646
0
LINE
8
Layer 1
10
165.152000
20
2367.300000
11
165.178458
21
2367.437583
0
LINE
8
Layer 1
10
165.179000
20
2367.440000
11
165.179000
21
2367.450000
0
LINE
8
Layer 1
10
165.179000
20
2367.450000
11
165.205458
21
2367.569062
0
LINE
8
Layer 1
10
165.205000
20
2367.570000
11
165.556895
21
2368.980230
0
LINE
8
Layer 1
10
165.557000
20
2368.980000
11
165.623146
21
2369.482708
0
LINE
8
Layer 1
10
165.623000
20
2369.480000
11
165.612417
21
2369.532917
0
LINE
8
Layer 1
10
165.613000
20
2369.530000
11
165.740000
21
2370.215270
0
LINE
8
Layer 1
10
165.740000
20
2370.220000
11
165.856417
21
2372.349890
0
LINE
8
Layer 1
10
165.856000
20
2372.350000
11
165.895688
21
2373.111999
0
LINE
8
Layer 1
10
165.896000
20
2373.110000
11
165.864250
21
2374.819210
0
LINE
8
Layer 1
10
165.864000
20
2374.820000
11
165.803146
21
2375.722228
0
LINE
8
Layer 1
10
165.803000
20
2375.720000
11
165.617792
21
2376.693665
0
LINE
8
Layer 1
10
165.618000
20
2376.690000
11
165.599479
21
2377.174187
0
LINE
8
Layer 1
10
165.599000
20
2377.180000
11
165.596354
21
2377.198521
0
LINE
8
Layer 1
10
165.597000
20
2377.200000
11
165.562604
21
2377.882624
0
LINE
8
Layer 1
10
165.562000
20
2377.880000
11
165.310646
21
2379.898770
0
LINE
8
Layer 1
10
165.311000
20
2379.900000
11
165.279250
21
2380.744020
0
LINE
8
Layer 1
10
165.279000
20
2380.740000
11
165.247250
21
2381.615770
0
LINE
8
Layer 1
10
165.248000
20
2381.620000
11
165.245354
21
2381.667625
0
LINE
8
Layer 1
10
165.245000
20
2381.670000
11
165.258229
21
2381.770542
0
LINE
8
Layer 1
10
165.258000
20
2381.770000
11
165.265937
21
2382.010771
0
LINE
8
Layer 1
10
165.266000
20
2382.010000
11
165.263354
21
2382.147583
0
LINE
8
Layer 1
10
165.263000
20
2382.150000
11
165.255063
21
2382.644770
0
LINE
8
Layer 1
10
165.256000
20
2382.640000
11
165.192500
21
2383.396707
0
LINE
8
Layer 1
10
165.192000
20
2383.400000
11
165.199937
21
2383.328563
0
LINE
8
Layer 1
10
165.200000
20
2383.330000
11
165.205292
21
2383.430542
0
LINE
8
Layer 1
10
165.205000
20
2383.430000
11
165.199708
21
2384.281957
0
LINE
8
Layer 1
10
165.200000
20
2384.280000
11
165.184125
21
2385.581750
0
LINE
8
Layer 1
10
165.184000
20
2385.580000
11
165.070229
21
2386.289082
0
LINE
8
Layer 1
10
165.070000
20
2386.290000
11
165.070000
21
2386.290000
0
LINE
8
Layer 1
10
165.070000
20
2386.290000
11
165.070000
21
2386.420000
0
LINE
8
Layer 1
10
165.070000
20
2386.420000
11
165.051479
21
2386.607854
0
LINE
8
Layer 1
10
165.052000
20
2386.610000
11
164.972625
21
2387.107416
0
LINE
8
Layer 1
10
164.972000
20
2387.110000
11
164.765625
21
2388.596960
0
LINE
8
Layer 1
10
164.766000
20
2388.590000
11
164.678688
21
2390.021390
0
LINE
8
Layer 1
10
164.679000
20
2390.020000
11
164.623438
21
2390.408937
0
LINE
8
Layer 1
10
164.623000
20
2390.410000
11
164.612417
21
2390.412646
0
LINE
8
Layer 1
10
164.613000
20
2390.420000
11
164.565375
21
2391.240207
0
LINE
8
Layer 1
10
164.565000
20
2391.240000
11
164.506792
21
2391.718895
0
LINE
8
Layer 1
10
164.507000
20
2391.720000
11
164.501708
21
2391.881396
0
LINE
8
Layer 1
10
164.501000
20
2391.880000
11
164.461312
21
2392.512353
0
LINE
8
Layer 1
10
164.462000
20
2392.510000
11
164.287375
21
2393.973140
0
LINE
8
Layer 1
10
164.287000
20
2393.970000
11
164.265833
21
2395.454310
0
LINE
8
Layer 1
10
164.266000
20
2395.460000
11
164.205146
21
2396.362228
0
LINE
8
Layer 1
10
164.205000
20
2396.360000
11
164.197063
21
2396.476417
0
LINE
8
Layer 1
10
164.197000
20
2396.470000
11
164.345166
21
2398.113060
0
LINE
8
Layer 1
10
164.345000
20
2398.120000
11
164.445542
21
2399.911230
0
LINE
8
Layer 1
10
164.446000
20
2399.910000
11
164.607396
21
2401.666830
0
LINE
8
Layer 1
10
164.607000
20
2401.670000
11
164.675792
21
2403.963930
0
LINE
8
Layer 1
10
164.676000
20
2403.960000
11
164.686583
21
2404.169021
0
LINE
8
Layer 1
10
164.687000
20
2404.170000
11
164.676417
21
2404.109146
0
LINE
8
Layer 1
10
164.676000
20
2404.110000
11
164.752729
21
2404.565083
0
LINE
8
Layer 1
10
164.753000
20
2404.560000
11
164.803271
21
2405.054770
0
LINE
8
Layer 1
10
164.803000
20
2405.060000
11
164.903542
21
2405.679124
0
LINE
8
Layer 1
10
164.904000
20
2405.680000
11
165.017771
21
2406.844170
0
LINE
8
Layer 1
10
165.017000
20
2406.840000
11
165.040812
21
2407.517332
0
LINE
8
Layer 1
10
165.041000
20
2407.520000
11
165.033063
21
2407.533229
0
LINE
8
Layer 1
10
165.033000
20
2407.530000
11
165.003896
21
2407.403000
0
LINE
8
Layer 1
10
165.004000
20
2407.400000
11
165.157458
21
2407.984728
0
LINE
8
Layer 1
10
165.158000
20
2407.990000
11
165.274417
21
2408.654103
0
LINE
8
Layer 1
10
165.274000
20
2408.650000
11
165.424812
21
2409.703040
0
LINE
8
Layer 1
10
165.425000
20
2409.710000
11
165.552000
21
2410.368812
0
LINE
8
Layer 1
10
165.552000
20
2410.370000
11
165.594333
21
2410.729833
0
LINE
8
Layer 1
10
165.594000
20
2410.730000
11
165.718354
21
2411.132166
0
LINE
8
Layer 1
10
165.719000
20
2411.130000
11
166.144979
21
2412.675160
0
LINE
8
Layer 1
10
166.145000
20
2412.670000
11
166.242896
21
2413.429353
0
LINE
8
Layer 1
10
166.242000
20
2413.430000
11
166.408687
21
2414.332228
0
LINE
8
Layer 1
10
166.409000
20
2414.330000
11
166.676229
21
2416.155620
0
LINE
8
Layer 1
10
166.676000
20
2416.160000
11
167.012020
21
2417.527890
0
LINE
8
Layer 1
10
167.012000
20
2417.530000
11
167.395645
21
2419.572580
0
LINE
8
Layer 1
10
167.396000
20
2419.570000
11
167.610312
21
2420.630980
0
LINE
8
Layer 1
10
167.610000
20
2420.630000
11
167.779333
21
2422.098440
0
LINE
8
Layer 1
10
167.780000
20
2422.100000
11
167.994312
21
2423.139810
0
LINE
8
Layer 1
10
167.994000
20
2423.140000
11
168.388229
21
2425.322810
0
LINE
8
Layer 1
10
168.388000
20
2425.320000
11
168.991249
21
2427.574250
0
LINE
8
Layer 1
10
168.991000
20
2427.580000
11
169.287333
21
2429.588180
0
LINE
8
Layer 1
10
169.288000
20
2429.580000
11
169.647833
21
2430.966410
0
LINE
8
Layer 1
10
169.648000
20
2430.970000
11
169.886125
21
2432.253230
0
LINE
8
Layer 1
10
169.886000
20
2432.250000
11
169.901875
21
2432.268521
0
LINE
8
Layer 1
10
169.902000
20
2432.270000
11
170.013125
21
2432.682749
0
LINE
8
Layer 1
10
170.013000
20
2432.690000
11
170.095021
21
2433.171541
0
LINE
8
Layer 1
10
170.095000
20
2433.170000
11
170.253750
21
2434.056353
0
LINE
8
Layer 1
10
170.253000
20
2434.050000
11
170.260937
21
2434.092333
0
LINE
8
Layer 1
10
170.261000
20
2434.100000
11
170.311271
21
2434.248166
0
LINE
8
Layer 1
10
170.312000
20
2434.240000
11
170.550125
21
2435.242770
0
LINE
8
Layer 1
10
170.550000
20
2435.250000
11
170.653187
21
2435.821499
0
LINE
8
Layer 1
10
170.653000
20
2435.820000
11
170.668875
21
2435.947000
0
LINE
8
Layer 1
10
170.669000
20
2435.950000
11
170.650479
21
2435.894438
0
LINE
8
Layer 1
10
170.650000
20
2435.890000
11
171.147416
21
2437.620370
0
LINE
8
Layer 1
10
171.148000
20
2437.620000
11
171.237958
21
2438.210020
0
LINE
8
Layer 1
10
171.238000
20
2438.210000
11
171.267104
21
2438.429604
0
LINE
8
Layer 1
10
171.267000
20
2438.430000
11
171.269646
21
2438.461750
0
LINE
8
Layer 1
10
171.269000
20
2438.460000
11
171.282229
21
2438.407083
0
LINE
8
Layer 1
10
171.283000
20
2438.410000
11
171.362375
21
2438.883604
0
LINE
8
Layer 1
10
171.362000
20
2438.880000
11
171.385812
21
2439.464728
0
LINE
8
Layer 1
10
171.386000
20
2439.470000
11
171.386000
21
2439.470000
0
LINE
8
Layer 1
10
171.386000
20
2439.470000
11
171.449500
21
2440.589190
0
LINE
8
Layer 1
10
171.449000
20
2440.590000
11
171.449000
21
2441.210000
0
LINE
8
Layer 1
10
171.449000
20
2441.210000
11
171.488688
21
2442.027561
0
LINE
8
Layer 1
10
171.489000
20
2442.030000
11
171.369938
21
2443.270890
0
LINE
8
Layer 1
10
171.370000
20
2443.270000
11
171.150396
21
2443.997603
0
LINE
8
Layer 1
10
171.150000
20
2444.000000
11
171.012417
21
2444.378354
0
LINE
8
Layer 1
10
171.013000
20
2444.380000
11
170.079022
21
2446.679230
0
LINE
8
Layer 1
10
170.079000
20
2446.680000
11
169.660959
21
2447.486978
0
LINE
8
Layer 1
10
169.661000
20
2447.480000
11
168.906938
21
2448.927270
0
LINE
8
Layer 1
10
168.907000
20
2448.930000
11
167.782520
21
2450.522790
0
LINE
8
Layer 1
10
167.782000
20
2450.520000
11
167.639125
21
2450.726375
0
LINE
8
Layer 1
10
167.639000
20
2450.730000
11
167.001355
21
2451.267103
0
LINE
8
Layer 1
10
167.002000
20
2451.270000
11
166.684500
21
2451.476375
0
LINE
8
Layer 1
10
166.684000
20
2451.470000
11
166.681354
21
2451.459417
0
LINE
8
Layer 1
10
166.682000
20
2451.460000
11
165.964980
21
2452.076478
0
LINE
8
Layer 1
10
165.965000
20
2452.080000
11
165.353813
21
2452.733520
0
LINE
8
Layer 1
10
165.353000
20
2452.730000
11
164.252330
21
2453.653395
0
LINE
8
Layer 1
10
164.253000
20
2453.660000
11
162.766040
21
2454.509311
0
LINE
8
Layer 1
10
162.766000
20
2454.510000
11
161.268460
21
2455.131770
0
LINE
8
Layer 1
10
161.268000
20
2455.130000
11
159.447670
21
2455.677687
0
LINE
8
Layer 1
10
159.448000
20
2455.680000
11
158.603980
21
2455.989562
0
LINE
8
Layer 1
10
158.604000
20
2455.980000
11
157.294310
21
2456.329250
0
LINE
8
Layer 1
10
157.294000
20
2456.330000
11
155.857310
21
2456.441125
0
LINE
8
Layer 1
10
155.858000
20
2456.450000
11
154.638270
21
2456.582291
0
LINE
8
Layer 1
10
154.638000
20
2456.580000
11
154.092959
21
2456.585292
0
LINE
8
Layer 1
10
154.093000
20
2456.580000
11
154.093000
21
2456.580000
0
LINE
8
Layer 1
10
123.697000
20
2451.060000
11
123.699646
21
2451.052063
0
LINE
8
Layer 1
10
123.700000
20
2451.050000
11
123.702646
21
2451.047354
0
LINE
8
Layer 1
10
123.703000
20
2451.050000
11
123.697708
21
2451.060583
0
LINE
8
Layer 1
10
219.519000
20
2406.730000
11
219.519000
21
2406.730000
0
LINE
8
Layer 1
10
219.519000
20
2406.730000
11
218.558564
21
2406.716771
0
LINE
8
Layer 1
10
218.558000
20
2406.720000
11
217.621376
21
2406.542729
0
LINE
8
Layer 1
10
217.622000
20
2406.540000
11
216.852063
21
2406.037292
0
LINE
8
Layer 1
10
216.852000
20
2406.040000
11
216.328126
21
2405.283293
0
LINE
8
Layer 1
10
216.328000
20
2405.280000
11
216.129563
21
2404.348668
0
LINE
8
Layer 1
10
216.130000
20
2404.350000
11
216.304625
21
2403.413376
0
LINE
8
Layer 1
10
216.304000
20
2403.410000
11
216.809354
21
2402.640063
0
LINE
8
Layer 1
10
216.810000
20
2402.640000
11
217.566707
21
2402.116126
0
LINE
8
Layer 1
10
217.566000
20
2402.120000
11
218.497332
21
2401.918917
0
LINE
8
Layer 1
10
218.498000
20
2401.920000
11
220.320980
21
2401.906771
0
LINE
8
Layer 1
10
220.321000
20
2401.900000
11
221.228520
21
2401.677750
0
LINE
8
Layer 1
10
221.228000
20
2401.680000
11
223.066850
21
2401.100563
0
LINE
8
Layer 1
10
223.067000
20
2401.100000
11
224.718000
21
2400.258626
0
LINE
8
Layer 1
10
224.718000
20
2400.260000
11
225.887460
21
2399.259880
0
LINE
8
Layer 1
10
225.887000
20
2399.260000
11
227.194040
21
2397.810090
0
LINE
8
Layer 1
10
227.194000
20
2397.810000
11
228.127978
21
2396.611440
0
LINE
8
Layer 1
10
228.128000
20
2396.610000
11
228.620124
21
2395.657501
0
LINE
8
Layer 1
10
228.621000
20
2395.660000
11
229.004645
21
2393.524820
0
LINE
8
Layer 1
10
229.004000
20
2393.520000
11
229.287104
21
2390.969420
0
LINE
8
Layer 1
10
229.287000
20
2390.970000
11
229.514541
21
2389.356040
0
LINE
8
Layer 1
10
229.515000
20
2389.360000
11
229.552042
21
2387.055480
0
LINE
8
Layer 1
10
229.552000
20
2387.060000
11
229.197459
21
2384.882480
0
LINE
8
Layer 1
10
229.197000
20
2384.880000
11
228.662542
21
2383.512110
0
LINE
8
Layer 1
10
228.663000
20
2383.510000
11
228.385188
21
2382.837959
0
LINE
8
Layer 1
10
228.385000
20
2382.840000
11
228.321500
21
2382.628334
0
LINE
8
Layer 1
10
228.322000
20
2382.630000
11
227.525605
21
2381.751584
0
LINE
8
Layer 1
10
227.525000
20
2381.750000
11
226.702147
21
2381.231417
0
LINE
8
Layer 1
10
226.702000
20
2381.230000
11
225.651610
21
2380.907209
0
LINE
8
Layer 1
10
225.652000
20
2380.910000
11
224.178270
21
2380.621605
0
LINE
8
Layer 1
10
224.178000
20
2380.620000
11
222.209500
21
2380.276042
0
LINE
8
Layer 1
10
222.210000
20
2380.270000
11
220.823590
21
2380.251479
0
LINE
8
Layer 1
10
220.823000
20
2380.260000
11
219.889022
21
2380.069500
0
LINE
8
Layer 1
10
219.889000
20
2380.070000
11
219.127001
21
2379.556709
0
LINE
8
Layer 1
10
219.127000
20
2379.550000
11
218.611063
21
2378.788001
0
LINE
8
Layer 1
10
218.611000
20
2378.790000
11
218.423146
21
2377.856022
0
LINE
8
Layer 1
10
218.423000
20
2377.860000
11
218.610854
21
2376.926022
0
LINE
8
Layer 1
10
218.611000
20
2376.920000
11
219.126937
21
2376.155355
0
LINE
8
Layer 1
10
219.127000
20
2376.160000
11
219.888999
21
2375.646709
0
LINE
8
Layer 1
10
219.889000
20
2375.640000
11
220.822978
21
2375.452146
0
LINE
8
Layer 1
10
220.823000
20
2375.460000
11
222.614230
21
2375.518208
0
LINE
8
Layer 1
10
222.614000
20
2375.510000
11
225.053460
21
2375.893645
0
LINE
8
Layer 1
10
225.054000
20
2375.900000
11
226.956350
21
2376.339208
0
LINE
8
Layer 1
10
226.956000
20
2376.340000
11
228.818660
21
2377.035853
0
LINE
8
Layer 1
10
228.819000
20
2377.030000
11
230.567890
21
2378.112140
0
LINE
8
Layer 1
10
230.568000
20
2378.120000
11
232.134330
21
2379.712790
0
LINE
8
Layer 1
10
232.134000
20
2379.710000
11
232.856312
21
2380.837120
0
LINE
8
Layer 1
10
232.856000
20
2380.840000
11
233.326958
21
2381.893040
0
LINE
8
Layer 1
10
233.327000
20
2381.890000
11
233.832354
21
2383.630960
0
LINE
8
Layer 1
10
233.833000
20
2383.630000
11
234.166375
21
2385.183100
0
LINE
8
Layer 1
10
234.166000
20
2385.180000
11
234.340625
21
2386.730460
0
LINE
8
Layer 1
10
234.341000
20
2386.730000
11
234.298667
21
2389.775350
0
LINE
8
Layer 1
10
234.298000
20
2389.780000
11
234.049292
21
2391.565940
0
LINE
8
Layer 1
10
234.050000
20
2391.560000
11
233.785417
21
2394.089410
0
LINE
8
Layer 1
10
233.785000
20
2394.090000
11
233.234667
21
2396.973950
0
LINE
8
Layer 1
10
233.235000
20
2396.980000
11
232.756105
21
2398.231480
0
LINE
8
Layer 1
10
232.756000
20
2398.230000
11
232.142167
21
2399.288330
0
LINE
8
Layer 1
10
232.142000
20
2399.290000
11
230.827020
21
2400.951580
0
LINE
8
Layer 1
10
230.827000
20
2400.950000
11
229.332110
21
2402.630100
0
LINE
8
Layer 1
10
229.332000
20
2402.630000
11
228.395376
21
2403.503124
0
LINE
8
Layer 1
10
228.396000
20
2403.500000
11
227.284750
21
2404.314916
0
LINE
8
Layer 1
10
227.284000
20
2404.320000
11
224.863070
21
2405.555600
0
LINE
8
Layer 1
10
224.863000
20
2405.550000
11
222.349460
21
2406.346395
0
LINE
8
Layer 1
10
222.350000
20
2406.350000
11
220.765150
21
2406.683375
0
LINE
8
Layer 1
10
220.765000
20
2406.680000
11
219.518810
21
2406.727625
0
LINE
8
Layer 1
10
219.519000
20
2406.730000
11
219.519000
21
2406.730000
0
LINE
8
Layer 1
10
62.623800
20
2404.550000
11
62.187238
21
2402.359250
0
LINE
8
Layer 1
10
62.187200
20
2402.360000
11
60.885440
21
2395.975610
0
LINE
8
Layer 1
10
60.885500
20
2395.970000
11
60.507146
21
2394.594170
0
LINE
8
Layer 1
10
60.507100
20
2394.600000
11
60.057309
21
2392.676480
0
LINE
8
Layer 1
10
60.057300
20
2392.680000
11
59.747738
21
2389.899230
0
LINE
8
Layer 1
10
59.747800
20
2389.890000
11
59.626092
21
2387.204480
0
LINE
8
Layer 1
10
59.626000
20
2387.210000
11
59.446084
21
2382.399880
0
LINE
8
Layer 1
10
59.446100
20
2382.400000
11
59.443454
21
2382.357667
0
LINE
8
Layer 1
10
59.443500
20
2382.360000
11
59.356188
21
2381.402210
0
LINE
8
Layer 1
10
59.356200
20
2381.400000
11
59.202742
21
2381.487312
0
LINE
8
Layer 1
10
59.202700
20
2381.490000
11
57.779240
21
2382.606540
0
LINE
8
Layer 1
10
57.779300
20
2382.600000
11
57.210447
21
2383.028624
0
LINE
8
Layer 1
10
57.210400
20
2383.030000
11
56.996088
21
2383.246958
0
LINE
8
Layer 1
10
56.996100
20
2383.250000
11
56.694475
21
2383.546333
0
LINE
8
Layer 1
10
56.694500
20
2383.540000
11
55.977480
21
2384.733270
0
LINE
8
Layer 1
10
55.977400
20
2384.740000
11
55.659900
21
2385.179208
0
LINE
8
Layer 1
10
55.659900
20
2385.180000
11
55.395325
21
2385.608624
0
LINE
8
Layer 1
10
55.395400
20
2385.610000
11
55.215484
21
2385.871937
0
LINE
8
Layer 1
10
55.215500
20
2385.870000
11
55.114958
21
2386.399166
0
LINE
8
Layer 1
10
55.114900
20
2386.400000
11
55.030233
21
2386.712208
0
LINE
8
Layer 1
10
55.030200
20
2386.710000
11
54.945533
21
2387.268270
0
LINE
8
Layer 1
10
54.945600
20
2387.270000
11
54.543434
21
2388.592920
0
LINE
8
Layer 1
10
54.543400
20
2388.590000
11
54.270880
21
2389.182666
0
LINE
8
Layer 1
10
54.270900
20
2389.180000
11
54.225921
21
2390.108686
0
LINE
8
Layer 1
10
54.225900
20
2390.110000
11
54.130650
21
2390.562437
0
LINE
8
Layer 1
10
54.130700
20
2390.560000
11
54.040742
21
2390.896020
0
LINE
8
Layer 1
10
54.040700
20
2390.900000
11
53.953388
21
2391.214854
0
LINE
8
Layer 1
10
53.953400
20
2391.210000
11
53.866088
21
2391.493104
0
LINE
8
Layer 1
10
53.866100
20
2391.500000
11
53.762913
21
2391.796333
0
LINE
8
Layer 1
10
53.762900
20
2391.790000
11
53.757608
21
2392.562582
0
LINE
8
Layer 1
10
53.757600
20
2392.570000
11
53.720558
21
2394.781910
0
LINE
8
Layer 1
10
53.720600
20
2394.780000
11
53.860829
21
2395.145125
0
LINE
8
Layer 1
10
53.860800
20
2395.140000
11
54.067175
21
2396.047520
0
LINE
8
Layer 1
10
54.067200
20
2396.050000
11
54.077783
21
2396.153187
0
LINE
8
Layer 1
10
54.077700
20
2396.150000
11
54.249679
21
2396.771770
0
LINE
8
Layer 1
10
54.249700
20
2396.780000
11
54.278804
21
2396.994312
0
LINE
8
Layer 1
10
54.278800
20
2396.990000
11
54.511633
21
2397.659395
0
LINE
8
Layer 1
10
54.511700
20
2397.660000
11
54.667804
21
2398.509311
0
LINE
8
Layer 1
10
54.667800
20
2398.510000
11
54.874175
21
2399.573620
0
LINE
8
Layer 1
10
54.874100
20
2399.570000
11
55.114871
21
2400.030374
0
LINE
8
Layer 1
10
55.114900
20
2400.030000
11
55.226025
21
2400.302520
0
LINE
8
Layer 1
10
55.226000
20
2400.310000
11
55.329187
21
2400.587812
0
LINE
8
Layer 1
10
55.329200
20
2400.580000
11
55.382117
21
2400.770500
0
LINE
8
Layer 1
10
55.382100
20
2400.770000
11
55.382100
21
2400.780000
0
LINE
8
Layer 1
10
55.382100
20
2400.780000
11
55.403267
21
2400.782646
0
LINE
8
Layer 1
10
55.403300
20
2400.780000
11
55.514417
21
2401.018125
0
LINE
8
Layer 1
10
55.514400
20
2401.020000
11
55.842483
21
2401.834916
0
LINE
8
Layer 1
10
55.842500
20
2401.830000
11
56.093854
21
2402.565541
0
LINE
8
Layer 1
10
56.093900
20
2402.570000
11
56.326733
21
2402.913958
0
LINE
8
Layer 1
10
56.326700
20
2402.910000
11
56.646845
21
2403.203687
0
LINE
8
Layer 1
10
56.646800
20
2403.210000
11
57.559611
21
2403.527500
0
LINE
8
Layer 1
10
57.559700
20
2403.520000
11
58.184116
21
2403.824270
0
LINE
8
Layer 1
10
58.184100
20
2403.830000
11
58.845557
21
2403.991396
0
LINE
8
Layer 1
10
58.845500
20
2403.990000
11
60.734620
21
2404.154041
0
LINE
8
Layer 1
10
60.734600
20
2404.150000
11
62.623730
21
2404.546875
0
LINE
8
Layer 1
10
62.623800
20
2404.550000
11
62.623800
21
2404.550000
0
LINE
8
Layer 1
10
102.557000
20
2333.590000
11
102.557000
21
2333.590000
0
LINE
8
Layer 1
10
102.557000
20
2333.590000
11
101.633605
21
2333.436542
0
LINE
8
Layer 1
10
101.634000
20
2333.440000
11
100.837605
21
2332.947876
0
LINE
8
Layer 1
10
100.838000
20
2332.940000
11
99.829940
21
2332.061584
0
LINE
8
Layer 1
10
99.829400
20
2332.060000
11
98.588510
21
2330.805880
0
LINE
8
Layer 1
10
98.588500
20
2330.810000
11
97.710084
21
2329.550580
0
LINE
8
Layer 1
10
97.710100
20
2329.550000
11
97.096267
21
2328.396420
0
LINE
8
Layer 1
10
97.096300
20
2328.400000
11
96.223176
21
2326.233070
0
LINE
8
Layer 1
10
96.223200
20
2326.230000
11
95.683451
21
2324.049840
0
LINE
8
Layer 1
10
95.683400
20
2324.050000
11
95.389713
21
2321.896290
0
LINE
8
Layer 1
10
95.389700
20
2321.900000
11
95.246825
21
2319.830960
0
LINE
8
Layer 1
10
95.246900
20
2319.830000
11
95.392421
21
2318.885439
0
LINE
8
Layer 1
10
95.392400
20
2318.880000
11
95.868649
21
2318.094188
0
LINE
8
Layer 1
10
95.868600
20
2318.100000
11
96.606787
21
2317.549667
0
LINE
8
Layer 1
10
96.606800
20
2317.550000
11
97.530195
21
2317.317167
0
LINE
8
Layer 1
10
97.530200
20
2317.310000
11
98.472115
21
2317.455521
0
LINE
8
Layer 1
10
98.472100
20
2317.460000
11
99.260557
21
2317.938895
0
LINE
8
Layer 1
10
99.260600
20
2317.940000
11
99.808287
21
2318.675541
0
LINE
8
Layer 1
10
99.808300
20
2318.670000
11
100.041133
21
2319.596040
0
LINE
8
Layer 1
10
100.041000
20
2319.600000
11
100.414062
21
2323.161290
0
LINE
8
Layer 1
10
100.414000
20
2323.160000
11
100.808229
21
2324.781890
0
LINE
8
Layer 1
10
100.808000
20
2324.780000
11
101.387437
21
2326.245790
0
LINE
8
Layer 1
10
101.388000
20
2326.250000
11
102.271707
21
2327.729020
0
LINE
8
Layer 1
10
102.272000
20
2327.730000
11
104.121440
21
2329.441850
0
LINE
8
Layer 1
10
104.121000
20
2329.440000
11
104.673978
21
2330.215228
0
LINE
8
Layer 1
10
104.674000
20
2330.220000
11
104.877729
21
2331.116936
0
LINE
8
Layer 1
10
104.878000
20
2331.110000
11
104.732479
21
2332.020166
0
LINE
8
Layer 1
10
104.732000
20
2332.020000
11
104.231938
21
2332.829624
0
LINE
8
Layer 1
10
104.232000
20
2332.830000
11
103.470001
21
2333.375041
0
LINE
8
Layer 1
10
103.470000
20
2333.380000
11
102.557189
21
2333.591666
0
LINE
8
Layer 1
10
102.557000
20
2333.590000
11
102.557000
21
2333.590000
0
LINE
8
Layer 1
10
141.218000
20
2329.160000
11
140.305189
21
2328.958917
0
LINE
8
Layer 1
10
140.305000
20
2328.960000
11
139.535063
21
2328.425542
0
LINE
8
Layer 1
10
139.535000
20
2328.430000
11
139.021709
21
2327.628314
0
LINE
8
Layer 1
10
139.022000
20
2327.630000
11
138.863250
21
2326.722480
0
LINE
8
Layer 1
10
138.863000
20
2326.720000
11
139.056146
21
2325.820418
0
LINE
8
Layer 1
10
139.057000
20
2325.820000
11
139.599395
21
2325.036834
0
LINE
8
Layer 1
10
139.599000
20
2325.040000
11
140.890170
21
2323.857310
0
LINE
8
Layer 1
10
140.890000
20
2323.850000
11
141.559395
21
2322.968939
0
LINE
8
Layer 1
10
141.559000
20
2322.970000
11
141.932062
21
2321.943420
0
LINE
8
Layer 1
10
141.933000
20
2321.950000
11
142.181708
21
2320.558290
0
LINE
8
Layer 1
10
142.181000
20
2320.560000
11
142.395312
21
2318.805810
0
LINE
8
Layer 1
10
142.396000
20
2318.800000
11
142.403937
21
2317.479730
0
LINE
8
Layer 1
10
142.403000
20
2317.480000
11
142.117250
21
2316.257630
0
LINE
8
Layer 1
10
142.118000
20
2316.260000
11
141.459188
21
2314.812730
0
LINE
8
Layer 1
10
141.459000
20
2314.810000
11
141.191771
21
2313.894543
0
LINE
8
Layer 1
10
141.192000
20
2313.900000
11
141.292542
21
2312.987189
0
LINE
8
Layer 1
10
141.292000
20
2312.980000
11
141.728562
21
2312.170376
0
LINE
8
Layer 1
10
141.729000
20
2312.170000
11
142.467187
21
2311.566751
0
LINE
8
Layer 1
10
142.467000
20
2311.570000
11
143.382457
21
2311.305417
0
LINE
8
Layer 1
10
143.382000
20
2311.310000
11
144.297457
21
2311.410542
0
LINE
8
Layer 1
10
144.298000
20
2311.410000
11
145.107624
21
2311.846562
0
LINE
8
Layer 1
10
145.108000
20
2311.840000
11
145.708603
21
2312.578187
0
LINE
8
Layer 1
10
145.708000
20
2312.580000
11
146.615520
21
2314.754870
0
LINE
8
Layer 1
10
146.616000
20
2314.760000
11
147.065791
21
2316.876660
0
LINE
8
Layer 1
10
147.065000
20
2316.870000
11
147.141729
21
2318.999890
0
LINE
8
Layer 1
10
147.142000
20
2319.000000
11
146.935625
21
2321.214560
0
LINE
8
Layer 1
10
146.936000
20
2321.220000
11
146.589396
21
2323.135580
0
LINE
8
Layer 1
10
146.589000
20
2323.130000
11
146.274146
21
2324.156580
0
LINE
8
Layer 1
10
146.274000
20
2324.160000
11
145.805688
21
2325.213040
0
LINE
8
Layer 1
10
145.806000
20
2325.210000
11
145.128668
21
2326.281560
0
LINE
8
Layer 1
10
145.129000
20
2326.280000
11
144.411980
21
2327.108145
0
LINE
8
Layer 1
10
144.412000
20
2327.110000
11
142.930340
21
2328.491120
0
LINE
8
Layer 1
10
142.930000
20
2328.490000
11
142.141543
21
2328.995354
0
LINE
8
Layer 1
10
142.142000
20
2329.000000
11
141.218605
21
2329.166687
0
LINE
8
Layer 1
10
141.218000
20
2329.160000
11
141.218000
21
2329.160000
0
LINE
8
Layer 1
10
117.734000
20
2323.860000
11
117.734000
21
2323.860000
0
LINE
8
Layer 1
10
117.734000
20
2323.860000
11
115.315710
21
2323.571605
0
LINE
8
Layer 1
10
115.315000
20
2323.570000
11
114.854626
21
2323.591167
0
LINE
8
Layer 1
10
114.855000
20
2323.590000
11
113.505630
21
2323.357167
0
LINE
8
Layer 1
10
113.506000
20
2323.360000
11
112.765168
21
2323.074250
0
LINE
8
Layer 1
10
112.765000
20
2323.070000
11
112.418396
21
2322.913896
0
LINE
8
Layer 1
10
112.418000
20
2322.920000
11
112.370375
21
2322.896187
0
LINE
8
Layer 1
10
112.371000
20
2322.890000
11
111.696313
21
2322.646584
0
LINE
8
Layer 1
10
111.696000
20
2322.650000
11
111.135084
21
2322.226667
0
LINE
8
Layer 1
10
111.135000
20
2322.230000
11
110.716959
21
2321.663792
0
LINE
8
Layer 1
10
110.717000
20
2321.660000
11
110.481521
21
2320.982668
0
LINE
8
Layer 1
10
110.482000
20
2320.980000
11
110.503167
21
2320.027501
0
LINE
8
Layer 1
10
110.503000
20
2320.030000
11
110.873416
21
2319.188626
0
LINE
8
Layer 1
10
110.873000
20
2319.190000
11
111.531812
21
2318.549709
0
LINE
8
Layer 1
10
111.532000
20
2318.550000
11
112.418353
21
2318.198105
0
LINE
8
Layer 1
10
112.418000
20
2318.200000
11
113.037124
21
2318.139146
0
LINE
8
Layer 1
10
113.037000
20
2318.140000
11
113.330687
21
2318.184979
0
LINE
8
Layer 1
10
113.331000
20
2318.180000
11
113.653791
21
2318.214396
0
LINE
8
Layer 1
10
113.654000
20
2318.220000
11
114.251958
21
2318.436958
0
LINE
8
Layer 1
10
114.252000
20
2318.430000
11
114.646229
21
2318.631083
0
LINE
8
Layer 1
10
114.646000
20
2318.630000
11
114.683042
21
2318.640583
0
LINE
8
Layer 1
10
114.683000
20
2318.650000
11
114.788833
21
2318.692333
0
LINE
8
Layer 1
10
114.789000
20
2318.690000
11
115.984920
21
2318.819646
0
LINE
8
Layer 1
10
115.985000
20
2318.820000
11
117.839730
21
2319.063416
0
LINE
8
Layer 1
10
117.840000
20
2319.060000
11
119.993710
21
2318.917125
0
LINE
8
Layer 1
10
119.993000
20
2318.920000
11
120.678270
21
2318.880312
0
LINE
8
Layer 1
10
120.679000
20
2318.880000
11
121.718810
21
2318.633938
0
LINE
8
Layer 1
10
121.718000
20
2318.630000
11
122.932440
21
2318.209313
0
LINE
8
Layer 1
10
122.933000
20
2318.210000
11
126.258810
21
2316.902960
0
LINE
8
Layer 1
10
126.259000
20
2316.900000
11
129.873200
21
2315.510940
0
LINE
8
Layer 1
10
129.873000
20
2315.520000
11
130.817561
21
2315.400938
0
LINE
8
Layer 1
10
130.817000
20
2315.400000
11
131.705999
21
2315.643416
0
LINE
8
Layer 1
10
131.706000
20
2315.640000
11
132.436249
21
2316.198270
0
LINE
8
Layer 1
10
132.437000
20
2316.200000
11
132.913249
21
2317.025499
0
LINE
8
Layer 1
10
132.913000
20
2317.020000
11
133.032062
21
2317.964561
0
LINE
8
Layer 1
10
133.032000
20
2317.970000
11
132.788584
21
2318.856353
0
LINE
8
Layer 1
10
132.789000
20
2318.850000
11
132.230730
21
2319.582895
0
LINE
8
Layer 1
10
132.230000
20
2319.590000
11
131.404501
21
2320.066249
0
LINE
8
Layer 1
10
131.405000
20
2320.060000
11
128.092420
21
2321.345870
0
LINE
8
Layer 1
10
128.092000
20
2321.350000
11
124.504250
21
2322.747000
0
LINE
8
Layer 1
10
124.504000
20
2322.750000
11
123.091130
21
2323.231541
0
LINE
8
Layer 1
10
123.092000
20
2323.230000
11
121.464810
21
2323.613645
0
LINE
8
Layer 1
10
121.464000
20
2323.610000
11
120.445360
21
2323.694667
0
LINE
8
Layer 1
10
120.446000
20
2323.700000
11
117.734020
21
2323.864041
0
LINE
8
Layer 1
10
117.734000
20
2323.860000
11
117.734000
21
2323.860000
0
LINE
8
Layer 1
10
138.236000
20
2233.290000
11
137.770334
21
2233.237083
0
LINE
8
Layer 1
10
137.771000
20
2233.240000
11
136.895230
21
2232.859000
0
LINE
8
Layer 1
10
136.895000
20
2232.860000
11
136.257355
21
2232.198542
0
LINE
8
Layer 1
10
136.257000
20
2232.200000
11
135.913042
21
2231.345397
0
LINE
8
Layer 1
10
135.913000
20
2231.340000
11
135.923583
21
2230.387501
0
LINE
8
Layer 1
10
135.924000
20
2230.390000
11
136.405541
21
2227.619820
0
LINE
8
Layer 1
10
136.405000
20
2227.620000
11
136.674875
21
2224.815420
0
LINE
8
Layer 1
10
136.675000
20
2224.810000
11
136.738500
21
2221.986900
0
LINE
8
Layer 1
10
136.739000
20
2221.990000
11
136.606708
21
2219.161610
0
LINE
8
Layer 1
10
136.606000
20
2219.160000
11
136.090063
21
2215.051030
0
LINE
8
Layer 1
10
136.091000
20
2215.050000
11
135.479813
21
2210.713480
0
LINE
8
Layer 1
10
135.479000
20
2210.720000
11
135.275271
21
2208.547770
0
LINE
8
Layer 1
10
135.276000
20
2208.540000
11
135.027292
21
2207.079500
0
LINE
8
Layer 1
10
135.027000
20
2207.080000
11
134.516355
21
2202.015880
0
LINE
8
Layer 1
10
134.516000
20
2202.020000
11
134.140292
21
2199.694320
0
LINE
8
Layer 1
10
134.141000
20
2199.690000
11
133.725605
21
2200.761560
0
LINE
8
Layer 1
10
133.725000
20
2200.770000
11
133.333417
21
2201.754249
0
LINE
8
Layer 1
10
133.334000
20
2201.750000
11
133.289021
21
2202.112479
0
LINE
8
Layer 1
10
133.289000
20
2202.110000
11
133.188458
21
2202.678853
0
LINE
8
Layer 1
10
133.188000
20
2202.680000
11
133.217104
21
2203.042479
0
LINE
8
Layer 1
10
133.217000
20
2203.040000
11
133.103229
21
2204.000436
0
LINE
8
Layer 1
10
133.103000
20
2204.000000
11
132.804021
21
2205.076850
0
LINE
8
Layer 1
10
132.804000
20
2205.080000
11
132.462688
21
2205.908145
0
LINE
8
Layer 1
10
132.463000
20
2205.910000
11
131.912667
21
2206.685228
0
LINE
8
Layer 1
10
131.913000
20
2206.680000
11
131.132480
21
2207.169479
0
LINE
8
Layer 1
10
131.132000
20
2207.170000
11
130.227126
21
2207.331396
0
LINE
8
Layer 1
10
130.227000
20
2207.340000
11
129.295668
21
2207.130979
0
LINE
8
Layer 1
10
129.296000
20
2207.130000
11
128.518126
21
2206.579667
0
LINE
8
Layer 1
10
128.518000
20
2206.580000
11
128.031167
21
2205.799480
0
LINE
8
Layer 1
10
128.031000
20
2205.800000
11
127.869604
21
2204.895126
0
LINE
8
Layer 1
10
127.870000
20
2204.890000
11
128.079021
21
2203.958668
0
LINE
8
Layer 1
10
128.079000
20
2203.960000
11
128.393854
21
2203.081584
0
LINE
8
Layer 1
10
128.394000
20
2203.080000
11
128.364896
21
2203.143500
0
LINE
8
Layer 1
10
128.365000
20
2203.140000
11
128.349125
21
2203.002417
0
LINE
8
Layer 1
10
128.349000
20
2203.010000
11
128.407208
21
2202.136876
0
LINE
8
Layer 1
10
128.407000
20
2202.130000
11
128.494312
21
2201.582313
0
LINE
8
Layer 1
10
128.494000
20
2201.590000
11
128.639521
21
2200.531670
0
LINE
8
Layer 1
10
128.640000
20
2200.530000
11
129.007770
21
2199.519290
0
LINE
8
Layer 1
10
129.008000
20
2199.520000
11
129.135000
21
2199.369188
0
LINE
8
Layer 1
10
129.135000
20
2199.370000
11
129.624479
21
2197.750750
0
LINE
8
Layer 1
10
129.624000
20
2197.750000
11
130.084374
21
2196.749880
0
LINE
8
Layer 1
10
130.085000
20
2196.750000
11
130.815249
21
2195.689020
0
LINE
8
Layer 1
10
130.815000
20
2195.690000
11
131.127208
21
2195.372500
0
LINE
8
Layer 1
10
131.127000
20
2195.370000
11
131.277812
21
2195.245646
0
LINE
8
Layer 1
10
131.278000
20
2195.240000
11
131.590208
21
2194.988646
0
LINE
8
Layer 1
10
131.590000
20
2194.990000
11
132.275270
21
2194.487292
0
LINE
8
Layer 1
10
132.275000
20
2194.490000
11
132.880895
21
2194.161917
0
LINE
8
Layer 1
10
132.881000
20
2194.160000
11
133.248770
21
2193.977438
0
LINE
8
Layer 1
10
133.249000
20
2193.980000
11
133.902520
21
2193.741875
0
LINE
8
Layer 1
10
133.902000
20
2193.740000
11
135.185230
21
2193.610354
0
LINE
8
Layer 1
10
135.186000
20
2193.610000
11
136.122624
21
2193.845479
0
LINE
8
Layer 1
10
136.122000
20
2193.850000
11
137.016291
21
2194.416208
0
LINE
8
Layer 1
10
137.017000
20
2194.410000
11
137.564687
21
2195.047645
0
LINE
8
Layer 1
10
137.564000
20
2195.050000
11
137.823291
21
2195.550062
0
LINE
8
Layer 1
10
137.824000
20
2195.550000
11
137.980104
21
2196.214103
0
LINE
8
Layer 1
10
137.980000
20
2196.210000
11
138.239291
21
2196.895270
0
LINE
8
Layer 1
10
138.239000
20
2196.900000
11
138.572375
21
2197.656707
0
LINE
8
Layer 1
10
138.572000
20
2197.660000
11
139.064124
21
2199.697290
0
LINE
8
Layer 1
10
139.064000
20
2199.690000
11
139.296833
21
2201.584410
0
LINE
8
Layer 1
10
139.297000
20
2201.590000
11
139.786479
21
2206.466260
0
LINE
8
Layer 1
10
139.787000
20
2206.460000
11
140.038354
21
2207.946960
0
LINE
8
Layer 1
10
140.038000
20
2207.950000
11
140.244375
21
2210.153980
0
LINE
8
Layer 1
10
140.244000
20
2210.160000
11
140.844603
21
2214.343060
0
LINE
8
Layer 1
10
140.845000
20
2214.340000
11
141.390041
21
2218.771770
0
LINE
8
Layer 1
10
141.390000
20
2218.770000
11
141.538166
21
2221.929120
0
LINE
8
Layer 1
10
141.538000
20
2221.930000
11
141.466563
21
2225.097060
0
LINE
8
Layer 1
10
141.467000
20
2225.100000
11
141.162730
21
2228.259120
0
LINE
8
Layer 1
10
141.163000
20
2228.260000
11
140.617959
21
2231.395310
0
LINE
8
Layer 1
10
140.618000
20
2231.390000
11
140.369292
21
2232.056749
0
LINE
8
Layer 1
10
140.369000
20
2232.060000
11
139.943021
21
2232.612978
0
LINE
8
Layer 1
10
139.943000
20
2232.610000
11
139.379438
21
2233.017458
0
LINE
8
Layer 1
10
139.379000
20
2233.020000
11
138.706959
21
2233.250187
0
LINE
8
Layer 1
10
138.707000
20
2233.250000
11
138.707000
21
2233.250000
0
LINE
8
Layer 1
10
138.707000
20
2233.250000
11
138.236042
21
2233.292333
0
LINE
8
Layer 1
10
138.236000
20
2233.290000
11
138.236000
21
2233.290000
0
LINE
8
Layer 1
10
76.810700
20
2040.880000
11
76.188930
21
2040.763583
0
LINE
8
Layer 1
10
76.189000
20
2040.770000
11
75.620147
21
2040.492188
0
LINE
8
Layer 1
10
75.620100
20
2040.490000
11
72.585330
21
2038.481820
0
LINE
8
Layer 1
10
72.585300
20
2038.480000
11
72.688487
21
2038.548792
0
LINE
8
Layer 1
10
72.688500
20
2038.550000
11
72.617063
21
2038.512958
0
LINE
8
Layer 1
10
72.617100
20
2038.510000
11
72.262559
21
2038.303625
0
LINE
8
Layer 1
10
72.262500
20
2038.310000
11
71.884146
21
2038.082459
0
LINE
8
Layer 1
10
71.884200
20
2038.080000
11
71.616971
21
2037.886854
0
LINE
8
Layer 1
10
71.617000
20
2037.890000
11
71.402688
21
2037.728604
0
LINE
8
Layer 1
10
71.402600
20
2037.720000
11
71.034830
21
2037.246396
0
LINE
8
Layer 1
10
71.034900
20
2037.250000
11
70.394609
21
2036.281626
0
LINE
8
Layer 1
10
70.394600
20
2036.280000
11
69.979205
21
2035.586793
0
LINE
8
Layer 1
10
69.979200
20
2035.590000
11
69.764888
21
2035.216938
0
LINE
8
Layer 1
10
69.764900
20
2035.220000
11
69.553234
21
2034.460647
0
LINE
8
Layer 1
10
69.553200
20
2034.460000
11
69.457950
21
2033.274670
0
LINE
8
Layer 1
10
69.458000
20
2033.270000
11
69.561187
21
2032.076730
0
LINE
8
Layer 1
10
69.561100
20
2032.080000
11
69.846850
21
2030.833810
0
LINE
8
Layer 1
10
69.846900
20
2030.830000
11
70.542753
21
2029.515020
0
LINE
8
Layer 1
10
70.542700
20
2029.520000
11
71.138012
21
2028.773876
0
LINE
8
Layer 1
10
71.138100
20
2028.770000
11
71.595829
21
2028.402230
0
LINE
8
Layer 1
10
71.595800
20
2028.400000
11
71.696342
21
2028.270354
0
LINE
8
Layer 1
10
71.696300
20
2028.270000
11
72.275737
21
2027.664105
0
LINE
8
Layer 1
10
72.275800
20
2027.670000
11
72.511279
21
2027.360438
0
LINE
8
Layer 1
10
72.511200
20
2027.360000
11
72.632908
21
2027.116584
0
LINE
8
Layer 1
10
72.633000
20
2027.110000
11
73.167458
21
2026.506751
0
LINE
8
Layer 1
10
73.167400
20
2026.510000
11
73.349962
21
2026.372417
0
LINE
8
Layer 1
10
73.350000
20
2026.370000
11
73.797145
21
2026.026042
0
LINE
8
Layer 1
10
73.797100
20
2026.030000
11
76.323870
21
2024.373710
0
LINE
8
Layer 1
10
76.323900
20
2024.370000
11
77.906110
21
2023.570959
0
LINE
8
Layer 1
10
77.906100
20
2023.570000
11
78.726307
21
2023.241917
0
LINE
8
Layer 1
10
78.726300
20
2023.250000
11
79.869300
21
2023.096542
0
LINE
8
Layer 1
10
79.869300
20
2023.090000
11
80.853549
21
2023.238166
0
LINE
8
Layer 1
10
80.853500
20
2023.240000
11
81.578457
21
2023.459604
0
LINE
8
Layer 1
10
81.578500
20
2023.460000
11
82.292874
21
2023.724583
0
LINE
8
Layer 1
10
82.292900
20
2023.730000
11
83.171316
21
2024.206249
0
LINE
8
Layer 1
10
83.171300
20
2024.200000
11
83.705758
21
2024.734458
0
LINE
8
Layer 1
10
83.705800
20
2024.740000
11
84.211154
21
2025.150104
0
LINE
8
Layer 1
10
84.211100
20
2025.150000
11
85.020724
21
2026.324750
0
LINE
8
Layer 1
10
85.020700
20
2026.320000
11
85.158283
21
2026.756562
0
LINE
8
Layer 1
10
85.158300
20
2026.760000
11
85.708633
21
2027.707207
0
LINE
8
Layer 1
10
85.708600
20
2027.700000
11
86.110766
21
2028.980580
0
LINE
8
Layer 1
10
86.110800
20
2028.980000
11
86.213987
21
2030.223540
0
LINE
8
Layer 1
10
86.214000
20
2030.230000
11
86.100229
21
2031.425920
0
LINE
8
Layer 1
10
86.100200
20
2031.420000
11
85.851492
21
2032.555060
0
LINE
8
Layer 1
10
85.851500
20
2032.560000
11
85.108022
21
2034.631680
0
LINE
8
Layer 1
10
85.108000
20
2034.630000
11
84.070830
21
2036.392120
0
LINE
8
Layer 1
10
84.070900
20
2036.390000
11
83.930671
21
2036.580500
0
LINE
8
Layer 1
10
83.930600
20
2036.580000
11
83.933246
21
2036.564125
0
LINE
8
Layer 1
10
83.933300
20
2036.570000
11
83.779842
21
2036.757854
0
LINE
8
Layer 1
10
83.779800
20
2036.760000
11
83.308842
21
2037.310333
0
LINE
8
Layer 1
10
83.308900
20
2037.310000
11
82.740047
21
2037.931770
0
LINE
8
Layer 1
10
82.740000
20
2037.930000
11
82.491292
21
2038.218395
0
LINE
8
Layer 1
10
82.491300
20
2038.220000
11
81.856301
21
2038.664499
0
LINE
8
Layer 1
10
81.856300
20
2038.660000
11
78.038370
21
2040.623210
0
LINE
8
Layer 1
10
78.038400
20
2040.620000
11
77.443088
21
2040.831666
0
LINE
8
Layer 1
10
77.443100
20
2040.840000
11
76.810747
21
2040.887625
0
LINE
8
Layer 1
10
76.810700
20
2040.880000
11
76.810700
21
2040.880000
0
LINE
8
Layer 1
10
170.092000
20
2040.840000
11
169.345876
21
2040.683896
0
LINE
8
Layer 1
10
169.346000
20
2040.680000
11
168.700417
21
2040.312230
0
LINE
8
Layer 1
10
168.700000
20
2040.310000
11
168.199938
21
2039.759667
0
LINE
8
Layer 1
10
168.200000
20
2039.760000
11
167.885146
21
2039.066793
0
LINE
8
Layer 1
10
167.885000
20
2039.070000
11
167.337313
21
2037.186170
0
LINE
8
Layer 1
10
167.338000
20
2037.180000
11
167.271854
21
2036.486793
0
LINE
8
Layer 1
10
167.272000
20
2036.490000
11
167.224375
21
2036.079896
0
LINE
8
Layer 1
10
167.224000
20
2036.080000
11
167.189604
21
2036.013854
0
LINE
8
Layer 1
10
167.190000
20
2036.010000
11
167.174125
21
2036.237541
0
LINE
8
Layer 1
10
167.174000
20
2036.240000
11
167.168708
21
2036.123583
0
LINE
8
Layer 1
10
167.168000
20
2036.130000
11
167.048938
21
2035.405043
0
LINE
8
Layer 1
10
167.049000
20
2035.400000
11
167.001375
21
2035.280938
0
LINE
8
Layer 1
10
167.002000
20
2035.280000
11
166.761229
21
2034.832855
0
LINE
8
Layer 1
10
166.761000
20
2034.830000
11
166.514938
21
2033.525610
0
LINE
8
Layer 1
10
166.515000
20
2033.530000
11
166.464729
21
2032.143590
0
LINE
8
Layer 1
10
166.465000
20
2032.140000
11
166.528500
21
2030.668920
0
LINE
8
Layer 1
10
166.528000
20
2030.670000
11
166.832270
21
2029.114250
0
LINE
8
Layer 1
10
166.832000
20
2029.120000
11
167.504041
21
2027.476940
0
LINE
8
Layer 1
10
167.504000
20
2027.470000
11
168.014645
21
2026.541314
0
LINE
8
Layer 1
10
168.015000
20
2026.550000
11
168.993957
21
2025.388480
0
LINE
8
Layer 1
10
168.994000
20
2025.380000
11
169.779812
21
2024.800563
0
LINE
8
Layer 1
10
169.780000
20
2024.800000
11
170.110729
21
2024.641250
0
LINE
8
Layer 1
10
170.111000
20
2024.650000
11
172.251480
21
2023.644580
0
LINE
8
Layer 1
10
172.251000
20
2023.640000
11
174.457620
21
2023.121417
0
LINE
8
Layer 1
10
174.458000
20
2023.120000
11
176.691080
21
2023.014167
0
LINE
8
Layer 1
10
176.691000
20
2023.020000
11
178.924080
21
2023.263416
0
LINE
8
Layer 1
10
178.924000
20
2023.260000
11
180.575000
21
2023.514000
0
LINE
8
Layer 1
10
180.575000
20
2023.510000
11
181.675670
21
2023.922749
0
LINE
8
Layer 1
10
181.676000
20
2023.930000
11
182.826940
21
2024.747561
0
LINE
8
Layer 1
10
182.826000
20
2024.740000
11
183.352520
21
2025.324728
0
LINE
8
Layer 1
10
183.353000
20
2025.330000
11
183.601708
21
2025.740104
0
LINE
8
Layer 1
10
183.602000
20
2025.740000
11
184.065020
21
2026.565499
0
LINE
8
Layer 1
10
184.065000
20
2026.560000
11
184.639145
21
2028.300960
0
LINE
8
Layer 1
10
184.639000
20
2028.300000
11
184.718375
21
2029.334520
0
LINE
8
Layer 1
10
184.718000
20
2029.340000
11
184.556604
21
2030.464480
0
LINE
8
Layer 1
10
184.557000
20
2030.460000
11
184.022542
21
2031.846410
0
LINE
8
Layer 1
10
184.022000
20
2031.850000
11
183.260001
21
2033.032690
0
LINE
8
Layer 1
10
183.260000
20
2033.030000
11
182.349834
21
2034.046000
0
LINE
8
Layer 1
10
182.350000
20
2034.050000
11
181.365751
21
2034.936353
0
LINE
8
Layer 1
10
181.366000
20
2034.940000
11
179.352520
21
2036.440190
0
LINE
8
Layer 1
10
179.353000
20
2036.440000
11
177.522090
21
2037.622690
0
LINE
8
Layer 1
10
177.522000
20
2037.620000
11
174.495170
21
2039.366250
0
LINE
8
Layer 1
10
174.495000
20
2039.360000
11
172.799020
21
2040.106124
0
LINE
8
Layer 1
10
172.799000
20
2040.110000
11
170.838440
21
2040.750291
0
LINE
8
Layer 1
10
170.838000
20
2040.750000
11
170.091876
21
2040.834667
0
LINE
8
Layer 1
10
170.092000
20
2040.840000
11
170.092000
21
2040.840000
0
LINE
8
Layer 1
10
227.999000
20
2928.000000
11
177.999000
21
2928.000000
0
LINE
8
Layer 1
10
177.999000
20
2928.000000
11
107.999000
21
2928.000000
0
LINE
8
Layer 1
10
107.999000
20
2928.000000
11
41.999200
21
2928.000000
0
LINE
8
Layer 1
10
41.999200
20
2928.000000
11
41.999200
21
2529.490000
0
LINE
8
Layer 1
10
41.999200
20
2529.490000
11
317.999000
21
2529.490000
0
LINE
8
Layer 1
10
317.999000
20
2529.490000
11
317.999000
21
2838.000000
0
LINE
8
Layer 1
10
317.999000
20
2838.000000
11
227.999000
21
2838.000000
0
LINE
8
Layer 1
10
227.999000
20
2838.000000
11
227.999000
21
2928.000000
0
LINE
8
Layer 1
10
317.999000
20
2928.000000
11
247.999000
21
2928.000000
0
LINE
8
Layer 1
10
247.999000
20
2928.000000
11
231.999000
21
2928.000000
0
LINE
8
Layer 1
10
231.999000
20
2928.000000
11
231.999000
21
2842.000000
0
LINE
8
Layer 1
10
231.999000
20
2842.000000
11
317.999000
21
2842.000000
0
LINE
8
Layer 1
10
317.999000
20
2842.000000
11
317.999000
21
2928.000000
0
LINE
8
Layer 1
10
317.999000
20
2525.490000
11
1.999880
21
2525.490000
0
LINE
8
Layer 1
10
1.999880
20
2525.490000
11
1.999880
21
1969.490000
0
LINE
8
Layer 1
10
1.999880
20
1969.490000
11
317.999000
21
1969.490000
0
LINE
8
Layer 1
10
317.999000
20
1969.490000
11
317.999000
21
2052.980000
0
LINE
8
Layer 1
10
317.999000
20
2052.980000
11
317.999000
21
2056.980000
0
LINE
8
Layer 1
10
317.999000
20
2056.980000
11
317.999000
21
2455.490000
0
LINE
8
Layer 1
10
317.999000
20
2455.490000
11
317.999000
21
2525.490000
0
LINE
8
Layer 1
10
107.999000
20
2998.000000
11
41.999200
21
2998.000000
0
LINE
8
Layer 1
10
41.999200
20
2998.000000
11
41.999200
21
2932.000000
0
LINE
8
Layer 1
10
41.999200
20
2932.000000
11
107.999000
21
2932.000000
0
LINE
8
Layer 1
10
107.999000
20
2932.000000
11
107.999000
21
2998.000000
0
LINE
8
Layer 1
10
177.999000
20
2998.000000
11
111.999000
21
2998.000000
0
LINE
8
Layer 1
10
111.999000
20
2998.000000
11
111.999000
21
2932.000000
0
LINE
8
Layer 1
10
111.999000
20
2932.000000
11
177.999000
21
2932.000000
0
LINE
8
Layer 1
10
177.999000
20
2932.000000
11
177.999000
21
2998.000000
0
LINE
8
Layer 1
10
247.999000
20
2998.000000
11
181.999000
21
2998.000000
0
LINE
8
Layer 1
10
181.999000
20
2998.000000
11
181.999000
21
2932.000000
0
LINE
8
Layer 1
10
181.999000
20
2932.000000
11
227.999000
21
2932.000000
0
LINE
8
Layer 1
10
227.999000
20
2932.000000
11
247.999000
21
2932.000000
0
LINE
8
Layer 1
10
247.999000
20
2932.000000
11
247.999000
21
2998.000000
0
LINE
8
Layer 1
10
317.999000
20
2998.000000
11
251.999000
21
2998.000000
0
LINE
8
Layer 1
10
251.999000
20
2998.000000
11
251.999000
21
2932.000000
0
LINE
8
Layer 1
10
251.999000
20
2932.000000
11
317.999000
21
2932.000000
0
LINE
8
Layer 1
10
317.999000
20
2932.000000
11
317.999000
21
2998.000000
 0 
ENDSEC
 0 
EOF