999
"DXF R12 Output" (www.mydxf.blogspot.com)
 0 
SECTION
 2 
HEADER
 9 
$ACADVER
 1 
AC1009
 9 
$EXTMIN
 10 
 0 
 20 
 0 
 9 
$EXTMAX
 10 
 8.5 
 20 
 11 
 0 
ENDSEC
 0 
SECTION
 2 
ENTITIES
0
LINE
8
Layer 1
10
0.793749
20
297.794000
11
-0.793749
21
296.206000
0
LINE
8
Layer 1
10
0.000000
20
298.323000
11
0.000000
21
295.677000
0
LINE
8
Layer 1
10
2.116660
20
295.942000
11
1.058330
21
294.883670
0
LINE
8
Layer 1
10
1.587500
20
296.471000
11
0.529170
21
295.412670
0
LINE
8
Layer 1
10
1.058330
20
297.000000
11
0.000000
21
295.941670
0
LINE
8
Calque_1
10
285.366000
20
1060.570000
11
285.451778
21
1059.805726
0
LINE
8
Calque_1
10
285.452000
20
1059.800000
11
285.466817
21
1059.661491
0
LINE
8
Calque_1
10
285.467000
20
1059.670000
11
285.351245
21
1058.660750
0
LINE
8
Calque_1
10
285.351000
20
1058.660000
11
285.084538
21
1057.303173
0
LINE
8
Calque_1
10
285.084538
20
1057.303173
11
285.104452
21
1056.416509
0
LINE
8
Calque_1
10
285.104452
20
1056.416509
11
285.420215
21
1055.263840
0
LINE
8
Calque_1
10
285.420000
20
1055.260000
11
285.328273
21
1054.625811
0
LINE
8
Calque_1
10
285.328273
20
1054.625811
11
285.283555
21
1052.667910
0
LINE
8
Calque_1
10
285.284000
20
1052.670000
11
285.356390
21
1051.036010
0
LINE
8
Calque_1
10
285.356000
20
1051.030000
11
285.413414
21
1047.915460
0
LINE
8
Calque_1
10
285.413000
20
1047.920000
11
285.239883
21
1040.470320
0
LINE
8
Calque_1
10
285.240000
20
1040.470000
11
285.232063
21
1037.462430
0
LINE
8
Calque_1
10
285.232000
20
1037.460000
11
285.561168
21
1035.066340
0
LINE
8
Calque_1
10
285.561000
20
1035.070000
11
285.606138
21
1034.589706
0
LINE
8
Calque_1
10
285.606138
20
1034.589706
11
285.615795
21
1034.650927
0
LINE
8
Calque_1
10
285.616000
20
1034.650000
11
285.600654
21
1034.333744
0
LINE
8
Calque_1
10
285.601000
20
1034.330000
11
285.496622
21
1034.297483
0
LINE
8
Calque_1
10
285.496000
20
1034.300000
11
283.321970
21
1034.232796
0
LINE
8
Calque_1
10
283.322000
20
1034.230000
11
275.617050
21
1034.221004
0
LINE
8
Calque_1
10
275.618000
20
1034.220000
11
271.156760
21
1034.661854
0
LINE
8
Calque_1
10
271.156000
20
1034.670000
11
269.821730
21
1035.050338
0
LINE
8
Calque_1
10
269.822000
20
1035.050000
11
268.105172
21
1035.282099
0
LINE
8
Calque_1
10
268.105172
20
1035.282099
11
266.358660
21
1035.330088
0
LINE
8
Calque_1
10
266.359000
20
1035.330000
11
264.835050
21
1035.171356
0
LINE
8
Calque_1
10
264.835000
20
1035.170000
11
263.978709
21
1034.986035
0
LINE
8
Calque_1
10
263.978000
20
1034.980000
11
262.062015
21
1034.800345
0
LINE
8
Calque_1
10
262.062015
20
1034.800345
11
260.202520
21
1034.878718
0
LINE
8
Calque_1
10
260.203000
20
1034.880000
11
260.083072
21
1035.034146
0
LINE
8
Calque_1
10
260.083072
20
1035.034146
11
258.878020
21
1035.532144
0
LINE
8
Calque_1
10
258.878000
20
1035.530000
11
258.032062
21
1035.740846
0
LINE
8
Calque_1
10
258.032000
20
1035.750000
11
257.956599
21
1036.367008
0
LINE
8
Calque_1
10
257.957000
20
1036.360000
11
257.870201
21
1038.870440
0
LINE
8
Calque_1
10
257.870000
20
1038.870000
11
257.815700
21
1045.603430
0
LINE
8
Calque_1
10
257.816000
20
1045.610000
11
257.670291
21
1053.122700
0
LINE
8
Calque_1
10
257.670000
20
1053.120000
11
257.714353
21
1056.161793
0
LINE
8
Calque_1
10
257.714353
20
1056.161793
11
258.035860
21
1058.947040
0
LINE
8
Calque_1
10
258.036000
20
1058.950000
11
258.147643
21
1059.898254
0
LINE
8
Calque_1
10
258.147643
20
1059.898254
11
258.118198
21
1060.513210
0
LINE
8
Calque_1
10
258.118000
20
1060.510000
11
258.118999
21
1061.181568
0
LINE
8
Calque_1
10
258.118999
20
1061.181568
11
258.118558
21
1061.373251
0
LINE
8
Calque_1
10
258.118558
20
1061.373251
11
258.110989
21
1061.351824
0
LINE
8
Calque_1
10
258.111000
20
1061.350000
11
258.073300
21
1061.468322
0
LINE
8
Calque_1
10
258.072000
20
1061.470000
11
285.365400
21
1060.568751
0
LINE
8
Calque_1
10
322.297000
20
1063.880000
11
322.307848
21
1063.548239
0
LINE
8
Calque_1
10
322.308000
20
1063.550000
11
322.871922
21
1060.083016
0
LINE
8
Calque_1
10
322.871922
20
1060.083016
11
323.166599
21
1056.110836
0
LINE
8
Calque_1
10
323.166599
20
1056.110836
11
323.253929
21
1052.046964
0
LINE
8
Calque_1
10
323.253929
20
1052.046964
11
323.195808
21
1048.304900
0
LINE
8
Calque_1
10
323.196000
20
1048.300000
11
323.023905
21
1044.970917
0
LINE
8
Calque_1
10
323.023905
20
1044.970917
11
322.958272
21
1041.397080
0
LINE
8
Calque_1
10
322.958000
20
1041.400000
11
323.214192
21
1038.711641
0
LINE
8
Calque_1
10
323.214192
20
1038.711641
11
323.556407
21
1036.365170
0
LINE
8
Calque_1
10
323.557000
20
1036.370000
11
324.084102
21
1032.782620
0
LINE
8
Calque_1
10
324.084000
20
1032.780000
11
321.378240
21
1032.899353
0
LINE
8
Calque_1
10
321.378000
20
1032.900000
11
317.838291
21
1033.002069
0
LINE
8
Calque_1
10
317.838291
20
1033.002069
11
313.665800
21
1032.736197
0
LINE
8
Calque_1
10
313.666000
20
1032.730000
11
309.435770
21
1032.556381
0
LINE
8
Calque_1
10
309.436000
20
1032.560000
11
305.183570
21
1032.011705
0
LINE
8
Calque_1
10
305.183000
20
1032.010000
11
304.109690
21
1031.764017
0
LINE
8
Calque_1
10
304.110000
20
1031.770000
11
303.871171
21
1032.792806
0
LINE
8
Calque_1
10
303.871171
20
1032.792806
11
303.621130
21
1035.303140
0
LINE
8
Calque_1
10
303.621000
20
1035.300000
11
303.556389
21
1037.070400
0
LINE
8
Calque_1
10
303.556000
20
1037.070000
11
303.189632
21
1039.718420
0
LINE
8
Calque_1
10
303.190000
20
1039.720000
11
302.778653
21
1042.150860
0
LINE
8
Calque_1
10
302.779000
20
1042.150000
11
302.400101
21
1046.649145
0
LINE
8
Calque_1
10
302.400101
20
1046.649145
11
302.402260
21
1051.190770
0
LINE
8
Calque_1
10
302.402000
20
1051.190000
11
302.324669
21
1052.573975
0
LINE
8
Calque_1
10
302.324669
20
1052.573975
11
302.202531
21
1053.329420
0
LINE
8
Calque_1
10
302.202000
20
1053.330000
11
302.307965
21
1055.275080
0
LINE
8
Calque_1
10
302.308000
20
1055.270000
11
302.211057
21
1056.778976
0
LINE
8
Calque_1
10
302.211057
20
1056.778976
11
301.940044
21
1057.922050
0
LINE
8
Calque_1
10
301.940000
20
1057.930000
11
301.796503
21
1058.898455
0
LINE
8
Calque_1
10
301.796503
20
1058.898455
11
301.763059
21
1059.121749
0
LINE
8
Calque_1
10
301.763059
20
1059.121749
11
301.724524
21
1059.023970
0
LINE
8
Calque_1
10
301.725000
20
1059.020000
11
302.378705
21
1061.091180
0
LINE
8
Calque_1
10
302.379000
20
1061.090000
11
301.918573
21
1062.031572
0
LINE
8
Calque_1
10
258.073000
20
1061.470000
11
258.072000
21
1061.470000
0
LINE
8
Calque_1
10
178.401000
20
571.428000
11
191.020114
21
568.769028
0
LINE
8
Calque_1
10
191.020114
20
568.769028
11
201.116083
21
566.521037
0
LINE
8
Calque_1
10
201.116083
20
566.521037
11
212.447749
21
563.853816
0
LINE
8
Calque_1
10
212.447749
20
563.853816
11
224.048677
21
560.912193
0
LINE
8
Calque_1
10
224.048677
20
560.912193
11
234.952434
21
557.840997
0
LINE
8
Calque_1
10
234.952434
20
557.840997
11
239.840863
21
556.302068
0
LINE
8
Calque_1
10
239.840863
20
556.302068
11
244.192586
21
554.785056
0
LINE
8
Calque_1
10
244.192586
20
554.785056
11
247.886800
21
553.308066
0
LINE
8
Calque_1
10
247.886800
20
553.308066
11
250.802700
21
551.889200
0
LINE
8
Calque_1
10
301.918000
20
1062.030000
11
322.297100
21
1063.877420
0
LINE
8
Calque_1
10
250.803000
20
551.890000
11
254.972729
21
550.792117
0
LINE
8
Calque_1
10
254.972729
20
550.792117
11
258.918260
21
549.334600
0
LINE
8
Calque_1
10
250.802000
20
551.889000
11
250.802529
21
551.889529
0
LINE
8
Calque_1
10
258.919000
20
549.334000
11
262.658511
21
547.549784
0
LINE
8
Calque_1
10
262.658511
20
547.549784
11
266.210020
21
545.472220
0
LINE
8
Calque_1
10
266.210000
20
545.473000
11
268.761408
21
543.741306
0
LINE
8
Calque_1
10
268.761408
20
543.741306
11
271.224881
21
541.877306
0
LINE
8
Calque_1
10
271.224881
20
541.877306
11
275.918611
21
537.808303
0
LINE
8
Calque_1
10
275.918611
20
537.808303
11
280.352370
21
533.377827
0
LINE
8
Calque_1
10
280.352370
20
533.377827
11
284.587337
21
528.697714
0
LINE
8
Calque_1
10
284.587337
20
528.697714
11
292.705620
21
519.035918
0
LINE
8
Calque_1
10
292.705620
20
519.035918
11
296.711296
21
514.277906
0
LINE
8
Calque_1
10
296.711296
20
514.277906
11
300.762900
21
509.717600
0
LINE
8
Calque_1
10
258.918000
20
549.334000
11
258.919000
21
549.334000
0
LINE
8
Calque_1
10
300.764000
20
509.718000
11
305.070409
21
501.956554
0
LINE
8
Calque_1
10
305.070409
20
501.956554
11
309.158320
21
494.020800
0
LINE
8
Calque_1
10
309.159000
20
494.020000
11
312.933855
21
485.916170
0
LINE
8
Calque_1
10
312.933855
20
485.916170
11
316.304280
21
477.643200
0
LINE
8
Calque_1
10
300.762000
20
509.717000
11
300.764646
21
509.717529
0
LINE
8
Calque_1
10
316.308000
20
477.638000
11
319.180526
21
469.197304
0
LINE
8
Calque_1
10
319.180526
20
469.197304
11
320.401047
21
464.915264
0
LINE
8
Calque_1
10
320.401047
20
464.915264
11
321.462210
21
460.592500
0
LINE
8
Calque_1
10
321.462000
20
460.592000
11
322.352244
21
456.228335
0
LINE
8
Calque_1
10
322.352244
20
456.228335
11
323.059840
21
451.824590
0
LINE
8
Calque_1
10
316.304000
20
477.644000
11
316.307969
21
477.637994
0
LINE
8
Calque_1
10
323.060000
20
451.824000
11
323.573609
21
447.380466
0
LINE
8
Calque_1
10
323.573609
20
447.380466
11
323.881160
21
442.897430
0
LINE
8
Calque_1
10
323.060000
20
451.825000
11
323.060000
21
451.824471
0
LINE
8
Calque_1
10
323.880000
20
442.898000
11
324.881598
21
437.816894
0
LINE
8
Calque_1
10
324.881598
20
437.816894
11
325.647340
21
432.720300
0
LINE
8
Calque_1
10
323.881000
20
442.898000
11
323.881000
21
442.898000
0
LINE
8
Calque_1
10
325.647000
20
432.720000
11
326.064036
21
427.844340
0
LINE
8
Calque_1
10
326.064000
20
427.844000
11
326.521332
21
422.484650
0
LINE
8
Calque_1
10
326.521000
20
422.485000
11
326.654677
21
417.363798
0
LINE
8
Calque_1
10
326.654677
20
417.363798
11
326.603249
21
412.240440
0
LINE
8
Calque_1
10
326.603249
20
412.240440
11
326.379186
21
407.118237
0
LINE
8
Calque_1
10
326.379186
20
407.118237
11
325.994956
21
402.000500
0
LINE
8
Calque_1
10
325.995000
20
402.001000
11
324.796507
21
391.796040
0
LINE
8
Calque_1
10
324.796507
20
391.796040
11
323.109380
21
381.648800
0
LINE
8
Calque_1
10
325.648000
20
432.720000
11
325.648000
21
432.720000
0
LINE
8
Calque_1
10
323.107000
20
381.632000
11
321.030246
21
371.561149
0
LINE
8
Calque_1
10
321.030246
20
371.561149
11
318.665920
21
361.601200
0
LINE
8
Calque_1
10
323.110000
20
381.648000
11
323.107090
21
381.631993
0
LINE
8
Calque_1
10
318.663000
20
361.587000
11
316.856365
21
353.101146
0
LINE
8
Calque_1
10
316.856365
20
353.101146
11
314.631200
21
344.733800
0
LINE
8
Calque_1
10
318.666000
20
361.602000
11
318.663090
21
361.587501
0
LINE
8
Calque_1
10
314.628000
20
344.720000
11
312.071982
21
336.434053
0
LINE
8
Calque_1
10
312.071982
20
336.434053
11
309.280540
21
328.219700
0
LINE
8
Calque_1
10
309.280000
20
328.220000
11
303.358560
21
311.912075
0
LINE
8
Calque_1
10
303.358560
20
311.912075
11
300.413419
21
303.771022
0
LINE
8
Calque_1
10
300.413419
20
303.771022
11
297.601700
21
295.607000
0
LINE
8
Calque_1
10
297.602000
20
295.607000
11
294.224023
21
287.043529
0
LINE
8
Calque_1
10
294.224023
20
287.043529
11
291.116562
21
278.383672
0
LINE
8
Calque_1
10
291.116562
20
278.383672
11
288.249945
21
269.639135
0
LINE
8
Calque_1
10
288.249945
20
269.639135
11
285.594500
21
260.821625
0
LINE
8
Calque_1
10
285.594500
20
260.821625
11
283.120555
21
251.942850
0
LINE
8
Calque_1
10
283.120555
20
251.942850
11
280.798437
21
243.014516
0
LINE
8
Calque_1
10
280.798437
20
243.014516
11
276.491000
21
225.056000
0
LINE
8
Calque_1
10
314.631000
20
344.734000
11
314.628090
21
344.720109
0
LINE
8
Calque_1
10
276.487000
20
225.043000
11
275.651360
21
219.579113
0
LINE
8
Calque_1
10
275.651360
20
219.579113
11
274.669558
21
214.151934
0
LINE
8
Calque_1
10
274.669558
20
214.151934
11
272.335830
21
203.390100
0
LINE
8
Calque_1
10
276.491000
20
225.056000
11
276.487031
21
225.043115
0
LINE
8
Calque_1
10
272.333000
20
203.377000
11
269.615828
21
192.695474
0
LINE
8
Calque_1
10
269.615828
20
192.695474
11
266.655310
21
182.071900
0
LINE
8
Calque_1
10
266.655000
20
182.072000
11
260.551845
21
160.855575
0
LINE
8
Calque_1
10
260.551845
20
160.855575
11
257.683567
21
150.191159
0
LINE
8
Calque_1
10
257.683567
20
150.191159
11
255.120300
21
139.441600
0
LINE
8
Calque_1
10
255.121000
20
139.441000
11
251.872447
21
130.304379
0
LINE
8
Calque_1
10
251.872447
20
130.304379
11
248.898140
21
121.097400
0
LINE
8
Calque_1
10
248.898000
20
121.098000
11
244.870438
21
107.175070
0
LINE
8
Calque_1
10
244.870438
20
107.175070
11
241.254001
21
93.143137
0
LINE
8
Calque_1
10
241.254001
20
93.143137
11
237.925289
21
79.031761
0
LINE
8
Calque_1
10
237.925289
20
79.031761
11
234.760900
21
64.870500
0
LINE
8
Calque_1
10
234.761000
20
64.870300
11
234.740812
21
64.793301
0
LINE
8
Calque_1
10
234.740000
20
64.793300
11
231.420141
21
52.364352
0
LINE
8
Calque_1
10
231.420141
20
52.364352
11
228.110385
21
39.801538
0
LINE
8
Calque_1
10
228.110385
20
39.801538
11
224.513986
21
27.335230
0
LINE
8
Calque_1
10
224.513986
20
27.335230
11
222.515563
21
21.210257
0
LINE
8
Calque_1
10
222.515563
20
21.210257
11
220.334200
21
15.195800
0
LINE
8
Calque_1
10
220.335000
20
15.195800
11
220.184630
21
15.245806
0
LINE
8
Calque_1
10
220.184000
20
15.245800
11
219.818420
21
15.785969
0
LINE
8
Calque_1
10
219.818420
20
15.785969
11
219.120490
21
16.455500
0
LINE
8
Calque_1
10
219.121000
20
16.455500
11
217.870430
21
17.201703
0
LINE
8
Calque_1
10
217.870000
20
17.201700
11
217.530852
21
17.362818
0
LINE
8
Calque_1
10
217.530852
20
17.362818
11
217.565113
21
17.330896
0
LINE
8
Calque_1
10
217.565000
20
17.330900
11
217.525199
21
17.370905
0
LINE
8
Calque_1
10
217.526000
20
17.370900
11
217.152380
21
17.564707
0
LINE
8
Calque_1
10
217.152000
20
17.564700
11
216.736012
21
17.752289
0
LINE
8
Calque_1
10
216.736000
20
17.752300
11
216.719993
21
17.752300
0
LINE
8
Calque_1
10
216.720000
20
17.752300
11
215.612050
21
18.346606
0
LINE
8
Calque_1
10
215.612000
20
18.346600
11
215.221330
21
18.481405
0
LINE
8
Calque_1
10
215.221000
20
18.481400
11
215.115061
21
18.629196
0
LINE
8
Calque_1
10
215.115000
20
18.629200
11
214.763794
21
19.006595
0
LINE
8
Calque_1
10
214.763794
20
19.006595
11
214.757919
21
18.987392
0
LINE
8
Calque_1
10
214.758000
20
18.987400
11
213.937891
21
19.867403
0
LINE
8
Calque_1
10
213.938000
20
19.867400
11
213.375253
21
20.469988
0
LINE
8
Calque_1
10
213.375000
20
20.470000
11
213.007579
21
20.927808
0
LINE
8
Calque_1
10
213.008000
20
20.927800
11
212.565652
21
21.338592
0
LINE
8
Calque_1
10
212.566000
20
21.338600
11
211.552110
21
22.214608
0
LINE
8
Calque_1
10
211.552000
20
22.214600
11
211.414020
21
22.312601
0
LINE
8
Calque_1
10
272.336000
20
203.390000
11
272.333090
21
203.376586
0
LINE
8
Calque_1
10
211.406000
20
22.324600
11
211.104209
21
22.613922
0
LINE
8
Calque_1
10
211.104000
20
22.613900
11
210.736582
21
22.900682
0
LINE
8
Calque_1
10
210.737000
20
22.900700
11
210.339610
21
23.170495
0
LINE
8
Calque_1
10
210.339000
20
23.170500
11
209.099800
21
24.131201
0
LINE
8
Calque_1
10
209.100000
20
24.131200
11
208.275242
21
24.720321
0
LINE
8
Calque_1
10
208.275000
20
24.720300
11
206.648230
21
26.044700
0
LINE
8
Calque_1
10
206.648000
20
26.044700
11
204.823820
21
27.192990
0
LINE
8
Calque_1
10
204.824000
20
27.193000
11
203.453540
21
28.208890
0
LINE
8
Calque_1
10
203.454000
20
28.208900
11
203.028699
21
28.548492
0
LINE
8
Calque_1
10
203.029000
20
28.548500
11
201.936560
21
29.260599
0
LINE
8
Calque_1
10
201.936000
20
29.260600
11
201.575613
21
29.466052
0
LINE
8
Calque_1
10
201.575613
20
29.466052
11
201.597008
21
29.436812
0
LINE
8
Calque_1
10
201.597000
20
29.436800
11
201.300371
21
29.678602
0
LINE
8
Calque_1
10
201.300000
20
29.678600
11
200.970311
21
29.922493
0
LINE
8
Calque_1
10
200.971000
20
29.922500
11
201.053128
21
29.890922
0
LINE
8
Calque_1
10
201.053128
20
29.890922
11
200.553451
21
30.334403
0
LINE
8
Calque_1
10
200.553000
20
30.334400
11
198.896260
21
31.398390
0
LINE
8
Calque_1
10
198.896000
20
31.398400
11
197.959622
21
31.993712
0
LINE
8
Calque_1
10
197.960000
20
31.993700
11
197.422852
21
32.243172
0
LINE
8
Calque_1
10
197.422852
20
32.243172
11
197.443230
21
32.208700
0
LINE
8
Calque_1
10
197.443000
20
32.208700
11
196.899883
21
32.474294
0
LINE
8
Calque_1
10
196.900000
20
32.474300
11
195.742450
21
32.960098
0
LINE
8
Calque_1
10
195.743000
20
32.960100
11
193.808750
21
33.831898
0
LINE
8
Calque_1
10
193.808000
20
33.831900
11
192.240660
21
34.367202
0
LINE
8
Calque_1
10
192.241000
20
34.367200
11
190.483480
21
35.249299
0
LINE
8
Calque_1
10
190.484000
20
35.249300
11
189.241180
21
35.735098
0
LINE
8
Calque_1
10
189.241000
20
35.735100
11
188.756800
21
35.933500
0
LINE
8
Calque_1
10
188.757000
20
35.933500
11
188.382810
21
36.062837
0
LINE
8
Calque_1
10
188.382810
20
36.062837
11
188.490351
21
36.008499
0
LINE
8
Calque_1
10
188.490000
20
36.008500
11
187.071990
21
36.652900
0
LINE
8
Calque_1
10
187.072000
20
36.652900
11
185.057140
21
37.224500
0
LINE
8
Calque_1
10
185.057000
20
37.224500
11
183.396640
21
37.696799
0
LINE
8
Calque_1
10
183.397000
20
37.696800
11
181.511320
21
38.132999
0
LINE
8
Calque_1
10
181.511000
20
38.133000
11
180.481090
21
38.385100
0
LINE
8
Calque_1
10
180.481000
20
38.385100
11
179.866051
21
38.475101
0
LINE
8
Calque_1
10
179.866000
20
38.475100
11
178.938930
21
38.705099
0
LINE
8
Calque_1
10
178.939000
20
38.705100
11
176.316940
21
39.186199
0
LINE
8
Calque_1
10
176.317000
20
39.186200
11
171.552950
21
40.404700
0
LINE
8
Calque_1
10
171.553000
20
40.404700
11
168.914920
21
41.032600
0
LINE
8
Calque_1
10
168.915000
20
41.032600
11
168.004980
21
41.133398
0
LINE
8
Calque_1
10
168.005000
20
41.133400
11
167.321841
21
41.189402
0
LINE
8
Calque_1
10
167.322000
20
41.189400
11
165.252360
21
41.376500
0
LINE
8
Calque_1
10
165.252000
20
41.376500
11
161.897690
21
41.769199
0
LINE
8
Calque_1
10
161.898000
20
41.769200
11
159.241830
21
41.740199
0
LINE
8
Calque_1
10
159.242000
20
41.740200
11
158.063260
21
41.709201
0
LINE
8
Calque_1
10
158.063000
20
41.709200
11
156.302900
21
41.590900
0
LINE
8
Calque_1
10
156.303000
20
41.590900
11
154.436450
21
41.538899
0
LINE
8
Calque_1
10
154.436000
20
41.538900
11
153.440202
21
41.519903
0
LINE
8
Calque_1
10
153.440000
20
41.519900
11
150.572990
21
41.034602
0
LINE
8
Calque_1
10
150.573000
20
41.034600
11
149.899649
21
40.948600
0
LINE
8
Calque_1
10
149.900000
20
40.948600
11
147.232980
21
40.456100
0
LINE
8
Calque_1
10
147.233000
20
40.456100
11
146.131780
21
40.242701
0
LINE
8
Calque_1
10
146.132000
20
40.242700
11
145.331531
21
40.016400
0
LINE
8
Calque_1
10
145.331000
20
40.016400
11
144.297990
21
39.762101
0
LINE
8
Calque_1
10
144.298000
20
39.762100
11
143.548690
21
39.516099
0
LINE
8
Calque_1
10
143.549000
20
39.516100
11
141.081970
21
38.908903
0
LINE
8
Calque_1
10
141.082000
20
38.908900
11
140.268611
21
38.596798
0
LINE
8
Calque_1
10
140.269000
20
38.596800
11
139.609090
21
38.348801
0
LINE
8
Calque_1
10
139.609000
20
38.348800
11
139.702501
21
38.374809
0
LINE
8
Calque_1
10
139.702000
20
38.374800
11
138.365130
21
37.911801
0
LINE
8
Calque_1
10
138.365000
20
37.911800
11
137.618270
21
37.621899
0
LINE
8
Calque_1
10
137.619000
20
37.621900
11
136.676423
21
37.352602
0
LINE
8
Calque_1
10
136.676000
20
37.352600
11
134.487510
21
36.495801
0
LINE
8
Calque_1
10
134.488000
20
36.495800
11
132.111400
21
35.429700
0
LINE
8
Calque_1
10
132.111000
20
35.429700
11
130.339010
21
34.591001
0
LINE
8
Calque_1
10
130.339000
20
34.591000
11
129.865650
21
34.404001
0
LINE
8
Calque_1
10
129.866000
20
34.404000
11
128.812310
21
33.927502
0
LINE
8
Calque_1
10
128.812000
20
33.927500
11
127.872532
21
33.424700
0
LINE
8
Calque_1
10
127.872000
20
33.424700
11
127.052930
21
33.034501
0
LINE
8
Calque_1
10
127.053000
20
33.034500
11
126.367770
21
32.674400
0
LINE
8
Calque_1
10
126.368000
20
32.674400
11
125.225950
21
32.176693
0
LINE
8
Calque_1
10
125.226000
20
32.176700
11
124.341301
21
31.701297
0
LINE
8
Calque_1
10
124.341000
20
31.701300
11
124.228341
21
31.635313
0
LINE
8
Calque_1
10
124.229000
20
31.635300
11
123.875530
21
31.406409
0
LINE
8
Calque_1
10
123.875000
20
31.406400
11
122.768610
21
30.913879
0
LINE
8
Calque_1
10
122.769000
20
30.913900
11
121.978352
21
30.401800
0
LINE
8
Calque_1
10
121.978000
20
30.401800
11
121.284512
21
30.003312
0
LINE
8
Calque_1
10
121.285000
20
30.003300
11
120.119180
21
29.250905
0
LINE
8
Calque_1
10
120.119000
20
29.250900
11
119.390360
21
28.696995
0
LINE
8
Calque_1
10
119.390000
20
28.697000
11
117.634030
21
27.503810
0
LINE
8
Calque_1
10
117.634000
20
27.503800
11
116.975641
21
27.019507
0
LINE
8
Calque_1
10
116.976000
20
27.019500
11
116.836765
21
26.972887
0
LINE
8
Calque_1
10
116.836765
20
26.972887
11
116.174501
21
26.529677
0
LINE
8
Calque_1
10
116.174000
20
26.529700
11
115.218511
21
25.737512
0
LINE
8
Calque_1
10
115.219000
20
25.737500
11
114.946141
21
25.453206
0
LINE
8
Calque_1
10
114.946000
20
25.453200
11
114.859701
21
25.395203
0
LINE
8
Calque_1
10
114.860000
20
25.395200
11
112.595030
21
23.988090
0
LINE
8
Calque_1
10
112.595000
20
23.988100
11
111.834842
21
23.365907
0
LINE
8
Calque_1
10
111.835000
20
23.365900
11
111.600900
21
23.183999
0
LINE
8
Calque_1
10
211.414000
20
22.312600
11
211.406010
21
22.324506
0
LINE
8
Calque_1
10
111.591000
20
23.184000
11
111.318670
21
23.027393
0
LINE
8
Calque_1
10
111.318000
20
23.027400
11
110.373351
21
22.349909
0
LINE
8
Calque_1
10
110.374000
20
22.349900
11
109.809181
21
21.862591
0
LINE
8
Calque_1
10
109.809000
20
21.862600
11
109.229711
21
21.439902
0
LINE
8
Calque_1
10
109.229000
20
21.439900
11
107.998060
21
20.319100
0
LINE
8
Calque_1
10
107.999000
20
20.319100
11
107.992994
21
20.309046
0
LINE
8
Calque_1
10
107.993000
20
20.309100
11
107.558920
21
19.906008
0
LINE
8
Calque_1
10
107.558000
20
19.906000
11
105.105430
21
17.881310
0
LINE
8
Calque_1
10
105.106000
20
17.881300
11
104.156189
21
16.944888
0
LINE
8
Calque_1
10
104.156000
20
16.944900
11
103.549322
21
16.385810
0
LINE
8
Calque_1
10
103.549000
20
16.385800
11
102.817780
21
15.816788
0
LINE
8
Calque_1
10
102.818000
20
15.816800
11
101.656830
21
14.517720
0
LINE
8
Calque_1
10
101.657000
20
14.517700
11
101.248240
21
14.080477
0
LINE
8
Calque_1
10
101.248000
20
14.080500
11
101.174099
21
14.039516
0
LINE
8
Calque_1
10
101.174000
20
14.039500
11
100.909422
21
13.953484
0
LINE
8
Calque_1
10
100.910000
20
13.953500
11
99.900760
21
13.468308
0
LINE
8
Calque_1
10
99.900600
20
13.468300
11
99.892610
21
13.458246
0
LINE
8
Calque_1
10
99.892600
20
13.458300
11
99.529309
21
13.227795
0
LINE
8
Calque_1
10
99.529300
20
13.227800
11
99.130880
21
12.899611
0
LINE
8
Calque_1
10
99.130800
20
12.899600
11
99.063601
21
12.792708
0
LINE
8
Calque_1
10
111.601000
20
23.184000
11
111.591000
21
23.184000
0
LINE
8
Calque_1
10
99.055600
20
12.792700
11
98.568812
21
12.028399
0
LINE
8
Calque_1
10
98.568900
20
12.028400
11
98.582877
21
12.061198
0
LINE
8
Calque_1
10
98.582877
20
12.061198
11
98.705319
21
12.324998
0
LINE
8
Calque_1
10
98.705300
20
12.325000
11
98.940951
21
12.671789
0
LINE
8
Calque_1
10
98.940900
20
12.671800
11
99.012700
21
12.752815
0
LINE
8
Calque_1
10
99.012700
20
12.752800
11
99.053499
21
12.790794
0
LINE
8
Calque_1
10
99.053500
20
12.790800
11
98.710370
21
12.577784
0
LINE
8
Calque_1
10
98.710400
20
12.577800
11
97.790561
21
12.006301
0
LINE
8
Calque_1
10
97.790600
20
12.006300
11
97.074882
21
11.491104
0
LINE
8
Calque_1
10
97.074800
20
11.491100
11
96.503412
21
10.991022
0
LINE
8
Calque_1
10
96.503412
20
10.991022
11
96.418510
21
10.877717
0
LINE
8
Calque_1
10
96.418500
20
10.877700
11
95.339500
21
10.174385
0
LINE
8
Calque_1
10
95.339500
20
10.174400
11
94.817052
21
9.796602
0
LINE
8
Calque_1
10
94.817100
20
9.796640
11
94.367674
21
9.555545
0
LINE
8
Calque_1
10
94.367674
20
9.555545
11
93.682800
21
8.920235
0
LINE
8
Calque_1
10
93.682800
20
8.920230
11
93.433719
21
8.627231
0
LINE
8
Calque_1
10
93.433700
20
8.627230
11
90.522141
21
17.426835
0
LINE
8
Calque_1
10
90.522141
20
17.426835
11
87.395980
21
26.111268
0
LINE
8
Calque_1
10
87.395980
20
26.111268
11
84.308504
21
34.786082
0
LINE
8
Calque_1
10
84.308504
20
34.786082
11
81.513000
21
43.556830
0
LINE
8
Calque_1
10
81.513000
20
43.556800
11
80.965229
21
45.295200
0
LINE
8
Calque_1
10
80.965200
20
45.295200
11
80.665991
21
46.526700
0
LINE
8
Calque_1
10
80.666000
20
46.526700
11
79.253894
21
52.529642
0
LINE
8
Calque_1
10
79.253894
20
52.529642
11
78.223260
21
58.680500
0
LINE
8
Calque_1
10
99.063600
20
12.792700
11
99.055700
21
12.792700
0
LINE
8
Calque_1
10
78.224300
20
58.697500
11
78.221310
21
58.720492
0
LINE
8
Calque_1
10
78.221300
20
58.720500
11
76.427463
21
64.076104
0
LINE
8
Calque_1
10
76.427463
20
64.076104
11
74.775021
21
69.470384
0
LINE
8
Calque_1
10
74.775021
20
69.470384
11
71.826870
21
80.355800
0
LINE
8
Calque_1
10
71.826900
20
80.355800
11
69.856874
21
88.604595
0
LINE
8
Calque_1
10
69.856874
20
88.604595
11
68.033316
21
96.892619
0
LINE
8
Calque_1
10
68.033316
20
96.892619
11
64.593825
21
113.522100
0
LINE
8
Calque_1
10
64.593825
20
113.522100
11
61.044872
21
130.115731
0
LINE
8
Calque_1
10
61.044872
20
130.115731
11
59.084486
21
138.358943
0
LINE
8
Calque_1
10
59.084486
20
138.358943
11
56.922900
21
146.545000
0
LINE
8
Calque_1
10
56.922900
20
146.545000
11
56.903850
21
146.624999
0
LINE
8
Calque_1
10
56.903800
20
146.625000
11
54.517598
21
156.004952
0
LINE
8
Calque_1
10
54.517598
20
156.004952
11
52.267661
21
165.422112
0
LINE
8
Calque_1
10
52.267661
20
165.422112
11
47.929670
21
184.306900
0
LINE
8
Calque_1
10
47.929700
20
184.307000
11
43.364175
21
203.275625
0
LINE
8
Calque_1
10
43.364175
20
203.275625
11
40.848050
21
212.707203
0
LINE
8
Calque_1
10
40.848050
20
212.707203
11
38.092000
21
222.083000
0
LINE
8
Calque_1
10
38.092000
20
222.083000
11
36.001858
21
227.923094
0
LINE
8
Calque_1
10
36.001858
20
227.923094
11
34.188475
21
233.824125
0
LINE
8
Calque_1
10
34.188475
20
233.824125
11
30.988900
21
245.713000
0
LINE
8
Calque_1
10
30.988900
20
245.713000
11
29.401164
21
251.652844
0
LINE
8
Calque_1
10
29.401164
20
251.652844
11
27.687100
21
257.557625
0
LINE
8
Calque_1
10
27.687100
20
257.557625
11
25.745936
21
263.403344
0
LINE
8
Calque_1
10
25.745936
20
263.403344
11
23.476900
21
269.166000
0
LINE
8
Calque_1
10
23.476900
20
269.166000
11
20.488188
21
286.253797
0
LINE
8
Calque_1
10
20.488188
20
286.253797
11
17.791825
21
303.236875
0
LINE
8
Calque_1
10
17.791825
20
303.236875
11
16.615959
21
311.743607
0
LINE
8
Calque_1
10
16.615959
20
311.743607
11
15.588400
21
320.289516
0
LINE
8
Calque_1
10
15.588400
20
320.289516
11
14.734223
21
328.896385
0
LINE
8
Calque_1
10
14.734223
20
328.896385
11
14.078500
21
337.586000
0
LINE
8
Calque_1
10
14.078500
20
337.586000
11
12.640454
21
345.291066
0
LINE
8
Calque_1
10
12.640454
20
345.291066
11
11.397761
21
353.060575
0
LINE
8
Calque_1
10
11.397761
20
353.060575
11
10.342795
21
360.883147
0
LINE
8
Calque_1
10
10.342795
20
360.883147
11
9.467930
21
368.747400
0
LINE
8
Calque_1
10
9.467970
20
368.747000
11
8.766931
21
376.624497
0
LINE
8
Calque_1
10
8.766931
20
376.624497
11
8.230209
21
384.520875
0
LINE
8
Calque_1
10
8.230209
20
384.520875
11
7.850385
21
392.424791
0
LINE
8
Calque_1
10
7.850385
20
392.424791
11
7.620040
21
400.324900
0
LINE
8
Calque_1
10
78.223300
20
58.680500
11
78.224358
21
58.697486
0
LINE
8
Calque_1
10
7.622530
20
400.362000
11
13.149413
21
441.367950
0
LINE
8
Calque_1
10
13.149413
20
441.367950
11
16.899470
21
468.509700
0
LINE
8
Calque_1
10
7.620040
20
400.325000
11
7.620040
21
400.347000
0
LINE
8
Calque_1
10
7.620040
20
400.347000
11
7.622950
21
400.361499
0
LINE
8
Calque_1
10
329.266000
20
117.802000
11
329.262031
21
117.726999
0
LINE
8
Calque_1
10
329.262000
20
117.727000
11
329.265969
21
117.802001
0
LINE
8
Calque_1
10
16.899500
20
468.509000
11
178.401000
21
571.428000
0
LINE
8
Calque_1
10
329.262000
20
117.727000
11
329.259090
21
117.667001
0
LINE
8
Calque_1
10
329.259000
20
117.667000
11
329.261910
21
117.727000
0
LINE
8
Calque_1
10
161.123000
20
36.999200
11
161.584470
21
36.985204
0
LINE
8
Calque_1
10
161.584000
20
36.985200
11
164.809650
21
36.603401
0
LINE
8
Calque_1
10
164.810000
20
36.603400
11
166.883770
21
36.415297
0
LINE
8
Calque_1
10
166.884000
20
36.415300
11
167.609018
21
36.356301
0
LINE
8
Calque_1
10
167.609000
20
36.356300
11
167.996692
21
36.316681
0
LINE
8
Calque_1
10
167.996692
20
36.316681
11
168.078222
21
36.312300
0
LINE
8
Calque_1
10
168.078000
20
36.312300
11
170.405500
21
35.750503
0
LINE
8
Calque_1
10
170.405000
20
35.750500
11
175.258440
21
34.510300
0
LINE
8
Calque_1
10
175.259000
20
34.510300
11
177.990620
21
34.005899
0
LINE
8
Calque_1
10
177.990000
20
34.005900
11
178.925859
21
33.774901
0
LINE
8
Calque_1
10
178.926000
20
33.774900
11
179.578671
21
33.676901
0
LINE
8
Calque_1
10
179.579000
20
33.676900
11
180.410989
21
33.467599
0
LINE
8
Calque_1
10
180.411000
20
33.467600
11
182.319410
21
33.025302
0
LINE
8
Calque_1
10
182.319000
20
33.025300
11
183.722020
21
32.620099
0
LINE
8
Calque_1
10
183.722000
20
32.620100
11
185.431450
21
32.148304
0
LINE
8
Calque_1
10
185.432000
20
32.148300
11
186.686190
21
31.567011
0
LINE
8
Calque_1
10
186.686000
20
31.567000
11
187.183649
21
31.397984
0
LINE
8
Calque_1
10
187.184000
20
31.398000
11
187.555030
21
31.247108
0
LINE
8
Calque_1
10
187.555000
20
31.247100
11
188.385439
21
30.939602
0
LINE
8
Calque_1
10
188.385000
20
30.939600
11
190.403480
21
29.939190
0
LINE
8
Calque_1
10
190.404000
20
29.939200
11
192.092270
21
29.355715
0
LINE
8
Calque_1
10
192.092000
20
29.355700
11
193.757530
21
28.596585
0
LINE
8
Calque_1
10
193.757000
20
28.596600
11
194.945560
21
28.097411
0
LINE
8
Calque_1
10
194.946000
20
28.097400
11
195.486540
21
27.832791
0
LINE
8
Calque_1
10
195.486000
20
27.832800
11
195.822409
21
27.686115
0
LINE
8
Calque_1
10
195.823000
20
27.686100
11
196.416248
21
27.296396
0
LINE
8
Calque_1
10
196.416000
20
27.296400
11
197.428850
21
26.668597
0
LINE
8
Calque_1
10
197.429000
20
26.668600
11
197.815540
21
26.313609
0
LINE
8
Calque_1
10
197.815000
20
26.313600
11
198.372588
21
25.882594
0
LINE
8
Calque_1
10
198.373000
20
25.882600
11
198.949201
21
25.441302
0
LINE
8
Calque_1
10
198.949000
20
25.441300
11
199.485908
21
25.139993
0
LINE
8
Calque_1
10
199.486000
20
25.140000
11
200.252881
21
24.640309
0
LINE
8
Calque_1
10
200.253000
20
24.640300
11
200.573910
21
24.377199
0
LINE
8
Calque_1
10
200.574000
20
24.377200
11
202.155300
21
23.210890
0
LINE
8
Calque_1
10
202.155000
20
23.210900
11
203.514090
21
22.365002
0
LINE
8
Calque_1
10
203.512000
20
22.365000
11
202.781822
21
22.530311
0
LINE
8
Calque_1
10
202.782000
20
22.530300
11
201.060140
21
22.953606
0
LINE
8
Calque_1
10
201.060000
20
22.953600
11
199.919500
21
23.108593
0
LINE
8
Calque_1
10
199.920000
20
23.108600
11
199.525857
21
23.145969
0
LINE
8
Calque_1
10
199.525857
20
23.145969
11
199.503491
21
23.137598
0
LINE
8
Calque_1
10
199.503000
20
23.137600
11
197.370830
21
23.639911
0
LINE
8
Calque_1
10
197.371000
20
23.639900
11
195.337010
21
24.192296
0
LINE
8
Calque_1
10
195.337000
20
24.192300
11
194.263680
21
24.347795
0
LINE
8
Calque_1
10
194.264000
20
24.347800
11
193.157090
21
24.359706
0
LINE
8
Calque_1
10
193.157000
20
24.359800
11
192.990090
21
24.391814
0
LINE
8
Calque_1
10
192.990000
20
24.391800
11
191.984890
21
24.577405
0
LINE
8
Calque_1
10
191.985000
20
24.577400
11
191.924000
21
24.587454
0
LINE
8
Calque_1
10
191.924000
20
24.587400
11
191.616010
21
24.699980
0
LINE
8
Calque_1
10
203.514000
20
22.365000
11
203.512000
21
22.365000
0
LINE
8
Calque_1
10
191.284000
20
24.758500
11
190.787391
21
24.845521
0
LINE
8
Calque_1
10
190.787000
20
24.845500
11
189.656320
21
25.027877
0
LINE
8
Calque_1
10
189.657000
20
25.027900
11
188.357340
21
25.160218
0
LINE
8
Calque_1
10
188.357000
20
25.160200
11
187.044420
21
25.370993
0
LINE
8
Calque_1
10
187.045000
20
25.371000
11
186.444521
21
25.473394
0
LINE
8
Calque_1
10
186.444000
20
25.473400
11
185.793909
21
25.511394
0
LINE
8
Calque_1
10
185.794000
20
25.511400
11
184.996113
21
25.634405
0
LINE
8
Calque_1
10
184.996000
20
25.634400
11
183.030230
21
26.085514
0
LINE
8
Calque_1
10
183.030000
20
26.085500
11
181.942210
21
26.267401
0
LINE
8
Calque_1
10
181.943000
20
26.267400
11
181.075872
21
26.378498
0
LINE
8
Calque_1
10
181.075000
20
26.378500
11
179.586200
21
26.732988
0
LINE
8
Calque_1
10
179.587000
20
26.733000
11
177.178360
21
26.935591
0
LINE
8
Calque_1
10
177.178000
20
26.935600
11
175.031880
21
27.283315
0
LINE
8
Calque_1
10
175.032000
20
27.283300
11
174.527129
21
27.309669
0
LINE
8
Calque_1
10
174.527129
20
27.309669
11
174.511100
21
27.293354
0
LINE
8
Calque_1
10
174.511000
20
27.293300
11
174.263991
21
27.305206
0
LINE
8
Calque_1
10
174.264000
20
27.305300
11
174.026812
21
27.365307
0
LINE
8
Calque_1
10
174.027000
20
27.365300
11
173.457001
21
27.446315
0
LINE
8
Calque_1
10
173.457000
20
27.446300
11
172.103600
21
27.556896
0
LINE
8
Calque_1
10
172.103000
20
27.556900
11
171.191432
21
27.596878
0
LINE
8
Calque_1
10
171.192000
20
27.596900
11
170.574979
21
27.707019
0
LINE
8
Calque_1
10
191.616000
20
24.700000
11
191.387080
21
24.749001
0
LINE
8
Calque_1
10
191.387080
20
24.749001
11
191.336000
21
24.749000
0
LINE
8
Calque_1
10
191.336000
20
24.749000
11
191.293101
21
24.759054
0
LINE
8
Calque_1
10
191.293101
20
24.759054
11
191.269000
21
24.759100
0
LINE
8
Calque_1
10
191.269000
20
24.759100
11
191.284000
21
24.759100
0
LINE
8
Calque_1
10
170.574000
20
27.707000
11
170.037603
21
27.781983
0
LINE
8
Calque_1
10
170.037000
20
27.782000
11
169.826670
21
27.782000
0
LINE
8
Calque_1
10
170.575000
20
27.707000
11
170.574000
21
27.707000
0
LINE
8
Calque_1
10
169.827000
20
27.782000
11
169.586182
21
27.782000
0
LINE
8
Calque_1
10
169.586000
20
27.782000
11
169.676898
21
27.794965
0
LINE
8
Calque_1
10
169.827000
20
27.782000
11
169.827000
21
27.782000
0
LINE
8
Calque_1
10
169.677000
20
27.795000
11
169.540570
21
27.812992
0
LINE
8
Calque_1
10
169.541000
20
27.813000
11
169.194772
21
27.874013
0
LINE
8
Calque_1
10
169.194000
20
27.874000
11
168.298971
21
27.982982
0
LINE
8
Calque_1
10
168.299000
20
27.983000
11
166.563190
21
27.993054
0
LINE
8
Calque_1
10
166.564000
20
27.993000
11
166.482900
21
28.017077
0
LINE
8
Calque_1
10
166.483000
20
28.017000
11
166.127469
21
28.050999
0
LINE
8
Calque_1
10
166.127000
20
28.051000
11
165.507402
21
28.051000
0
LINE
8
Calque_1
10
165.507000
20
28.051000
11
165.022268
21
28.035125
0
LINE
8
Calque_1
10
165.023000
20
28.035000
11
164.988400
21
28.024946
0
LINE
8
Calque_1
10
164.988000
20
28.025000
11
164.897100
21
28.025000
0
LINE
8
Calque_1
10
164.897000
20
28.025000
11
164.308411
21
28.055004
0
LINE
8
Calque_1
10
164.309000
20
28.055000
11
163.732802
21
28.002983
0
LINE
8
Calque_1
10
163.732000
20
28.003000
11
163.455019
21
27.983950
0
LINE
8
Calque_1
10
169.677000
20
27.795000
11
169.665000
21
27.795000
0
LINE
8
Calque_1
10
169.665000
20
27.795000
11
169.677000
21
27.795000
0
LINE
8
Calque_1
10
163.454000
20
27.984000
11
162.982198
21
27.918992
0
LINE
8
Calque_1
10
162.983000
20
27.919000
11
162.749421
21
27.886007
0
LINE
8
Calque_1
10
162.749000
20
27.886000
11
162.104082
21
27.897112
0
LINE
8
Calque_1
10
162.104000
20
27.897000
11
161.112332
21
27.854984
0
LINE
8
Calque_1
10
161.112000
20
27.855000
11
160.029890
21
27.923024
0
LINE
8
Calque_1
10
160.030000
20
27.923000
11
158.093170
21
27.857992
0
LINE
8
Calque_1
10
158.094000
20
27.858000
11
156.365940
21
27.747986
0
LINE
8
Calque_1
10
156.365000
20
27.748000
11
155.905081
21
27.686008
0
LINE
8
Calque_1
10
155.906000
20
27.686000
11
155.512740
21
27.603000
0
LINE
8
Calque_1
10
155.512000
20
27.603000
11
155.189031
21
27.578923
0
LINE
8
Calque_1
10
155.189000
20
27.579000
11
154.493948
21
27.498011
0
LINE
8
Calque_1
10
154.494000
20
27.498000
11
153.460470
21
27.278396
0
LINE
8
Calque_1
10
153.461000
20
27.278400
11
153.220700
21
27.264377
0
LINE
8
Calque_1
10
153.220000
20
27.264400
11
152.617970
21
27.193386
0
LINE
8
Calque_1
10
152.618000
20
27.193400
11
152.272291
21
27.203454
0
LINE
8
Calque_1
10
152.273000
20
27.203400
11
151.173320
21
27.179323
0
LINE
8
Calque_1
10
151.173000
20
27.179400
11
150.689311
21
27.130399
0
LINE
8
Calque_1
10
150.689000
20
27.130400
11
149.244650
21
27.100396
0
LINE
8
Calque_1
10
149.245000
20
27.100400
11
147.140730
21
26.945804
0
LINE
8
Calque_1
10
147.141000
20
26.945800
11
145.239830
21
26.899789
0
LINE
8
Calque_1
10
145.240000
20
26.899800
11
142.840140
21
26.574813
0
LINE
8
Calque_1
10
142.840000
20
26.574800
11
141.618890
21
26.438910
0
LINE
8
Calque_1
10
141.619000
20
26.438900
11
140.927571
21
26.384899
0
LINE
8
Calque_1
10
140.927000
20
26.384900
11
139.503310
21
26.133202
0
LINE
8
Calque_1
10
139.503000
20
26.133200
11
136.010190
21
25.550297
0
LINE
8
Calque_1
10
136.011000
20
25.550300
11
135.038451
21
25.424200
0
LINE
8
Calque_1
10
135.038000
20
25.424200
11
134.790063
21
25.376443
0
LINE
8
Calque_1
10
134.790063
20
25.376443
11
134.816830
21
25.375199
0
LINE
8
Calque_1
10
134.817000
20
25.375200
11
134.716739
21
25.348186
0
LINE
8
Calque_1
10
134.717000
20
25.348200
11
134.459140
21
25.280202
0
LINE
8
Calque_1
10
134.459000
20
25.280200
11
134.115308
21
25.193162
0
LINE
8
Calque_1
10
134.115308
20
25.193162
11
134.035151
21
25.172437
0
LINE
8
Calque_1
10
134.035151
20
25.172437
11
134.143263
21
25.196195
0
LINE
8
Calque_1
10
134.143000
20
25.196200
11
133.963160
21
25.155216
0
LINE
8
Calque_1
10
163.455000
20
27.984000
11
163.454000
21
27.984000
0
LINE
8
Calque_1
10
133.951000
20
25.155700
11
133.761350
21
25.134798
0
LINE
8
Calque_1
10
133.761000
20
25.134700
11
133.427170
21
25.080699
0
LINE
8
Calque_1
10
133.427000
20
25.080700
11
132.680273
21
24.931899
0
LINE
8
Calque_1
10
132.681000
20
24.931900
11
132.477398
21
24.875914
0
LINE
8
Calque_1
10
132.477000
20
24.875900
11
130.979930
21
24.697598
0
LINE
8
Calque_1
10
130.980000
20
24.697600
11
130.307689
21
24.595788
0
LINE
8
Calque_1
10
130.308000
20
24.595800
11
130.224302
21
24.575692
0
LINE
8
Calque_1
10
130.224000
20
24.575800
11
130.137198
21
24.565746
0
LINE
8
Calque_1
10
130.137000
20
24.565800
11
130.047755
21
24.557542
0
LINE
8
Calque_1
10
130.047755
20
24.557542
11
129.649172
21
24.514815
0
LINE
8
Calque_1
10
129.649000
20
24.514800
11
129.268149
21
24.471779
0
LINE
8
Calque_1
10
129.268000
20
24.471800
11
128.814801
21
24.398802
0
LINE
8
Calque_1
10
128.815000
20
24.398800
11
128.288365
21
24.255806
0
LINE
8
Calque_1
10
128.288365
20
24.255806
11
128.259992
21
24.228303
0
LINE
8
Calque_1
10
128.260000
20
24.228300
11
125.543370
21
23.708897
0
LINE
8
Calque_1
10
125.544000
20
23.708900
11
125.431348
21
23.689850
0
LINE
8
Calque_1
10
125.431000
20
23.689900
11
125.251160
21
23.689900
0
LINE
8
Calque_1
10
125.251000
20
23.689900
11
124.818992
21
23.654922
0
LINE
8
Calque_1
10
124.819000
20
23.654900
11
122.900770
21
23.315890
0
LINE
8
Calque_1
10
122.901000
20
23.315900
11
120.918170
21
22.704105
0
LINE
8
Calque_1
10
120.918000
20
22.704100
11
120.615698
21
22.634091
0
LINE
8
Calque_1
10
120.616000
20
22.634100
11
120.485251
21
22.612140
0
LINE
8
Calque_1
10
120.485000
20
22.612100
11
120.418301
21
22.591198
0
LINE
8
Calque_1
10
120.418000
20
22.591100
11
120.377199
21
22.577077
0
LINE
8
Calque_1
10
120.378000
20
22.577100
11
120.284002
21
22.540085
0
LINE
8
Calque_1
10
133.963000
20
25.155200
11
133.951000
21
25.155200
0
LINE
8
Calque_1
10
120.296000
20
22.550100
11
119.764241
21
22.358304
0
LINE
8
Calque_1
10
119.765000
20
22.358300
11
119.782273
21
22.382777
0
LINE
8
Calque_1
10
119.782273
20
22.382777
11
119.328861
21
22.242095
0
LINE
8
Calque_1
10
119.329000
20
22.242100
11
118.171440
21
21.719601
0
LINE
8
Calque_1
10
118.171000
20
21.719600
11
118.009771
21
21.652608
0
LINE
8
Calque_1
10
118.010000
20
21.652600
11
117.976398
21
21.652600
0
LINE
8
Calque_1
10
117.976000
20
21.652600
11
117.814771
21
21.614606
0
LINE
8
Calque_1
10
117.815000
20
21.614600
11
118.340039
21
21.998589
0
LINE
8
Calque_1
10
118.340000
20
21.998600
11
118.686231
21
22.354094
0
LINE
8
Calque_1
10
118.686000
20
22.354100
11
118.767100
21
22.460013
0
LINE
8
Calque_1
10
118.767000
20
22.460000
11
119.119430
21
22.743792
0
LINE
8
Calque_1
10
119.120000
20
22.743800
11
119.105453
21
22.697339
0
LINE
8
Calque_1
10
119.105453
20
22.697339
11
119.630568
21
23.024893
0
LINE
8
Calque_1
10
119.630000
20
23.024900
11
120.411340
21
23.593806
0
LINE
8
Calque_1
10
120.412000
20
23.593800
11
122.175200
21
24.791700
0
LINE
8
Calque_1
10
122.175000
20
24.791700
11
122.853520
21
25.310997
0
LINE
8
Calque_1
10
122.853000
20
25.311000
11
123.554759
21
25.778703
0
LINE
8
Calque_1
10
123.555000
20
25.778700
11
124.505848
21
26.325408
0
LINE
8
Calque_1
10
124.506000
20
26.325400
11
124.964359
21
26.623545
0
LINE
8
Calque_1
10
124.964359
20
26.623545
11
125.008290
21
26.672692
0
LINE
8
Calque_1
10
125.008000
20
26.672700
11
126.024990
21
27.119210
0
LINE
8
Calque_1
10
126.025000
20
27.119200
11
126.673030
21
27.508798
0
LINE
8
Calque_1
10
126.673000
20
27.508800
11
127.301898
21
27.852493
0
LINE
8
Calque_1
10
127.302000
20
27.852500
11
128.412010
21
28.335099
0
LINE
8
Calque_1
10
128.412000
20
28.335100
11
129.193348
21
28.742399
0
LINE
8
Calque_1
10
129.193000
20
28.742400
11
129.985709
21
29.118002
0
LINE
8
Calque_1
10
129.986000
20
29.118000
11
130.090389
21
29.170996
0
LINE
8
Calque_1
10
130.091000
20
29.171000
11
130.971051
21
29.643413
0
LINE
8
Calque_1
10
130.971000
20
29.643400
11
131.392158
21
29.857289
0
LINE
8
Calque_1
10
131.392000
20
29.857300
11
132.253961
21
30.193188
0
LINE
8
Calque_1
10
132.254000
20
30.193200
11
134.137610
21
31.082014
0
LINE
8
Calque_1
10
134.137000
20
31.082000
11
136.368910
21
32.083000
0
LINE
8
Calque_1
10
136.369000
20
32.083000
11
138.212290
21
32.808497
0
LINE
8
Calque_1
10
138.213000
20
32.808500
11
139.134910
21
33.071599
0
LINE
8
Calque_1
10
139.134000
20
33.071600
11
140.019218
21
33.409499
0
LINE
8
Calque_1
10
140.020000
20
33.409500
11
140.875759
21
33.724301
0
LINE
8
Calque_1
10
140.875000
20
33.724300
11
141.248618
21
33.842100
0
LINE
8
Calque_1
10
141.249000
20
33.842100
11
141.967819
21
34.111297
0
LINE
8
Calque_1
10
141.968000
20
34.111300
11
142.631532
21
34.369700
0
LINE
8
Calque_1
10
142.631000
20
34.369700
11
144.827230
21
34.893201
0
LINE
8
Calque_1
10
144.828000
20
34.893200
11
145.602120
21
35.145898
0
LINE
8
Calque_1
10
145.602000
20
35.145900
11
146.556459
21
35.380000
0
LINE
8
Calque_1
10
146.556000
20
35.380000
11
147.214878
21
35.571201
0
LINE
8
Calque_1
10
147.215000
20
35.571200
11
148.179281
21
35.755098
0
LINE
8
Calque_1
10
148.179000
20
35.755100
11
150.619160
21
36.207299
0
LINE
8
Calque_1
10
150.620000
20
36.207300
11
151.396699
21
36.310101
0
LINE
8
Calque_1
10
151.396000
20
36.310100
11
153.845460
21
36.741100
0
LINE
8
Calque_1
10
120.284000
20
22.540100
11
120.296912
21
22.550154
0
LINE
8
Calque_1
10
154.521000
20
36.741100
11
156.532250
21
36.797099
0
LINE
8
Calque_1
10
156.532000
20
36.797100
11
158.279180
21
36.914900
0
LINE
8
Calque_1
10
158.279000
20
36.914900
11
159.398310
21
36.942898
0
LINE
8
Calque_1
10
159.398000
20
36.942900
11
161.121930
21
36.994901
0
LINE
8
Calque_1
10
153.846000
20
36.741100
11
154.521000
21
36.741100
0
LINE
8
Calque_1
10
187.184000
20
31.398000
11
187.117299
21
31.429009
0
LINE
8
Calque_1
10
187.117000
20
31.429000
11
187.180000
21
31.401986
0
LINE
8
Calque_1
10
161.122000
20
36.994900
11
161.122529
21
36.999186
0
LINE
8
Calque_1
10
163.846000
20
28.018900
11
163.867696
21
28.018900
0
LINE
8
Calque_1
10
163.868000
20
28.018900
11
163.822500
21
28.008846
0
LINE
8
Calque_1
10
163.822000
20
28.008900
11
163.732100
21
28.018954
0
LINE
8
Calque_1
10
187.180000
20
31.402000
11
187.184000
21
31.402000
0
LINE
8
Calque_1
10
187.184000
20
31.402000
11
187.183735
21
31.398031
0
LINE
8
Calque_1
10
163.732000
20
28.018900
11
163.846000
21
28.018900
0
LINE
8
Calque_1
10
163.846000
20
28.018900
11
163.846000
21
28.018900
0
LINE
8
Calque_1
10
146.998000
20
1061.980000
11
147.049700
21
1061.446707
0
LINE
8
Calque_1
10
147.049000
20
1061.450000
11
147.099101
21
1061.235555
0
LINE
8
Calque_1
10
147.100000
20
1061.240000
11
147.291719
21
1060.403362
0
LINE
8
Calque_1
10
147.291000
20
1060.400000
11
147.468771
21
1058.988710
0
LINE
8
Calque_1
10
147.469000
20
1058.990000
11
147.597159
21
1058.531107
0
LINE
8
Calque_1
10
147.597000
20
1058.530000
11
147.619701
21
1058.448403
0
LINE
8
Calque_1
10
147.620000
20
1058.450000
11
147.668099
21
1058.305300
0
LINE
8
Calque_1
10
147.668000
20
1058.300000
11
147.809081
21
1057.875741
0
LINE
8
Calque_1
10
147.014000
20
1062.010000
11
146.997993
21
1061.986717
0
LINE
8
Calque_1
10
147.810000
20
1057.880000
11
148.044283
21
1057.353612
0
LINE
8
Calque_1
10
148.044283
20
1057.353612
11
148.091119
21
1057.319825
0
LINE
8
Calque_1
10
148.091000
20
1057.320000
11
148.413458
21
1056.789802
0
LINE
8
Calque_1
10
148.414000
20
1056.790000
11
148.672164
21
1055.742501
0
LINE
8
Calque_1
10
148.672164
20
1055.742501
11
149.040321
21
1055.286720
0
LINE
8
Calque_1
10
149.040000
20
1055.280000
11
148.715989
21
1055.025762
0
LINE
8
Calque_1
10
148.716000
20
1055.030000
11
148.183730
21
1054.488954
0
LINE
8
Calque_1
10
148.184000
20
1054.490000
11
148.003142
21
1054.287938
0
LINE
8
Calque_1
10
148.003000
20
1054.290000
11
147.989004
21
1054.270950
0
LINE
8
Calque_1
10
147.989000
20
1054.270000
11
148.000404
21
1054.286404
0
LINE
8
Calque_1
10
148.000000
20
1054.280000
11
147.819650
21
1054.107915
0
LINE
8
Calque_1
10
147.820000
20
1054.110000
11
147.373521
21
1053.666612
0
LINE
8
Calque_1
10
147.373000
20
1053.670000
11
147.061390
21
1053.250398
0
LINE
8
Calque_1
10
147.062000
20
1053.250000
11
146.285301
21
1052.204080
0
LINE
8
Calque_1
10
146.285000
20
1052.200000
11
145.727410
21
1051.094630
0
LINE
8
Calque_1
10
145.728000
20
1051.100000
11
145.446881
21
1050.543450
0
LINE
8
Calque_1
10
147.809000
20
1057.880000
11
147.810058
21
1057.877354
0
LINE
8
Calque_1
10
145.447000
20
1050.540000
11
145.425807
21
1050.489385
0
LINE
8
Calque_1
10
145.426000
20
1050.490000
11
145.390300
21
1050.407794
0
LINE
8
Calque_1
10
145.391000
20
1050.400000
11
145.366711
21
1050.350920
0
LINE
8
Calque_1
10
145.366000
20
1050.360000
11
144.785161
21
1048.348750
0
LINE
8
Calque_1
10
144.785000
20
1048.340000
11
144.706998
21
1047.779296
0
LINE
8
Calque_1
10
144.707000
20
1047.780000
11
144.730812
21
1047.517507
0
LINE
8
Calque_1
10
144.731000
20
1047.520000
11
144.688098
21
1047.205808
0
LINE
8
Calque_1
10
144.688000
20
1047.210000
11
144.671490
21
1047.115888
0
LINE
8
Calque_1
10
144.672000
20
1047.110000
11
144.666049
21
1045.617925
0
LINE
8
Calque_1
10
144.666049
20
1045.617925
11
144.811530
21
1044.442470
0
LINE
8
Calque_1
10
144.811000
20
1044.450000
11
145.084370
21
1042.430490
0
LINE
8
Calque_1
10
145.085000
20
1042.430000
11
145.197141
21
1041.894114
0
LINE
8
Calque_1
10
145.197000
20
1041.890000
11
145.256399
21
1041.609912
0
LINE
8
Calque_1
10
145.256000
20
1041.610000
11
145.267906
21
1041.554199
0
LINE
8
Calque_1
10
145.268000
20
1041.550000
11
145.517602
21
1039.798170
0
LINE
8
Calque_1
10
145.518000
20
1039.800000
11
145.666817
21
1038.709650
0
LINE
8
Calque_1
10
145.667000
20
1038.710000
11
146.139773
21
1037.223925
0
LINE
8
Calque_1
10
146.139773
20
1037.223925
11
146.564619
21
1036.156140
0
LINE
8
Calque_1
10
146.564000
20
1036.160000
11
146.554936
21
1036.157781
0
LINE
8
Calque_1
10
146.554936
20
1036.157781
11
146.658602
21
1035.819984
0
LINE
8
Calque_1
10
146.659000
20
1035.820000
11
145.985141
21
1035.888686
0
LINE
8
Calque_1
10
145.985000
20
1035.890000
11
145.917299
21
1035.900319
0
LINE
8
Calque_1
10
145.917000
20
1035.900000
11
143.570890
21
1036.171833
0
LINE
8
Calque_1
10
143.571000
20
1036.170000
11
143.526000
21
1036.180319
0
LINE
8
Calque_1
10
143.526000
20
1036.180000
11
143.442302
21
1036.180000
0
LINE
8
Calque_1
10
143.442000
20
1036.180000
11
143.171220
21
1036.180000
0
LINE
8
Calque_1
10
143.172000
20
1036.180000
11
142.901210
21
1036.156717
0
LINE
8
Calque_1
10
142.901000
20
1036.160000
11
142.719620
21
1036.183283
0
LINE
8
Calque_1
10
142.719000
20
1036.180000
11
142.313849
21
1036.169681
0
LINE
8
Calque_1
10
142.314000
20
1036.170000
11
141.746081
21
1036.103299
0
LINE
8
Calque_1
10
141.746000
20
1036.100000
11
141.738010
21
1036.143894
0
LINE
8
Calque_1
10
141.738000
20
1036.150000
11
141.484781
21
1037.661030
0
LINE
8
Calque_1
10
141.485000
20
1037.660000
11
141.473597
21
1037.725590
0
LINE
8
Calque_1
10
141.474000
20
1037.720000
11
141.460586
21
1037.760296
0
LINE
8
Calque_1
10
141.460000
20
1037.760000
11
140.545842
21
1040.463720
0
LINE
8
Calque_1
10
140.546000
20
1040.470000
11
139.671640
21
1042.774760
0
LINE
8
Calque_1
10
139.672000
20
1042.770000
11
139.416722
21
1043.997820
0
LINE
8
Calque_1
10
139.417000
20
1044.000000
11
139.281600
21
1044.715723
0
LINE
8
Calque_1
10
139.281000
20
1044.720000
11
139.218000
21
1044.962358
0
LINE
8
Calque_1
10
139.218000
20
1044.960000
11
139.160599
21
1045.115019
0
LINE
8
Calque_1
10
139.161000
20
1045.110000
11
139.084501
21
1045.459329
0
LINE
8
Calque_1
10
139.084000
20
1045.460000
11
139.015798
21
1045.789194
0
LINE
8
Calque_1
10
139.016000
20
1045.790000
11
139.009994
21
1045.828788
0
LINE
8
Calque_1
10
139.010000
20
1045.830000
11
138.981600
21
1046.008805
0
LINE
8
Calque_1
10
138.982000
20
1046.010000
11
138.979010
21
1046.032754
0
LINE
8
Calque_1
10
138.979000
20
1046.030000
11
138.973999
21
1046.061009
0
LINE
8
Calque_1
10
138.974000
20
1046.060000
11
138.913000
21
1046.523020
0
LINE
8
Calque_1
10
138.913000
20
1046.530000
11
138.912471
21
1046.549050
0
LINE
8
Calque_1
10
138.912000
20
1046.540000
11
138.876898
21
1046.727060
0
LINE
8
Calque_1
10
138.877000
20
1046.730000
11
138.839802
21
1046.706187
0
LINE
8
Calque_1
10
138.840000
20
1046.710000
11
138.834999
21
1046.731167
0
LINE
8
Calque_1
10
138.835000
20
1046.730000
11
138.807100
21
1046.823504
0
LINE
8
Calque_1
10
138.807000
20
1046.820000
11
138.779600
21
1046.891279
0
LINE
8
Calque_1
10
138.780000
20
1046.890000
11
138.880758
21
1046.731885
0
LINE
8
Calque_1
10
138.880000
20
1046.740000
11
138.877010
21
1046.750054
0
LINE
8
Calque_1
10
145.446000
20
1050.540000
11
145.447058
21
1050.537354
0
LINE
8
Calque_1
10
138.880000
20
1046.750000
11
138.801501
21
1047.161850
0
LINE
8
Calque_1
10
138.802000
20
1047.160000
11
138.784908
21
1047.222997
0
LINE
8
Calque_1
10
138.785000
20
1047.220000
11
138.375732
21
1048.759450
0
LINE
8
Calque_1
10
138.375000
20
1048.760000
11
138.103178
21
1049.682945
0
LINE
8
Calque_1
10
138.104000
20
1049.680000
11
138.085400
21
1050.231894
0
LINE
8
Calque_1
10
138.085000
20
1050.230000
11
138.084471
21
1050.273894
0
LINE
8
Calque_1
10
138.084000
20
1050.280000
11
138.078999
21
1050.327016
0
LINE
8
Calque_1
10
138.079000
20
1050.330000
11
137.826821
21
1052.474550
0
LINE
8
Calque_1
10
137.827000
20
1052.470000
11
137.823005
21
1052.502597
0
LINE
8
Calque_1
10
137.823000
20
1052.500000
11
137.163612
21
1056.023820
0
LINE
8
Calque_1
10
137.164000
20
1056.030000
11
136.990881
21
1057.032000
0
LINE
8
Calque_1
10
136.991000
20
1057.030000
11
136.988883
21
1057.103395
0
LINE
8
Calque_1
10
136.989000
20
1057.100000
11
136.935800
21
1059.223380
0
LINE
8
Calque_1
10
136.936000
20
1059.230000
11
136.934942
21
1059.283790
0
LINE
8
Calque_1
10
136.935000
20
1059.280000
11
136.880200
21
1059.745084
0
LINE
8
Calque_1
10
136.880000
20
1059.740000
11
136.874999
21
1059.747937
0
LINE
8
Calque_1
10
136.875000
20
1059.750000
11
136.869999
21
1059.838900
0
LINE
8
Calque_1
10
136.870000
20
1059.840000
11
136.928901
21
1060.169697
0
LINE
8
Calque_1
10
136.929000
20
1060.170000
11
136.935006
21
1060.197887
0
LINE
8
Calque_1
10
136.935000
20
1060.200000
11
136.960294
21
1060.210848
0
LINE
8
Calque_1
10
136.960000
20
1060.210000
11
137.846247
21
1060.570203
0
LINE
8
Calque_1
10
137.846000
20
1060.570000
11
137.888900
21
1060.585875
0
LINE
8
Calque_1
10
137.889000
20
1060.590000
11
137.944300
21
1060.611696
0
LINE
8
Calque_1
10
137.944000
20
1060.610000
11
139.310850
21
1061.115380
0
LINE
8
Calque_1
10
139.311000
20
1061.110000
11
139.352799
21
1061.124552
0
LINE
8
Calque_1
10
139.353000
20
1061.130000
11
140.580320
21
1061.404928
0
LINE
8
Calque_1
10
140.580000
20
1061.400000
11
141.629030
21
1061.644422
0
LINE
8
Calque_1
10
141.629000
20
1061.650000
11
142.148350
21
1061.664023
0
LINE
8
Calque_1
10
142.149000
20
1061.660000
11
144.026920
21
1061.820179
0
LINE
8
Calque_1
10
144.027000
20
1061.820000
11
145.393330
21
1061.896517
0
LINE
8
Calque_1
10
145.393000
20
1061.900000
11
147.013570
21
1062.009537
0
LINE
8
Calque_1
10
138.877000
20
1046.750000
11
138.880000
21
1046.750000
0
LINE
8
Calque_1
10
14.233500
20
698.771000
11
16.997720
21
703.094266
0
LINE
8
Calque_1
10
16.997720
20
703.094266
11
20.132069
21
707.152912
0
LINE
8
Calque_1
10
20.132069
20
707.152912
11
23.600687
21
710.942291
0
LINE
8
Calque_1
10
23.600687
20
710.942291
11
27.367714
21
714.457750
0
LINE
8
Calque_1
10
27.367714
20
714.457750
11
31.397289
21
717.694641
0
LINE
8
Calque_1
10
31.397289
20
717.694641
11
35.653552
21
720.648312
0
LINE
8
Calque_1
10
35.653552
20
720.648312
11
40.100643
21
723.314116
0
LINE
8
Calque_1
10
40.100643
20
723.314116
11
44.702700
21
725.687400
0
LINE
8
Calque_1
10
147.014000
20
1062.010000
11
147.014000
21
1062.010000
0
LINE
8
Calque_1
10
44.703600
20
725.690000
11
50.389844
21
728.268981
0
LINE
8
Calque_1
10
50.389844
20
728.268981
11
56.149641
21
730.672721
0
LINE
8
Calque_1
10
56.149641
20
730.672721
11
61.977819
21
732.902247
0
LINE
8
Calque_1
10
61.977819
20
732.902247
11
67.869208
21
734.958589
0
LINE
8
Calque_1
10
67.869208
20
734.958589
11
73.818635
21
736.842774
0
LINE
8
Calque_1
10
73.818635
20
736.842774
11
79.820930
21
738.555829
0
LINE
8
Calque_1
10
79.820930
20
738.555829
11
85.870921
21
740.098782
0
LINE
8
Calque_1
10
85.870921
20
740.098782
11
91.963437
21
741.472663
0
LINE
8
Calque_1
10
91.963437
20
741.472663
11
98.093307
21
742.678497
0
LINE
8
Calque_1
10
98.093307
20
742.678497
11
104.255359
21
743.717313
0
LINE
8
Calque_1
10
104.255359
20
743.717313
11
110.444421
21
744.590140
0
LINE
8
Calque_1
10
110.444421
20
744.590140
11
116.655323
21
745.298005
0
LINE
8
Calque_1
10
116.655323
20
745.298005
11
122.882894
21
745.841935
0
LINE
8
Calque_1
10
122.882894
20
745.841935
11
129.121961
21
746.222959
0
LINE
8
Calque_1
10
129.121961
20
746.222959
11
135.367353
21
746.442105
0
LINE
8
Calque_1
10
135.367353
20
746.442105
11
141.613900
21
746.500400
0
LINE
8
Calque_1
10
44.702600
20
725.688000
11
44.702600
21
725.690000
0
LINE
8
Calque_1
10
141.615000
20
746.502000
11
149.906000
21
746.342946
0
LINE
8
Calque_1
10
149.906000
20
746.342946
11
158.194225
21
745.911342
0
LINE
8
Calque_1
10
158.194225
20
745.911342
11
166.474238
21
745.233254
0
LINE
8
Calque_1
10
166.474238
20
745.233254
11
174.740600
21
744.334750
0
LINE
8
Calque_1
10
141.614000
20
746.500000
11
141.615058
21
746.502646
0
LINE
8
Calque_1
10
174.751000
20
744.333000
11
185.931324
21
742.815017
0
LINE
8
Calque_1
10
185.931324
20
742.815017
11
197.053764
21
740.897312
0
LINE
8
Calque_1
10
197.053764
20
740.897312
11
208.093931
21
738.564655
0
LINE
8
Calque_1
10
208.093931
20
738.564655
11
219.027438
21
735.801814
0
LINE
8
Calque_1
10
219.027438
20
735.801814
11
229.829896
21
732.593558
0
LINE
8
Calque_1
10
229.829896
20
732.593558
11
240.476917
21
728.924658
0
LINE
8
Calque_1
10
240.476917
20
728.924658
11
250.944115
21
724.779882
0
LINE
8
Calque_1
10
250.944115
20
724.779882
11
261.207100
21
720.144000
0
LINE
8
Calque_1
10
174.740000
20
744.335000
11
174.750186
21
744.332354
0
LINE
8
Calque_1
10
261.207000
20
720.144000
11
268.645977
21
716.379015
0
LINE
8
Calque_1
10
268.645977
20
716.379015
11
275.847400
21
712.299990
0
LINE
8
Calque_1
10
275.847000
20
712.300000
11
281.330487
21
708.688694
0
LINE
8
Calque_1
10
281.330487
20
708.688694
11
286.596134
21
704.762162
0
LINE
8
Calque_1
10
286.596134
20
704.762162
11
291.628433
21
700.536819
0
LINE
8
Calque_1
10
291.628433
20
700.536819
11
296.411875
21
696.029077
0
LINE
8
Calque_1
10
296.411875
20
696.029077
11
300.930951
21
691.255351
0
LINE
8
Calque_1
10
300.930951
20
691.255351
11
305.170153
21
686.232054
0
LINE
8
Calque_1
10
305.170153
20
686.232054
11
309.113972
21
680.975599
0
LINE
8
Calque_1
10
309.113972
20
680.975599
11
312.746900
21
675.502400
0
LINE
8
Calque_1
10
316.081000
20
669.742000
11
319.402329
21
663.180916
0
LINE
8
Calque_1
10
319.402329
20
663.180916
11
320.892351
21
659.838927
0
LINE
8
Calque_1
10
320.892351
20
659.838927
11
322.244880
21
656.448600
0
LINE
8
Calque_1
10
322.245000
20
656.449000
11
322.259817
21
656.410609
0
LINE
8
Calque_1
10
322.260000
20
656.410000
11
322.778345
21
654.831390
0
LINE
8
Calque_1
10
322.778000
20
654.832000
11
320.204296
21
654.633703
0
LINE
8
Calque_1
10
320.204296
20
654.633703
11
317.626221
21
654.598013
0
LINE
8
Calque_1
10
317.626221
20
654.598013
11
315.054035
21
654.731307
0
LINE
8
Calque_1
10
315.054035
20
654.731307
11
312.498000
21
655.039962
0
LINE
8
Calque_1
10
312.498000
20
655.040000
11
307.603684
21
656.168779
0
LINE
8
Calque_1
10
307.603684
20
656.168779
11
302.698053
21
657.624169
0
LINE
8
Calque_1
10
302.698053
20
657.624169
11
297.728120
21
659.210447
0
LINE
8
Calque_1
10
297.728120
20
659.210447
11
292.640900
21
660.731890
0
LINE
8
Calque_1
10
312.747000
20
675.502000
11
316.081270
21
669.741900
0
LINE
8
Calque_1
10
292.815000
20
660.676000
11
291.423934
21
661.100513
0
LINE
8
Calque_1
10
291.423934
20
661.100513
11
289.951298
21
661.377783
0
LINE
8
Calque_1
10
289.951298
20
661.377783
11
288.414045
21
661.462694
0
LINE
8
Calque_1
10
288.414045
20
661.462694
11
286.829130
21
661.310126
0
LINE
8
Calque_1
10
286.829000
20
661.310000
11
286.773199
21
661.299417
0
LINE
8
Calque_1
10
286.773000
20
661.300000
11
284.490893
21
660.596629
0
LINE
8
Calque_1
10
284.490893
20
660.596629
11
283.348627
21
659.984251
0
LINE
8
Calque_1
10
283.348627
20
659.984251
11
282.265620
21
659.138220
0
LINE
8
Calque_1
10
282.266000
20
659.138000
11
281.532338
21
658.173013
0
LINE
8
Calque_1
10
281.532000
20
658.173000
11
281.187143
21
657.176898
0
LINE
8
Calque_1
10
281.187000
20
657.177000
11
281.102605
21
656.336563
0
LINE
8
Calque_1
10
281.102605
20
656.336563
11
281.150805
21
655.632150
0
LINE
8
Calque_1
10
281.151000
20
655.632000
11
281.344172
21
654.954773
0
LINE
8
Calque_1
10
281.344000
20
654.955000
11
282.092695
21
653.506934
0
LINE
8
Calque_1
10
282.092695
20
653.506934
11
282.968676
21
652.158798
0
LINE
8
Calque_1
10
282.968676
20
652.158798
11
285.019300
21
649.758850
0
LINE
8
Calque_1
10
285.019000
20
649.759000
11
287.200011
21
647.825705
0
LINE
8
Calque_1
10
287.200011
20
647.825705
11
289.563233
21
646.237444
0
LINE
8
Calque_1
10
289.563233
20
646.237444
11
292.035605
21
644.935035
0
LINE
8
Calque_1
10
292.035605
20
644.935035
11
294.544070
21
643.859300
0
LINE
8
Calque_1
10
294.544000
20
643.859000
11
294.599404
21
643.838892
0
LINE
8
Calque_1
10
294.600000
20
643.839000
11
303.385405
21
640.761135
0
LINE
8
Calque_1
10
303.385405
20
640.761135
11
307.869077
21
639.369052
0
LINE
8
Calque_1
10
307.869077
20
639.369052
11
312.431000
21
638.146680
0
LINE
8
Calque_1
10
312.431000
20
638.147000
11
312.482991
21
638.135094
0
LINE
8
Calque_1
10
312.483000
20
638.135000
11
318.114490
21
637.196109
0
LINE
8
Calque_1
10
318.114490
20
637.196109
11
323.797400
21
636.758770
0
LINE
8
Calque_1
10
323.797000
20
636.758000
11
322.853796
21
633.568481
0
LINE
8
Calque_1
10
322.853796
20
633.568481
11
321.616806
21
630.465494
0
LINE
8
Calque_1
10
321.616806
20
630.465494
11
320.106346
21
627.467985
0
LINE
8
Calque_1
10
320.106346
20
627.467985
11
318.342730
21
624.594900
0
LINE
8
Calque_1
10
318.343000
20
624.595000
11
314.039368
21
624.317724
0
LINE
8
Calque_1
10
314.039368
20
624.317724
11
309.673170
21
624.292820
0
LINE
8
Calque_1
10
309.673000
20
624.293000
11
309.622491
21
624.293000
0
LINE
8
Calque_1
10
309.623000
20
624.294000
11
305.792499
21
624.448093
0
LINE
8
Calque_1
10
305.792499
20
624.448093
11
302.123840
21
625.030255
0
LINE
8
Calque_1
10
302.123000
20
625.030000
11
302.081011
21
625.038996
0
LINE
8
Calque_1
10
302.082000
20
625.039000
11
299.633990
21
625.728090
0
LINE
8
Calque_1
10
299.633990
20
625.728090
11
297.075781
21
626.619948
0
LINE
8
Calque_1
10
297.075781
20
626.619948
11
294.355507
21
627.531650
0
LINE
8
Calque_1
10
294.355507
20
627.531650
11
291.421300
21
628.280270
0
LINE
8
Calque_1
10
291.421000
20
628.280000
11
289.720897
21
628.560483
0
LINE
8
Calque_1
10
289.720897
20
628.560483
11
287.995296
21
628.402032
0
LINE
8
Calque_1
10
287.995296
20
628.402032
11
286.355520
21
627.764860
0
LINE
8
Calque_1
10
286.355520
20
627.764860
11
284.912890
21
626.609180
0
LINE
8
Calque_1
10
284.913000
20
626.609000
11
284.318522
21
625.874083
0
LINE
8
Calque_1
10
284.318522
20
625.874083
11
283.890696
21
625.083301
0
LINE
8
Calque_1
10
283.890696
20
625.083301
11
283.621284
21
624.254167
0
LINE
8
Calque_1
10
283.621284
20
624.254167
11
283.502048
21
623.404191
0
LINE
8
Calque_1
10
283.502048
20
623.404191
11
283.681154
21
621.711755
0
LINE
8
Calque_1
10
283.681154
20
621.711755
11
284.362112
21
620.146080
0
LINE
8
Calque_1
10
284.362000
20
620.146000
11
284.453519
21
620.010851
0
LINE
8
Calque_1
10
284.453000
20
620.011000
11
285.566270
21
618.712905
0
LINE
8
Calque_1
10
285.566270
20
618.712905
11
286.755834
21
617.668706
0
LINE
8
Calque_1
10
286.755834
20
617.668706
11
289.044200
21
616.065410
0
LINE
8
Calque_1
10
289.044000
20
616.066000
11
289.108188
21
616.023191
0
LINE
8
Calque_1
10
289.109000
20
616.023000
11
295.258226
21
612.060970
0
LINE
8
Calque_1
10
295.258226
20
612.060970
11
298.466999
21
610.136075
0
LINE
8
Calque_1
10
298.466999
20
610.136075
11
301.824400
21
608.356550
0
LINE
8
Calque_1
10
301.824000
20
608.356000
11
301.888505
21
608.325705
0
LINE
8
Calque_1
10
301.889000
20
608.326000
11
302.190783
21
608.207890
0
LINE
8
Calque_1
10
302.190000
20
608.208000
11
297.665501
21
605.064590
0
LINE
8
Calque_1
10
297.665501
20
605.064590
11
292.954154
21
602.190224
0
LINE
8
Calque_1
10
292.954154
20
602.190224
11
288.080280
21
599.592470
0
LINE
8
Calque_1
10
288.080280
20
599.592470
11
283.068200
21
597.278900
0
LINE
8
Calque_1
10
283.069000
20
597.279000
11
279.290346
21
595.765981
0
LINE
8
Calque_1
10
279.290346
20
595.765981
11
275.446870
21
594.361630
0
LINE
8
Calque_1
10
275.446000
20
594.362000
11
272.134160
21
598.301720
0
LINE
8
Calque_1
10
272.135000
20
598.301000
11
269.410341
21
601.277423
0
LINE
8
Calque_1
10
269.410341
20
601.277423
11
266.468850
21
604.076710
0
LINE
8
Calque_1
10
266.468000
20
604.077000
11
264.863233
21
605.496008
0
LINE
8
Calque_1
10
264.863233
20
605.496008
11
263.052265
21
606.927083
0
LINE
8
Calque_1
10
263.052265
20
606.927083
11
260.934997
21
608.154768
0
LINE
8
Calque_1
10
260.934997
20
608.154768
11
259.730219
21
608.625010
0
LINE
8
Calque_1
10
259.730219
20
608.625010
11
258.411330
21
608.963610
0
LINE
8
Calque_1
10
258.412000
20
608.964000
11
257.853503
21
609.069499
0
LINE
8
Calque_1
10
257.853503
20
609.069499
11
256.939220
21
609.092905
0
LINE
8
Calque_1
10
256.939000
20
609.093000
11
255.701353
21
608.728769
0
LINE
8
Calque_1
10
255.701353
20
608.728769
11
254.575960
21
607.890870
0
LINE
8
Calque_1
10
254.576000
20
607.890000
11
253.971843
21
606.973220
0
LINE
8
Calque_1
10
253.971843
20
606.973220
11
253.919960
21
606.782453
0
LINE
8
Calque_1
10
253.919960
20
606.782453
11
253.968412
21
606.817650
0
LINE
8
Calque_1
10
253.968000
20
606.818000
11
253.714919
21
606.397194
0
LINE
8
Calque_1
10
253.714919
20
606.397194
11
253.298330
21
605.450290
0
LINE
8
Calque_1
10
253.299000
20
605.450000
11
253.113432
21
604.645985
0
LINE
8
Calque_1
10
253.113000
20
604.646000
11
252.976578
21
603.826719
0
LINE
8
Calque_1
10
252.977000
20
603.827000
11
252.784942
21
602.513530
0
LINE
8
Calque_1
10
252.785000
20
602.514000
11
252.533275
21
600.767902
0
LINE
8
Calque_1
10
252.533275
20
600.767902
11
252.410369
21
598.486540
0
LINE
8
Calque_1
10
252.410000
20
598.486000
11
252.613548
21
597.104340
0
LINE
8
Calque_1
10
252.613548
20
597.104340
11
253.012148
21
595.941005
0
LINE
8
Calque_1
10
253.012148
20
595.941005
11
253.914250
21
594.186450
0
LINE
8
Calque_1
10
253.914000
20
594.187000
11
255.078656
21
591.641758
0
LINE
8
Calque_1
10
255.078656
20
591.641758
11
256.439410
21
588.778740
0
LINE
8
Calque_1
10
256.440000
20
588.778000
11
252.494730
21
587.865797
0
LINE
8
Calque_1
10
252.494000
20
587.866000
11
250.372740
21
587.471269
0
LINE
8
Calque_1
10
250.373000
20
587.471000
11
248.682394
21
589.764392
0
LINE
8
Calque_1
10
248.682394
20
589.764392
11
247.662393
21
590.839475
0
LINE
8
Calque_1
10
247.662393
20
590.839475
11
246.482350
21
591.837360
0
LINE
8
Calque_1
10
246.483000
20
591.838000
11
244.666340
21
592.957850
0
LINE
8
Calque_1
10
244.666000
20
592.958000
11
244.215735
21
593.272480
0
LINE
8
Calque_1
10
244.215735
20
593.272480
11
243.177840
21
593.768233
0
LINE
8
Calque_1
10
243.178000
20
593.768000
11
241.814239
21
594.106216
0
LINE
8
Calque_1
10
241.814239
20
594.106216
11
240.517821
21
594.199538
0
LINE
8
Calque_1
10
240.517821
20
594.199538
11
238.220470
21
593.969506
0
LINE
8
Calque_1
10
238.220000
20
593.969000
11
237.020495
21
593.782810
0
LINE
8
Calque_1
10
237.020495
20
593.782810
11
236.186599
21
593.546704
0
LINE
8
Calque_1
10
236.186599
20
593.546704
11
235.218740
21
593.115667
0
LINE
8
Calque_1
10
235.219000
20
593.116000
11
234.427662
21
592.579237
0
LINE
8
Calque_1
10
234.427662
20
592.579237
11
233.870788
21
591.993797
0
LINE
8
Calque_1
10
233.870788
20
591.993797
11
233.169420
21
590.806190
0
LINE
8
Calque_1
10
233.169000
20
590.806000
11
232.402723
21
588.792360
0
LINE
8
Calque_1
10
292.641000
20
660.732000
11
292.814381
21
660.676702
0
LINE
8
Calque_1
10
232.608000
20
589.304000
11
232.381961
21
588.711890
0
LINE
8
Calque_1
10
232.382000
20
588.712000
11
232.373004
21
588.674694
0
LINE
8
Calque_1
10
232.373000
20
588.675000
11
232.370883
21
588.651717
0
LINE
8
Calque_1
10
232.371000
20
588.651000
11
232.371794
21
588.632479
0
LINE
8
Calque_1
10
232.372000
20
588.633000
11
232.369010
21
588.608394
0
LINE
8
Calque_1
10
232.369000
20
588.608000
11
232.354607
21
588.536986
0
LINE
8
Calque_1
10
232.355000
20
588.537000
11
232.306999
21
588.293848
0
LINE
8
Calque_1
10
232.307000
20
588.294000
11
232.162292
21
587.545124
0
LINE
8
Calque_1
10
232.162000
20
587.545000
11
232.014159
21
586.728735
0
LINE
8
Calque_1
10
232.014000
20
586.729000
11
231.958199
21
586.370966
0
LINE
8
Calque_1
10
231.958000
20
586.371000
11
231.924300
21
585.775238
0
LINE
8
Calque_1
10
231.925000
20
585.775000
11
232.087930
21
584.832423
0
LINE
8
Calque_1
10
232.088000
20
584.833000
11
223.259200
21
583.925639
0
LINE
8
Calque_1
10
232.403000
20
588.793000
11
232.608298
21
589.304598
0
LINE
8
Calque_1
10
223.248000
20
583.926000
11
212.197816
21
583.033308
0
LINE
8
Calque_1
10
212.197816
20
583.033308
11
201.168400
21
582.279260
0
LINE
8
Calque_1
10
201.168000
20
582.279000
11
191.510916
21
581.960221
0
LINE
8
Calque_1
10
191.510916
20
581.960221
11
181.850775
21
582.017685
0
LINE
8
Calque_1
10
181.850775
20
582.017685
11
172.203047
21
582.459581
0
LINE
8
Calque_1
10
172.203047
20
582.459581
11
162.583200
21
583.294100
0
LINE
8
Calque_1
10
162.583000
20
583.294000
11
162.545199
21
583.299027
0
LINE
8
Calque_1
10
162.546000
20
583.299000
11
152.126061
21
584.410692
0
LINE
8
Calque_1
10
152.126061
20
584.410692
11
141.777662
21
585.905946
0
LINE
8
Calque_1
10
141.777662
20
585.905946
11
131.544108
21
587.891395
0
LINE
8
Calque_1
10
131.544108
20
587.891395
11
126.483929
21
589.101265
0
LINE
8
Calque_1
10
126.483929
20
589.101265
11
121.468700
21
590.473670
0
LINE
8
Calque_1
10
121.468000
20
590.474000
11
121.431501
21
590.484848
0
LINE
8
Calque_1
10
121.432000
20
590.485000
11
111.379480
21
593.368796
0
LINE
8
Calque_1
10
111.379480
20
593.368796
11
101.407763
21
596.494435
0
LINE
8
Calque_1
10
101.407763
20
596.494435
11
91.536714
21
599.894807
0
LINE
8
Calque_1
10
91.536714
20
599.894807
11
81.786200
21
603.602800
0
LINE
8
Calque_1
10
81.786000
20
603.602000
11
81.777004
21
603.607027
0
LINE
8
Calque_1
10
81.777000
20
603.607000
11
75.898326
21
606.128992
0
LINE
8
Calque_1
10
75.898326
20
606.128992
11
70.106791
21
608.844625
0
LINE
8
Calque_1
10
70.106791
20
608.844625
11
64.415835
21
611.758258
0
LINE
8
Calque_1
10
64.415835
20
611.758258
11
58.838900
21
614.874250
0
LINE
8
Calque_1
10
58.838900
20
614.874250
11
53.389428
21
618.196961
0
LINE
8
Calque_1
10
53.389428
20
618.196961
11
48.080859
21
621.730750
0
LINE
8
Calque_1
10
48.080859
20
621.730750
11
42.926636
21
625.479977
0
LINE
8
Calque_1
10
42.926636
20
625.479977
11
37.940200
21
629.449000
0
LINE
8
Calque_1
10
37.940200
20
629.449000
11
37.907312
21
629.476093
0
LINE
8
Calque_1
10
37.907400
20
629.477000
11
30.987738
21
635.307864
0
LINE
8
Calque_1
10
30.987738
20
635.307864
11
27.670571
21
638.363908
0
LINE
8
Calque_1
10
27.670571
20
638.363908
11
24.484045
21
641.530176
0
LINE
8
Calque_1
10
24.484045
20
641.530176
11
21.454807
21
644.819028
0
LINE
8
Calque_1
10
21.454807
20
644.819028
11
18.609504
21
648.242825
0
LINE
8
Calque_1
10
18.609504
20
648.242825
11
15.974786
21
651.813929
0
LINE
8
Calque_1
10
15.974786
20
651.813929
11
13.577300
21
655.544700
0
LINE
8
Calque_1
10
13.577200
20
655.544000
11
12.271757
21
658.035573
0
LINE
8
Calque_1
10
12.271757
20
658.035573
11
11.154909
21
660.612214
0
LINE
8
Calque_1
10
11.154909
20
660.612214
11
10.224711
21
663.261691
0
LINE
8
Calque_1
10
10.224711
20
663.261691
11
9.479213
21
665.971773
0
LINE
8
Calque_1
10
9.479213
20
665.971773
11
8.916470
21
668.730230
0
LINE
8
Calque_1
10
8.916470
20
668.730230
11
8.534532
21
671.524831
0
LINE
8
Calque_1
10
8.534532
20
671.524831
11
8.331454
21
674.343343
0
LINE
8
Calque_1
10
8.331454
20
674.343343
11
8.305287
21
677.173538
0
LINE
8
Calque_1
10
8.305287
20
677.173538
11
8.454084
21
680.003182
0
LINE
8
Calque_1
10
8.454084
20
680.003182
11
8.775897
21
682.820046
0
LINE
8
Calque_1
10
8.775897
20
682.820046
11
9.268779
21
685.611898
0
LINE
8
Calque_1
10
9.268779
20
685.611898
11
9.930783
21
688.366508
0
LINE
8
Calque_1
10
9.930783
20
688.366508
11
10.759961
21
691.071644
0
LINE
8
Calque_1
10
10.759961
20
691.071644
11
11.754365
21
693.715075
0
LINE
8
Calque_1
10
11.754365
20
693.715075
11
12.912049
21
696.284571
0
LINE
8
Calque_1
10
12.912049
20
696.284571
11
14.231064
21
698.767900
0
LINE
8
Calque_1
10
223.259000
20
583.925000
11
223.248000
21
583.925000
0
LINE
8
Calque_1
10
14.231100
20
698.768000
11
14.233746
21
698.770910
0
LINE
8
Calque_1
10
14.233746
20
698.770910
11
14.233700
21
698.771000
0
LINE
8
Calque_1
10
83.596400
20
708.093000
11
83.168202
21
707.193338
0
LINE
8
Calque_1
10
83.168200
20
707.193000
11
83.118699
21
706.478679
0
LINE
8
Calque_1
10
83.118700
20
706.479000
11
83.413299
21
705.509807
0
LINE
8
Calque_1
10
83.413299
20
705.509807
11
83.813834
21
704.944288
0
LINE
8
Calque_1
10
83.813834
20
704.944288
11
84.442090
21
704.473780
0
LINE
8
Calque_1
10
84.442100
20
704.473000
11
85.145566
21
704.225551
0
LINE
8
Calque_1
10
85.145566
20
704.225551
11
85.734555
21
704.193144
0
LINE
8
Calque_1
10
85.734555
20
704.193144
11
86.521840
21
704.404182
0
LINE
8
Calque_1
10
86.521800
20
704.405000
11
87.156061
21
704.772770
0
LINE
8
Calque_1
10
87.156100
20
704.772000
11
87.797450
21
705.336359
0
LINE
8
Calque_1
10
87.797450
20
705.336359
11
88.117036
21
705.740003
0
LINE
8
Calque_1
10
88.117000
20
705.740000
11
88.611709
21
706.344678
0
LINE
8
Calque_1
10
88.611700
20
706.345000
11
90.172820
21
708.192110
0
LINE
8
Calque_1
10
90.172800
20
708.192000
11
91.565380
21
709.448430
0
LINE
8
Calque_1
10
91.565400
20
709.449000
11
93.540330
21
711.626470
0
LINE
8
Calque_1
10
93.540300
20
711.626000
11
93.482143
21
711.548086
0
LINE
8
Calque_1
10
93.482143
20
711.548086
11
93.725219
21
711.737868
0
LINE
8
Calque_1
10
93.725219
20
711.737868
11
94.698505
21
712.564504
0
LINE
8
Calque_1
10
94.698505
20
712.564504
11
95.627023
21
713.393883
0
LINE
8
Calque_1
10
95.627023
20
713.393883
11
95.814140
21
713.587093
0
LINE
8
Calque_1
10
95.814140
20
713.587093
11
95.677640
21
713.513980
0
LINE
8
Calque_1
10
95.677700
20
713.514000
11
98.413970
21
715.189138
0
LINE
8
Calque_1
10
98.413970
20
715.189138
11
101.409260
21
716.677960
0
LINE
8
Calque_1
10
101.409000
20
716.678000
11
106.683560
21
718.835440
0
LINE
8
Calque_1
10
106.684000
20
718.835000
11
111.786805
21
720.833363
0
LINE
8
Calque_1
10
111.786805
20
720.833363
11
116.903200
21
722.582530
0
LINE
8
Calque_1
10
116.903000
20
722.583000
11
118.800370
21
723.086131
0
LINE
8
Calque_1
10
118.800000
20
723.086000
11
123.543005
21
724.303811
0
LINE
8
Calque_1
10
123.543005
20
724.303811
11
128.253580
21
725.325480
0
LINE
8
Calque_1
10
128.254000
20
725.326000
11
134.883390
21
726.291278
0
LINE
8
Calque_1
10
134.883000
20
726.291000
11
139.829958
21
726.841988
0
LINE
8
Calque_1
10
139.829958
20
726.841988
11
145.041800
21
727.150683
0
LINE
8
Calque_1
10
145.042000
20
727.151000
11
147.545754
21
727.241415
0
LINE
8
Calque_1
10
147.545754
20
727.241415
11
149.895990
21
727.208600
0
LINE
8
Calque_1
10
149.896000
20
727.208000
11
157.108309
21
726.623070
0
LINE
8
Calque_1
10
157.108309
20
726.623070
11
164.404700
21
725.939380
0
LINE
8
Calque_1
10
164.405000
20
725.939000
11
165.352049
21
726.045556
0
LINE
8
Calque_1
10
165.352049
20
726.045556
11
166.156796
21
726.491512
0
LINE
8
Calque_1
10
166.156796
20
726.491512
11
166.735608
21
727.206681
0
LINE
8
Calque_1
10
166.735608
20
727.206681
11
167.004850
21
728.120880
0
LINE
8
Calque_1
10
167.005000
20
728.121000
11
166.898462
21
729.068019
0
LINE
8
Calque_1
10
166.898462
20
729.068019
11
166.452532
21
729.872751
0
LINE
8
Calque_1
10
166.452532
20
729.872751
11
165.737390
21
730.451563
0
LINE
8
Calque_1
10
165.737390
20
730.451563
11
164.823220
21
730.720820
0
LINE
8
Calque_1
10
164.823000
20
730.721000
11
157.556916
21
731.402871
0
LINE
8
Calque_1
10
157.556916
20
731.402871
11
150.193100
21
731.998780
0
LINE
8
Calque_1
10
150.193000
20
731.999000
11
147.443964
21
732.042547
0
LINE
8
Calque_1
10
147.443964
20
732.042547
11
144.845700
21
731.947009
0
LINE
8
Calque_1
10
144.846000
20
731.947000
11
139.418579
21
731.622109
0
LINE
8
Calque_1
10
139.418579
20
731.622109
11
134.284700
21
731.053556
0
LINE
8
Calque_1
10
134.284000
20
731.054000
11
127.376500
21
730.045250
0
LINE
8
Calque_1
10
127.377000
20
730.045000
11
122.413424
21
728.969784
0
LINE
8
Calque_1
10
122.413424
20
728.969784
11
117.568850
21
727.725560
0
LINE
8
Calque_1
10
117.569000
20
727.725000
11
115.497920
21
727.172392
0
LINE
8
Calque_1
10
115.498000
20
727.173000
11
110.111970
21
725.333195
0
LINE
8
Calque_1
10
110.111970
20
725.333195
11
104.881400
21
723.284950
0
LINE
8
Calque_1
10
104.881000
20
723.285000
11
99.395120
21
721.035360
0
LINE
8
Calque_1
10
99.395100
20
721.035000
11
96.128887
21
719.414651
0
LINE
8
Calque_1
10
96.128887
20
719.414651
11
92.902320
21
717.430980
0
LINE
8
Calque_1
10
92.902300
20
717.431000
11
91.339912
21
716.196672
0
LINE
8
Calque_1
10
91.339912
20
716.196672
11
90.160100
21
715.034750
0
LINE
8
Calque_1
10
90.160100
20
715.035000
11
88.206750
21
712.878490
0
LINE
8
Calque_1
10
88.206800
20
712.878000
11
86.773920
21
711.581600
0
LINE
8
Calque_1
10
86.773900
20
711.582000
11
85.696981
21
710.398246
0
LINE
8
Calque_1
10
85.696981
20
710.398246
11
84.874850
21
709.358340
0
LINE
8
Calque_1
10
84.874900
20
709.358000
11
84.451591
21
708.839814
0
LINE
8
Calque_1
10
84.451600
20
708.840000
11
84.352699
21
708.740808
0
LINE
8
Calque_1
10
84.352700
20
708.741000
11
83.596561
21
708.092719
0
LINE
8
Calque_1
10
83.596500
20
708.093000
11
83.596370
21
708.093053
0
LINE
8
Calque_1
10
107.324000
20
694.186000
11
107.096469
21
693.749914
0
LINE
8
Calque_1
10
107.097000
20
693.749000
11
106.939631
21
693.116647
0
LINE
8
Calque_1
10
106.940000
20
693.117000
11
106.955610
21
692.482662
0
LINE
8
Calque_1
10
106.955000
20
692.483000
11
107.065770
21
692.049666
0
LINE
8
Calque_1
10
107.301000
20
691.569000
11
107.958950
21
690.853991
0
LINE
8
Calque_1
10
107.958950
20
690.853991
11
108.437660
21
690.625153
0
LINE
8
Calque_1
10
108.438000
20
690.626000
11
108.900740
21
690.490110
0
LINE
8
Calque_1
10
108.900000
20
690.490000
11
109.275539
21
690.445100
0
LINE
8
Calque_1
10
109.276000
20
690.445000
11
109.625390
21
690.441031
0
LINE
8
Calque_1
10
109.625000
20
690.441000
11
109.998668
21
690.455552
0
LINE
8
Calque_1
10
109.999000
20
690.455000
11
111.100051
21
690.875366
0
LINE
8
Calque_1
10
111.100051
20
690.875366
11
111.868230
21
691.769180
0
LINE
8
Calque_1
10
111.868000
20
691.770000
11
112.037029
21
691.896788
0
LINE
8
Calque_1
10
112.037000
20
691.896000
11
112.307290
21
692.098565
0
LINE
8
Calque_1
10
112.307000
20
692.099000
11
113.631270
21
693.135870
0
LINE
8
Calque_1
10
113.632000
20
693.136000
11
116.442460
21
695.559660
0
LINE
8
Calque_1
10
116.442000
20
695.559000
11
118.332399
21
697.477625
0
LINE
8
Calque_1
10
118.332399
20
697.477625
11
120.046960
21
699.001990
0
LINE
8
Calque_1
10
120.047000
20
699.002000
11
121.388171
21
699.850130
0
LINE
8
Calque_1
10
121.388171
20
699.850130
11
123.091330
21
700.497580
0
LINE
8
Calque_1
10
123.091000
20
700.498000
11
123.140460
21
700.507792
0
LINE
8
Calque_1
10
123.140460
20
700.507792
11
123.563963
21
700.641019
0
LINE
8
Calque_1
10
123.563963
20
700.641019
11
125.055243
21
701.121754
0
LINE
8
Calque_1
10
125.055243
20
701.121754
11
127.269940
21
701.848140
0
LINE
8
Calque_1
10
127.270000
20
701.848000
11
129.954900
21
702.449000
0
LINE
8
Calque_1
10
129.955000
20
702.449000
11
136.994950
21
704.498350
0
LINE
8
Calque_1
10
136.995000
20
704.499000
11
141.043828
21
705.345611
0
LINE
8
Calque_1
10
141.043828
20
705.345611
11
145.245220
21
705.884220
0
LINE
8
Calque_1
10
145.245000
20
705.884000
11
148.276910
21
706.020512
0
LINE
8
Calque_1
10
148.276910
20
706.020512
11
151.523800
21
706.011608
0
LINE
8
Calque_1
10
151.524000
20
706.011000
11
160.849780
21
705.994067
0
LINE
8
Calque_1
10
160.850000
20
705.994000
11
164.608384
21
705.801578
0
LINE
8
Calque_1
10
164.608384
20
705.801578
11
168.531164
21
705.459806
0
LINE
8
Calque_1
10
168.531164
20
705.459806
11
176.195700
21
704.652720
0
LINE
8
Calque_1
10
176.196000
20
704.653000
11
177.128275
21
704.742436
0
LINE
8
Calque_1
10
177.128275
20
704.742436
11
177.955340
21
705.181875
0
LINE
8
Calque_1
10
177.955000
20
705.182000
11
178.550902
21
705.904526
0
LINE
8
Calque_1
10
178.550902
20
705.904526
11
178.824899
21
706.800110
0
LINE
8
Calque_1
10
178.825000
20
706.800000
11
178.735402
21
707.732179
0
LINE
8
Calque_1
10
178.735402
20
707.732179
11
178.295882
21
708.559110
0
LINE
8
Calque_1
10
178.296000
20
708.559000
11
177.573473
21
709.154762
0
LINE
8
Calque_1
10
177.573473
20
709.154762
11
176.677950
21
709.428658
0
LINE
8
Calque_1
10
176.678000
20
709.429000
11
169.018115
21
710.239727
0
LINE
8
Calque_1
10
169.018115
20
710.239727
11
164.963127
21
710.591425
0
LINE
8
Calque_1
10
164.963127
20
710.591425
11
160.970600
21
710.793000
0
LINE
8
Calque_1
10
160.970000
20
710.793000
11
151.521240
21
710.811521
0
LINE
8
Calque_1
10
151.522000
20
710.812000
11
148.245585
21
710.826135
0
LINE
8
Calque_1
10
148.245585
20
710.826135
11
144.763100
21
710.660209
0
LINE
8
Calque_1
10
144.763000
20
710.660000
11
140.278147
21
710.085325
0
LINE
8
Calque_1
10
140.278147
20
710.085325
11
135.760880
21
709.137270
0
LINE
8
Calque_1
10
135.761000
20
709.137000
11
128.772400
21
707.100950
0
LINE
8
Calque_1
10
128.772000
20
707.101000
11
126.056100
21
706.491665
0
LINE
8
Calque_1
10
126.056000
20
706.492000
11
121.441780
21
705.005920
0
LINE
8
Calque_1
10
121.442000
20
705.006000
11
119.261354
21
704.122411
0
LINE
8
Calque_1
10
119.261354
20
704.122411
11
117.225630
21
702.886240
0
LINE
8
Calque_1
10
117.225000
20
702.886000
11
114.931029
21
700.887287
0
LINE
8
Calque_1
10
114.931029
20
700.887287
11
113.089150
21
698.994700
0
LINE
8
Calque_1
10
113.090000
20
698.995000
11
110.668770
21
696.911700
0
LINE
8
Calque_1
10
110.668000
20
696.911000
11
109.433930
21
695.945537
0
LINE
8
Calque_1
10
109.434000
20
695.946000
11
109.332509
21
695.894195
0
LINE
8
Calque_1
10
109.333000
20
695.894000
11
109.317892
21
695.887915
0
LINE
8
Calque_1
10
109.318000
20
695.888000
11
109.399500
21
695.923190
0
LINE
8
Calque_1
10
109.399000
20
695.923000
11
109.367401
21
695.898394
0
LINE
8
Calque_1
10
109.368000
20
695.898000
11
109.269199
21
695.820795
0
LINE
8
Calque_1
10
109.269000
20
695.821000
11
109.272995
21
695.854787
0
LINE
8
Calque_1
10
109.273000
20
695.855000
11
108.363692
21
695.216429
0
LINE
8
Calque_1
10
108.364000
20
695.216000
11
107.780290
21
694.727791
0
LINE
8
Calque_1
10
107.780000
20
694.728000
11
107.528260
21
694.463973
0
LINE
8
Calque_1
10
107.528000
20
694.464000
11
107.320062
21
694.187855
0
LINE
8
Calque_1
10
107.066000
20
692.049000
11
107.300910
21
691.569046
0
LINE
8
Calque_1
10
107.320000
20
694.188000
11
107.324339
21
694.185354
0
LINE
8
Calque_1
10
117.493000
20
680.679000
11
117.086849
21
679.929542
0
LINE
8
Calque_1
10
117.087000
20
679.930000
11
116.508862
21
678.732630
0
LINE
8
Calque_1
10
116.509000
20
678.732000
11
116.232071
21
677.837348
0
LINE
8
Calque_1
10
116.232071
20
677.837348
11
116.318627
21
676.904820
0
LINE
8
Calque_1
10
116.318000
20
676.905000
11
116.754860
21
676.076617
0
LINE
8
Calque_1
10
116.754860
20
676.076617
11
117.475500
21
675.478500
0
LINE
8
Calque_1
10
117.476000
20
675.479000
11
118.370718
21
675.202253
0
LINE
8
Calque_1
10
118.370718
20
675.202253
11
119.303230
21
675.289003
0
LINE
8
Calque_1
10
119.303000
20
675.289000
11
120.131305
21
675.726058
0
LINE
8
Calque_1
10
120.131305
20
675.726058
11
120.729280
21
676.446840
0
LINE
8
Calque_1
10
120.729000
20
676.446000
11
121.888890
21
678.636990
0
LINE
8
Calque_1
10
121.889000
20
678.637000
11
122.910710
21
679.509648
0
LINE
8
Calque_1
10
122.911000
20
679.510000
11
126.323240
21
681.883360
0
LINE
8
Calque_1
10
126.323000
20
681.883000
11
129.366817
21
683.432183
0
LINE
8
Calque_1
10
129.366817
20
683.432183
11
132.719350
21
684.899430
0
LINE
8
Calque_1
10
132.719000
20
684.900000
11
136.187387
21
686.155880
0
LINE
8
Calque_1
10
136.187387
20
686.155880
11
139.687385
21
687.115569
0
LINE
8
Calque_1
10
139.687385
20
687.115569
11
143.280165
21
687.863021
0
LINE
8
Calque_1
10
143.280165
20
687.863021
11
147.026900
21
688.482190
0
LINE
8
Calque_1
10
147.027000
20
688.482000
11
151.599330
21
689.149120
0
LINE
8
Calque_1
10
151.600000
20
689.149000
11
154.114449
21
689.109170
0
LINE
8
Calque_1
10
154.114449
20
689.109170
11
157.071750
21
688.945377
0
LINE
8
Calque_1
10
157.071000
20
688.946000
11
158.903910
21
688.914700
0
LINE
8
Calque_1
10
158.904000
20
688.914000
11
162.468180
21
689.191124
0
LINE
8
Calque_1
10
162.469000
20
689.191000
11
164.367874
21
689.094040
0
LINE
8
Calque_1
10
164.367874
20
689.094040
11
166.666430
21
688.912209
0
LINE
8
Calque_1
10
166.666000
20
688.913000
11
168.363790
21
688.932844
0
LINE
8
Calque_1
10
168.364000
20
688.932000
11
169.119599
21
688.822727
0
LINE
8
Calque_1
10
169.119000
20
688.823000
11
169.934159
21
688.822322
0
LINE
8
Calque_1
10
169.934159
20
688.822322
11
169.679932
21
688.861391
0
LINE
8
Calque_1
10
169.680000
20
688.862000
11
170.423179
21
688.846919
0
LINE
8
Calque_1
10
170.423000
20
688.847000
11
172.690114
21
688.684109
0
LINE
8
Calque_1
10
172.690114
20
688.684109
11
175.248790
21
688.688144
0
LINE
8
Calque_1
10
175.249000
20
688.688000
11
175.584790
21
688.736419
0
LINE
8
Calque_1
10
175.585000
20
688.736000
11
175.978509
21
688.696180
0
LINE
8
Calque_1
10
175.979000
20
688.696000
11
176.858929
21
688.855676
0
LINE
8
Calque_1
10
176.858000
20
688.856000
11
177.531269
21
689.262509
0
LINE
8
Calque_1
10
177.531269
20
689.262509
11
178.124650
21
689.975110
0
LINE
8
Calque_1
10
178.125000
20
689.975000
11
178.405370
21
690.746543
0
LINE
8
Calque_1
10
178.405370
20
690.746543
11
178.427941
21
691.367136
0
LINE
8
Calque_1
10
178.427941
20
691.367136
11
178.177999
21
692.136060
0
LINE
8
Calque_1
10
178.178000
20
692.136000
11
177.701915
21
692.900073
0
LINE
8
Calque_1
10
177.701915
20
692.900073
11
177.625459
21
692.944065
0
LINE
8
Calque_1
10
177.625459
20
692.944065
11
177.721782
21
692.801003
0
LINE
8
Calque_1
10
177.722000
20
692.801000
11
177.106395
21
693.237327
0
LINE
8
Calque_1
10
177.106395
20
693.237327
11
176.385740
21
693.460949
0
LINE
8
Calque_1
10
176.386000
20
693.461000
11
176.550520
21
693.445390
0
LINE
8
Calque_1
10
176.550000
20
693.445000
11
176.294540
21
693.504716
0
LINE
8
Calque_1
10
176.295000
20
693.505000
11
175.920832
21
693.561700
0
LINE
8
Calque_1
10
175.921000
20
693.562000
11
175.608109
21
693.595893
0
LINE
8
Calque_1
10
175.608000
20
693.596000
11
174.858542
21
693.486277
0
LINE
8
Calque_1
10
174.858000
20
693.486000
11
174.837495
21
693.474623
0
LINE
8
Calque_1
10
174.838000
20
693.475000
11
172.921122
21
693.488629
0
LINE
8
Calque_1
10
172.921122
20
693.488629
11
170.735640
21
693.636263
0
LINE
8
Calque_1
10
170.735000
20
693.636000
11
169.592060
21
693.660342
0
LINE
8
Calque_1
10
169.592000
20
693.660000
11
169.381252
21
693.656031
0
LINE
8
Calque_1
10
169.382000
20
693.656000
11
168.822830
21
693.722913
0
LINE
8
Calque_1
10
168.822000
20
693.723000
11
166.891030
21
693.706596
0
LINE
8
Calque_1
10
166.892000
20
693.707000
11
164.808492
21
693.891017
0
LINE
8
Calque_1
10
164.808492
20
693.891017
11
162.321380
21
693.989469
0
LINE
8
Calque_1
10
162.321000
20
693.989000
11
158.793930
21
693.713093
0
LINE
8
Calque_1
10
158.794000
20
693.713000
11
157.171070
21
693.744221
0
LINE
8
Calque_1
10
157.171000
20
693.744000
11
154.425076
21
693.919134
0
LINE
8
Calque_1
10
154.425076
20
693.919134
11
151.226310
21
693.933653
0
LINE
8
Calque_1
10
151.226000
20
693.934000
11
148.654471
21
693.613137
0
LINE
8
Calque_1
10
148.654471
20
693.613137
11
146.307320
21
693.227008
0
LINE
8
Calque_1
10
146.308000
20
693.227000
11
142.411582
21
692.583075
0
LINE
8
Calque_1
10
142.411582
20
692.583075
11
138.568634
21
691.782605
0
LINE
8
Calque_1
10
138.568634
20
691.782605
11
134.740819
21
690.731850
0
LINE
8
Calque_1
10
134.740819
20
690.731850
11
130.889800
21
689.337070
0
LINE
8
Calque_1
10
130.889000
20
689.337000
11
127.395530
21
687.824143
0
LINE
8
Calque_1
10
127.395530
20
687.824143
11
123.837890
21
685.989680
0
LINE
8
Calque_1
10
123.838000
20
685.990000
11
121.859065
21
684.690951
0
LINE
8
Calque_1
10
121.859065
20
684.690951
11
120.015970
21
683.338880
0
LINE
8
Calque_1
10
120.016000
20
683.339000
11
119.093187
21
682.624093
0
LINE
8
Calque_1
10
119.093187
20
682.624093
11
118.033100
21
681.496100
0
LINE
8
Calque_1
10
118.033000
20
681.496000
11
117.492962
21
680.680608
0
LINE
8
Calque_1
10
117.494000
20
680.681000
11
117.492942
21
680.678354
0
LINE
8
Calque_1
10
117.493000
20
680.680000
11
117.494000
21
680.680000
0
LINE
8
Calque_1
10
128.497000
20
670.844000
11
127.505650
21
668.664920
0
LINE
8
Calque_1
10
127.505000
20
668.665000
11
127.269669
21
667.834791
0
LINE
8
Calque_1
10
127.270000
20
667.835000
11
126.995453
21
665.282090
0
LINE
8
Calque_1
10
126.995000
20
665.282000
11
127.005692
21
665.574785
0
LINE
8
Calque_1
10
127.005692
20
665.574785
11
126.915604
21
665.519596
0
LINE
8
Calque_1
10
126.915604
20
665.519596
11
126.539780
21
664.293518
0
LINE
8
Calque_1
10
126.540000
20
664.294000
11
126.480400
21
664.034814
0
LINE
8
Calque_1
10
126.480000
20
664.034000
11
126.278110
21
663.069330
0
LINE
8
Calque_1
10
126.279000
20
663.070000
11
126.290906
21
662.992689
0
LINE
8
Calque_1
10
126.290000
20
662.992000
11
126.082385
21
662.356984
0
LINE
8
Calque_1
10
126.082385
20
662.356984
11
126.041041
21
661.131400
0
LINE
8
Calque_1
10
126.042000
20
661.132000
11
126.195239
21
660.190217
0
LINE
8
Calque_1
10
126.195000
20
660.190000
11
126.300169
21
659.499782
0
LINE
8
Calque_1
10
126.300000
20
659.500000
11
126.707369
21
658.280550
0
LINE
8
Calque_1
10
126.707369
20
658.280550
11
127.263150
21
657.390140
0
LINE
8
Calque_1
10
127.263150
20
657.390140
11
128.329650
21
656.286240
0
LINE
8
Calque_1
10
128.330000
20
656.286000
11
128.952119
21
655.507332
0
LINE
8
Calque_1
10
128.952000
20
655.507000
11
130.102921
21
654.422296
0
LINE
8
Calque_1
10
130.102921
20
654.422296
11
131.181490
21
653.569410
0
LINE
8
Calque_1
10
131.181000
20
653.570000
11
132.849270
21
652.223140
0
LINE
8
Calque_1
10
132.849000
20
652.223000
11
134.482343
21
651.237622
0
LINE
8
Calque_1
10
134.482343
20
651.237622
11
135.937620
21
650.612830
0
LINE
8
Calque_1
10
135.938000
20
650.613000
11
137.617190
21
649.872062
0
LINE
8
Calque_1
10
137.617000
20
649.872000
11
138.878160
21
649.517988
0
LINE
8
Calque_1
10
138.878000
20
649.518000
11
138.941597
21
649.513006
0
LINE
8
Calque_1
10
138.941597
20
649.513006
11
138.828200
21
649.528054
0
LINE
8
Calque_1
10
138.829000
20
649.528000
11
139.062219
21
649.467913
0
LINE
8
Calque_1
10
139.062000
20
649.468000
11
140.197451
21
649.113383
0
LINE
8
Calque_1
10
140.197451
20
649.113383
11
141.736380
21
648.751562
0
LINE
8
Calque_1
10
141.736000
20
648.751000
11
144.343390
21
648.427124
0
LINE
8
Calque_1
10
144.344000
20
648.427000
11
145.465450
21
648.415094
0
LINE
8
Calque_1
10
145.465000
20
648.415000
11
147.075060
21
648.283717
0
LINE
8
Calque_1
10
147.075060
20
648.283717
11
149.026460
21
648.230639
0
LINE
8
Calque_1
10
149.027000
20
648.231000
11
151.875760
21
648.340590
0
LINE
8
Calque_1
10
151.875000
20
648.341000
11
153.132690
21
648.285014
0
LINE
8
Calque_1
10
153.133000
20
648.285000
11
154.071539
21
648.345775
0
LINE
8
Calque_1
10
154.071000
20
648.345000
11
157.540010
21
648.421121
0
LINE
8
Calque_1
10
157.541000
20
648.421000
11
160.411030
21
648.452697
0
LINE
8
Calque_1
10
160.411000
20
648.453000
11
163.883160
21
648.731950
0
LINE
8
Calque_1
10
163.883000
20
648.732000
11
166.427630
21
648.828599
0
LINE
8
Calque_1
10
166.427000
20
648.829000
11
167.462160
21
648.956952
0
LINE
8
Calque_1
10
167.462000
20
648.957000
11
167.915831
21
648.973140
0
LINE
8
Calque_1
10
167.916000
20
648.973000
11
168.332739
21
648.907198
0
LINE
8
Calque_1
10
168.333000
20
648.907000
11
168.525770
21
648.907000
0
LINE
8
Calque_1
10
168.526000
20
648.906000
11
168.737439
21
648.914996
0
LINE
8
Calque_1
10
168.737000
20
648.915000
11
169.505889
21
648.961011
0
LINE
8
Calque_1
10
169.506000
20
648.961000
11
171.637640
21
649.140308
0
LINE
8
Calque_1
10
171.638000
20
649.140000
11
173.169440
21
649.146085
0
LINE
8
Calque_1
10
173.169000
20
649.146000
11
173.254400
21
649.148646
0
LINE
8
Calque_1
10
173.255000
20
649.148000
11
174.942910
21
649.215919
0
LINE
8
Calque_1
10
128.496000
20
670.842000
11
128.497058
21
670.844646
0
LINE
8
Calque_1
10
174.954000
20
649.216000
11
176.586450
21
649.293311
0
LINE
8
Calque_1
10
176.586000
20
649.293000
11
176.673799
21
649.299085
0
LINE
8
Calque_1
10
176.674000
20
649.299000
11
178.064540
21
649.418089
0
LINE
8
Calque_1
10
178.065000
20
649.418000
11
182.441230
21
649.485284
0
LINE
8
Calque_1
10
182.441000
20
649.485000
11
188.302260
21
650.048826
0
LINE
8
Calque_1
10
188.302000
20
650.049000
11
190.033340
21
650.142609
0
LINE
8
Calque_1
10
190.033000
20
650.143000
11
191.612270
21
650.183005
0
LINE
8
Calque_1
10
191.613000
20
650.183000
11
194.663120
21
650.605354
0
LINE
8
Calque_1
10
194.663000
20
650.605000
11
197.586260
21
651.129827
0
LINE
8
Calque_1
10
197.586000
20
651.130000
11
199.551791
21
651.822586
0
LINE
8
Calque_1
10
199.551791
20
651.822586
11
201.189090
21
652.679560
0
LINE
8
Calque_1
10
201.189000
20
652.679000
11
202.408200
21
653.351094
0
LINE
8
Calque_1
10
202.408000
20
653.352000
11
203.387010
21
654.176494
0
LINE
8
Calque_1
10
203.387000
20
654.176000
11
204.066028
21
654.623542
0
LINE
8
Calque_1
10
204.066000
20
654.624000
11
205.490692
21
655.934418
0
LINE
8
Calque_1
10
205.490692
20
655.934418
11
206.636070
21
657.403050
0
LINE
8
Calque_1
10
206.636000
20
657.403000
11
207.178383
21
658.400234
0
LINE
8
Calque_1
10
207.178383
20
658.400234
11
207.547580
21
659.530214
0
LINE
8
Calque_1
10
207.547580
20
659.530214
11
207.693467
21
660.740809
0
LINE
8
Calque_1
10
207.693467
20
660.740809
11
207.565919
21
661.979890
0
LINE
8
Calque_1
10
207.566000
20
661.980000
11
207.429426
21
662.657366
0
LINE
8
Calque_1
10
207.429426
20
662.657366
11
206.946810
21
663.817930
0
LINE
8
Calque_1
10
206.947000
20
663.817000
11
205.685840
21
665.763590
0
LINE
8
Calque_1
10
205.686000
20
665.764000
11
205.201482
21
666.531962
0
LINE
8
Calque_1
10
205.201482
20
666.531962
11
204.519240
21
667.401900
0
LINE
8
Calque_1
10
204.519000
20
667.402000
11
203.170337
21
668.706129
0
LINE
8
Calque_1
10
203.170337
20
668.706129
11
202.025050
21
669.699960
0
LINE
8
Calque_1
10
202.025000
20
669.700000
11
201.065373
21
670.643643
0
LINE
8
Calque_1
10
201.065373
20
670.643643
11
199.772910
21
671.754490
0
LINE
8
Calque_1
10
199.773000
20
671.754000
11
196.966040
21
673.628780
0
LINE
8
Calque_1
10
196.966000
20
673.629000
11
194.486148
21
674.909413
0
LINE
8
Calque_1
10
194.486148
20
674.909413
11
192.206200
21
675.777970
0
LINE
8
Calque_1
10
192.206000
20
675.778000
11
190.610306
21
676.477141
0
LINE
8
Calque_1
10
190.610306
20
676.477141
11
188.529870
21
677.227360
0
LINE
8
Calque_1
10
188.530000
20
677.228000
11
185.374830
21
677.913482
0
LINE
8
Calque_1
10
185.375000
20
677.913000
11
184.591612
21
678.142737
0
LINE
8
Calque_1
10
184.592000
20
678.143000
11
183.950561
21
678.356968
0
LINE
8
Calque_1
10
183.950000
20
678.357000
11
183.240949
21
678.528291
0
LINE
8
Calque_1
10
183.241000
20
678.528000
11
182.832542
21
678.565703
0
LINE
8
Calque_1
10
182.833000
20
678.566000
11
181.890550
21
678.762823
0
LINE
8
Calque_1
10
181.890000
20
678.763000
11
181.000901
21
678.781521
0
LINE
8
Calque_1
10
181.001000
20
678.781000
11
180.793030
21
678.814602
0
LINE
8
Calque_1
10
180.793000
20
678.815000
11
179.007700
21
679.083763
0
LINE
8
Calque_1
10
179.008000
20
679.083000
11
177.805150
21
679.208201
0
LINE
8
Calque_1
10
177.805000
20
679.209000
11
176.845892
21
679.357590
0
LINE
8
Calque_1
10
176.846000
20
679.357000
11
175.877221
21
679.320196
0
LINE
8
Calque_1
10
175.877000
20
679.320000
11
174.144410
21
679.530264
0
LINE
8
Calque_1
10
174.145000
20
679.531000
11
173.454155
21
679.527865
0
LINE
8
Calque_1
10
173.454155
20
679.527865
11
173.376161
21
679.497504
0
LINE
8
Calque_1
10
173.376000
20
679.497000
11
172.933591
21
679.519225
0
LINE
8
Calque_1
10
172.933000
20
679.519000
11
171.909010
21
679.526937
0
LINE
8
Calque_1
10
171.909000
20
679.527000
11
171.240841
21
679.453922
0
LINE
8
Calque_1
10
171.241000
20
679.454000
11
170.521353
21
679.495275
0
LINE
8
Calque_1
10
170.522000
20
679.496000
11
167.856170
21
679.418107
0
LINE
8
Calque_1
10
167.856000
20
679.418000
11
166.938431
21
679.447104
0
LINE
8
Calque_1
10
166.938000
20
679.447000
11
162.334080
21
679.228375
0
LINE
8
Calque_1
10
162.334000
20
679.228000
11
159.852767
21
679.152531
0
LINE
8
Calque_1
10
159.852767
20
679.152531
11
157.205980
21
678.937779
0
LINE
8
Calque_1
10
157.206000
20
678.938000
11
156.079610
21
678.735647
0
LINE
8
Calque_1
10
156.080000
20
678.736000
11
155.464863
21
678.617335
0
LINE
8
Calque_1
10
155.465000
20
678.617000
11
149.484070
21
677.828119
0
LINE
8
Calque_1
10
149.484000
20
677.828000
11
148.403930
21
677.569661
0
LINE
8
Calque_1
10
148.404000
20
677.570000
11
148.180621
21
677.566031
0
LINE
8
Calque_1
10
148.180000
20
677.566000
11
147.517550
21
677.507378
0
LINE
8
Calque_1
10
147.517550
20
677.507378
11
146.615630
21
677.226249
0
LINE
8
Calque_1
10
146.616000
20
677.226000
11
146.156271
21
677.073732
0
LINE
8
Calque_1
10
146.156000
20
677.074000
11
144.347820
21
676.672733
0
LINE
8
Calque_1
10
144.348000
20
676.672000
11
143.116050
21
676.527591
0
LINE
8
Calque_1
10
143.116000
20
676.528000
11
140.469250
21
675.802910
0
LINE
8
Calque_1
10
140.469000
20
675.803000
11
139.931390
21
675.596083
0
LINE
8
Calque_1
10
139.931390
20
675.596083
11
139.879440
21
675.555059
0
LINE
8
Calque_1
10
139.880000
20
675.555000
11
138.808220
21
675.333623
0
LINE
8
Calque_1
10
138.808000
20
675.334000
11
136.523865
21
675.016815
0
LINE
8
Calque_1
10
136.523865
20
675.016815
11
133.703210
21
674.443228
0
LINE
8
Calque_1
10
133.703000
20
674.443000
11
132.014019
21
673.794551
0
LINE
8
Calque_1
10
132.014019
20
673.794551
11
130.861160
21
673.140170
0
LINE
8
Calque_1
10
130.861000
20
673.140000
11
130.263041
21
672.898710
0
LINE
8
Calque_1
10
130.263041
20
672.898710
11
129.688124
21
672.481277
0
LINE
8
Calque_1
10
129.688124
20
672.481277
11
129.049910
21
671.744510
0
LINE
8
Calque_1
10
129.050000
20
671.744000
11
128.498831
21
670.841349
0
LINE
8
Calque_1
10
174.943000
20
649.216000
11
174.954000
21
649.216000
0
LINE
8
Calque_1
10
145.626000
20
639.248000
11
145.298564
21
638.713839
0
LINE
8
Calque_1
10
145.298564
20
638.713839
11
145.120541
21
638.113120
0
LINE
8
Calque_1
10
145.121000
20
638.113000
11
145.157672
21
637.177275
0
LINE
8
Calque_1
10
145.157672
20
637.177275
11
145.549646
21
636.326800
0
LINE
8
Calque_1
10
145.549000
20
636.327000
11
146.236600
21
635.691283
0
LINE
8
Calque_1
10
146.236600
20
635.691283
11
147.115140
21
635.367093
0
LINE
8
Calque_1
10
147.115000
20
635.367000
11
151.574990
21
634.661516
0
LINE
8
Calque_1
10
151.575000
20
634.661000
11
155.044430
21
633.902652
0
LINE
8
Calque_1
10
155.045000
20
633.903000
11
158.904218
21
633.123176
0
LINE
8
Calque_1
10
158.904218
20
633.123176
11
163.920500
21
632.239040
0
LINE
8
Calque_1
10
163.920000
20
632.239000
11
169.182393
21
631.717956
0
LINE
8
Calque_1
10
169.182393
20
631.717956
11
174.431216
21
631.471309
0
LINE
8
Calque_1
10
174.431216
20
631.471309
11
179.666106
21
631.451034
0
LINE
8
Calque_1
10
179.666106
20
631.451034
11
184.886700
21
631.609107
0
LINE
8
Calque_1
10
184.887000
20
631.609000
11
187.495880
21
631.707293
0
LINE
8
Calque_1
10
187.496000
20
631.707000
11
189.697530
21
631.810769
0
LINE
8
Calque_1
10
189.698000
20
631.811000
11
192.051524
21
631.923749
0
LINE
8
Calque_1
10
192.051524
20
631.923749
11
195.004240
21
632.251901
0
LINE
8
Calque_1
10
195.004000
20
632.252000
11
197.411207
21
632.862154
0
LINE
8
Calque_1
10
197.411207
20
632.862154
11
199.629010
21
633.709160
0
LINE
8
Calque_1
10
199.629000
20
633.709000
11
201.037340
21
634.358300
0
LINE
8
Calque_1
10
201.037340
20
634.358300
11
202.359460
21
634.902510
0
LINE
8
Calque_1
10
202.359000
20
634.903000
11
204.199218
21
635.271270
0
LINE
8
Calque_1
10
204.199218
20
635.271270
11
206.514770
21
635.338609
0
LINE
8
Calque_1
10
206.515000
20
635.338000
11
208.276880
21
635.440986
0
LINE
8
Calque_1
10
208.276880
20
635.440986
11
210.107670
21
635.738896
0
LINE
8
Calque_1
10
210.108000
20
635.739000
11
210.342910
21
635.802712
0
LINE
8
Calque_1
10
210.343000
20
635.803000
11
210.573650
21
635.876898
0
LINE
8
Calque_1
10
210.573000
20
635.877000
11
211.247110
21
636.139387
0
LINE
8
Calque_1
10
211.247000
20
636.139000
11
211.744329
21
636.412208
0
LINE
8
Calque_1
10
211.745000
20
636.412000
11
212.127810
21
636.681795
0
LINE
8
Calque_1
10
212.127810
20
636.681795
11
212.636859
21
637.369738
0
LINE
8
Calque_1
10
212.637000
20
637.370000
11
212.879465
21
638.042488
0
LINE
8
Calque_1
10
212.879465
20
638.042488
11
212.907520
21
638.926970
0
LINE
8
Calque_1
10
212.907000
20
638.927000
11
212.600305
21
639.776462
0
LINE
8
Calque_1
10
212.600305
20
639.776462
11
212.135860
21
640.366330
0
LINE
8
Calque_1
10
212.136000
20
640.366000
11
211.377943
21
640.877409
0
LINE
8
Calque_1
10
211.377943
20
640.877409
11
210.870840
21
641.011688
0
LINE
8
Calque_1
10
210.871000
20
641.012000
11
209.777432
21
640.937258
0
LINE
8
Calque_1
10
209.777432
20
640.937258
11
208.831150
21
640.384065
0
LINE
8
Calque_1
10
208.831000
20
640.384000
11
206.349870
21
640.134948
0
LINE
8
Calque_1
10
206.350000
20
640.135000
11
203.742077
21
640.049173
0
LINE
8
Calque_1
10
203.742077
20
640.049173
11
202.325495
21
639.857120
0
LINE
8
Calque_1
10
202.325495
20
639.857120
11
200.770840
21
639.432188
0
LINE
8
Calque_1
10
200.771000
20
639.432000
11
199.116517
21
638.760243
0
LINE
8
Calque_1
10
199.116517
20
638.760243
11
197.783230
21
638.140040
0
LINE
8
Calque_1
10
197.783000
20
638.140000
11
195.946214
21
637.420297
0
LINE
8
Calque_1
10
195.946214
20
637.420297
11
194.097300
21
636.965170
0
LINE
8
Calque_1
10
194.097000
20
636.966000
11
189.431230
21
636.604050
0
LINE
8
Calque_1
10
189.431000
20
636.604000
11
187.556110
21
636.506792
0
LINE
8
Calque_1
10
187.557000
20
636.506000
11
184.674490
21
636.403950
0
LINE
8
Calque_1
10
184.674000
20
636.404000
11
179.596167
21
636.250486
0
LINE
8
Calque_1
10
179.596167
20
636.250486
11
174.546890
21
636.270151
0
LINE
8
Calque_1
10
174.546890
20
636.270151
11
169.524868
21
636.505720
0
LINE
8
Calque_1
10
169.524868
20
636.505720
11
164.528800
21
636.999920
0
LINE
8
Calque_1
10
164.529000
20
637.000000
11
156.007960
21
638.604910
0
LINE
8
Calque_1
10
156.008000
20
638.605000
11
152.446070
21
639.380943
0
LINE
8
Calque_1
10
152.446000
20
639.381000
11
147.866190
21
640.107333
0
LINE
8
Calque_1
10
147.866000
20
640.107000
11
147.234730
21
640.122841
0
LINE
8
Calque_1
10
147.234730
20
640.122841
11
146.630897
21
639.977133
0
LINE
8
Calque_1
10
146.630897
20
639.977133
11
146.084630
21
639.681430
0
LINE
8
Calque_1
10
146.084630
20
639.681430
11
145.626060
21
639.247290
0
LINE
8
Calque_1
10
128.499000
20
670.842000
11
128.496000
21
670.842000
0
LINE
8
Calque_1
10
149.875000
20
621.350000
11
149.783694
21
620.401413
0
LINE
8
Calque_1
10
149.783694
20
620.401413
11
150.053827
21
619.521963
0
LINE
8
Calque_1
10
150.053827
20
619.521963
11
150.634003
21
618.807958
0
LINE
8
Calque_1
10
150.634003
20
618.807958
11
151.472830
21
618.355710
0
LINE
8
Calque_1
10
151.473000
20
618.356000
11
153.772350
21
617.659803
0
LINE
8
Calque_1
10
153.772000
20
617.660000
11
156.057706
21
617.237292
0
LINE
8
Calque_1
10
156.057706
20
617.237292
11
158.035470
21
616.955177
0
LINE
8
Calque_1
10
158.035000
20
616.955000
11
161.332530
21
616.337066
0
LINE
8
Calque_1
10
161.333000
20
616.337000
11
165.809179
21
615.411799
0
LINE
8
Calque_1
10
165.809179
20
615.411799
11
170.502670
21
614.653560
0
LINE
8
Calque_1
10
170.503000
20
614.654000
11
175.203646
21
614.283058
0
LINE
8
Calque_1
10
175.203646
20
614.283058
11
179.697660
21
613.991431
0
LINE
8
Calque_1
10
179.697000
20
613.991000
11
179.881877
21
613.971421
0
LINE
8
Calque_1
10
179.881877
20
613.971421
11
180.576318
21
613.901597
0
LINE
8
Calque_1
10
180.577000
20
613.902000
11
182.476370
21
613.710019
0
LINE
8
Calque_1
10
182.476000
20
613.710000
11
185.660000
21
613.404063
0
LINE
8
Calque_1
10
185.660000
20
613.404000
11
189.144353
21
613.415602
0
LINE
8
Calque_1
10
189.144353
20
613.415602
11
192.361060
21
613.621990
0
LINE
8
Calque_1
10
192.361000
20
613.622000
11
195.559711
21
613.790483
0
LINE
8
Calque_1
10
195.559711
20
613.790483
11
198.903360
21
614.094519
0
LINE
8
Calque_1
10
198.903000
20
614.094000
11
201.778160
21
614.560470
0
LINE
8
Calque_1
10
201.778160
20
614.560470
11
204.598540
21
615.172970
0
LINE
8
Calque_1
10
204.599000
20
615.173000
11
206.059580
21
615.548814
0
LINE
8
Calque_1
10
206.060000
20
615.549000
11
206.356082
21
615.676397
0
LINE
8
Calque_1
10
206.356000
20
615.676000
11
206.478748
21
615.706612
0
LINE
8
Calque_1
10
206.478000
20
615.707000
11
208.378970
21
616.150177
0
LINE
8
Calque_1
10
208.379000
20
616.150000
11
212.680520
21
616.939463
0
LINE
8
Calque_1
10
212.681000
20
616.940000
11
217.811556
21
618.044781
0
LINE
8
Calque_1
10
217.811556
20
618.044781
11
222.818100
21
619.462140
0
LINE
8
Calque_1
10
222.818000
20
619.462000
11
223.822240
21
619.788575
0
LINE
8
Calque_1
10
223.822000
20
619.788000
11
224.520846
21
620.011913
0
LINE
8
Calque_1
10
224.520846
20
620.011913
11
224.772070
21
620.093964
0
LINE
8
Calque_1
10
224.772000
20
620.094000
11
224.779994
21
620.089297
0
LINE
8
Calque_1
10
224.779994
20
620.089297
11
225.003960
21
620.124797
0
LINE
8
Calque_1
10
225.004000
20
620.125000
11
225.339187
21
620.171408
0
LINE
8
Calque_1
10
225.339000
20
620.172000
11
225.729331
21
620.264101
0
LINE
8
Calque_1
10
225.730000
20
620.264000
11
226.288429
21
620.518026
0
LINE
8
Calque_1
10
226.288000
20
620.518000
11
226.937824
21
621.072358
0
LINE
8
Calque_1
10
226.937824
20
621.072358
11
227.256289
21
621.618148
0
LINE
8
Calque_1
10
227.256289
20
621.618148
11
227.429930
21
622.395880
0
LINE
8
Calque_1
10
227.430000
20
622.396000
11
227.309848
21
623.341311
0
LINE
8
Calque_1
10
227.309848
20
623.341311
11
226.852444
21
624.139489
0
LINE
8
Calque_1
10
226.852444
20
624.139489
11
226.129143
21
624.707947
0
LINE
8
Calque_1
10
226.129143
20
624.707947
11
225.211300
21
624.964100
0
LINE
8
Calque_1
10
225.211000
20
624.964000
11
224.324919
21
624.845864
0
LINE
8
Calque_1
10
224.324919
20
624.845864
11
223.543530
21
624.411657
0
LINE
8
Calque_1
10
223.544000
20
624.411000
11
223.771690
21
624.605363
0
LINE
8
Calque_1
10
223.772000
20
624.606000
11
224.291620
21
624.843622
0
LINE
8
Calque_1
10
224.291000
20
624.843000
11
224.540788
21
624.904595
0
LINE
8
Calque_1
10
224.541000
20
624.905000
11
224.404570
21
624.887802
0
LINE
8
Calque_1
10
224.405000
20
624.888000
11
223.443992
21
624.707713
0
LINE
8
Calque_1
10
223.444000
20
624.707000
11
222.336220
21
624.351850
0
LINE
8
Calque_1
10
222.336000
20
624.352000
11
221.652883
21
624.130117
0
LINE
8
Calque_1
10
221.652883
20
624.130117
11
221.393801
21
624.045057
0
LINE
8
Calque_1
10
221.394000
20
624.045000
11
216.636791
21
622.698176
0
LINE
8
Calque_1
10
216.636791
20
622.698176
11
211.850820
21
621.666930
0
LINE
8
Calque_1
10
211.850000
20
621.667000
11
207.316200
21
620.830812
0
LINE
8
Calque_1
10
207.317000
20
620.831000
11
205.308940
21
620.362556
0
LINE
8
Calque_1
10
205.309000
20
620.363000
11
204.855529
21
620.236953
0
LINE
8
Calque_1
10
204.855000
20
620.236000
11
204.394872
21
620.072646
0
LINE
8
Calque_1
10
204.395000
20
620.073000
11
203.471312
21
619.838315
0
LINE
8
Calque_1
10
203.471000
20
619.838000
11
198.279250
21
618.852428
0
LINE
8
Calque_1
10
198.280000
20
618.853000
11
195.268414
21
618.583350
0
LINE
8
Calque_1
10
195.268414
20
618.583350
11
192.093350
21
618.413792
0
LINE
8
Calque_1
10
192.093000
20
618.414000
11
188.892558
21
618.215986
0
LINE
8
Calque_1
10
188.892558
20
618.215986
11
185.951060
21
618.194819
0
LINE
8
Calque_1
10
185.951000
20
618.194000
11
182.956340
21
618.484909
0
LINE
8
Calque_1
10
182.956000
20
618.485000
11
181.060520
21
618.676532
0
LINE
8
Calque_1
10
181.061000
20
618.677000
11
180.122783
21
618.771800
0
LINE
8
Calque_1
10
180.123000
20
618.772000
11
175.476351
21
619.079578
0
LINE
8
Calque_1
10
175.476351
20
619.079578
11
171.048500
21
619.422477
0
LINE
8
Calque_1
10
171.048000
20
619.422000
11
166.737954
21
620.124149
0
LINE
8
Calque_1
10
166.737954
20
620.124149
11
162.281920
21
621.041880
0
LINE
8
Calque_1
10
162.282000
20
621.042000
11
158.864550
21
621.682608
0
LINE
8
Calque_1
10
158.865000
20
621.683000
11
154.923490
21
622.320089
0
LINE
8
Calque_1
10
154.923000
20
622.320000
11
152.867960
21
622.948543
0
LINE
8
Calque_1
10
152.868000
20
622.948000
11
151.919399
21
623.039309
0
LINE
8
Calque_1
10
151.919399
20
623.039309
11
151.039939
21
622.769171
0
LINE
8
Calque_1
10
151.039939
20
622.769171
11
150.325935
21
622.188981
0
LINE
8
Calque_1
10
150.325935
20
622.188981
11
149.873700
21
621.350130
0
LINE
8
Calque_1
10
148.173000
20
605.065000
11
147.963551
21
604.152400
0
LINE
8
Calque_1
10
147.964000
20
604.152000
11
148.125343
21
603.212896
0
LINE
8
Calque_1
10
148.125343
20
603.212896
11
148.617156
21
602.435497
0
LINE
8
Calque_1
10
148.617156
20
602.435497
11
149.364556
21
601.899190
0
LINE
8
Calque_1
10
149.364556
20
601.899190
11
150.292660
21
601.683360
0
LINE
8
Calque_1
10
150.292000
20
601.683000
11
152.513214
21
601.525916
0
LINE
8
Calque_1
10
152.513214
20
601.525916
11
154.741096
21
601.210276
0
LINE
8
Calque_1
10
154.741096
20
601.210276
11
159.289650
21
600.257610
0
LINE
8
Calque_1
10
159.290000
20
600.258000
11
160.464750
21
599.949734
0
LINE
8
Calque_1
10
160.465000
20
599.950000
11
164.307860
21
599.269016
0
LINE
8
Calque_1
10
164.308000
20
599.269000
11
174.030690
21
597.567630
0
LINE
8
Calque_1
10
174.030000
20
597.567000
11
177.303600
21
596.985420
0
LINE
8
Calque_1
10
177.303600
20
596.985420
11
180.744990
21
596.510120
0
LINE
8
Calque_1
10
180.745000
20
596.510000
11
185.330690
21
596.251661
0
LINE
8
Calque_1
10
185.331000
20
596.252000
11
194.366700
21
596.027316
0
LINE
8
Calque_1
10
194.367000
20
596.027000
11
201.655917
21
596.319549
0
LINE
8
Calque_1
10
201.655917
20
596.319549
11
208.815700
21
596.894038
0
LINE
8
Calque_1
10
208.815000
20
596.894000
11
211.021498
21
597.076410
0
LINE
8
Calque_1
10
211.021498
20
597.076410
11
213.032590
21
597.083283
0
LINE
8
Calque_1
10
213.033000
20
597.084000
11
214.763490
21
597.031295
0
LINE
8
Calque_1
10
214.764000
20
597.031000
11
216.917290
21
597.018300
0
LINE
8
Calque_1
10
216.917000
20
597.018000
11
220.953720
21
597.399423
0
LINE
8
Calque_1
10
220.954000
20
597.400000
11
222.401313
21
597.610866
0
LINE
8
Calque_1
10
222.401313
20
597.610866
11
223.945040
21
598.079661
0
LINE
8
Calque_1
10
223.945000
20
598.079000
11
225.419250
21
598.814461
0
LINE
8
Calque_1
10
225.419000
20
598.815000
11
225.895149
21
598.902895
0
LINE
8
Calque_1
10
225.895000
20
598.903000
11
227.081680
21
598.954197
0
LINE
8
Calque_1
10
227.082000
20
598.954000
11
228.218230
21
599.133996
0
LINE
8
Calque_1
10
228.218000
20
599.134000
11
228.783268
21
599.236685
0
LINE
8
Calque_1
10
228.783000
20
599.237000
11
229.142650
21
599.323492
0
LINE
8
Calque_1
10
229.143000
20
599.323000
11
229.562920
21
599.483919
0
LINE
8
Calque_1
10
229.563000
20
599.484000
11
230.159018
21
599.891140
0
LINE
8
Calque_1
10
230.159000
20
599.891000
11
230.728772
21
600.736573
0
LINE
8
Calque_1
10
230.728772
20
600.736573
11
230.911135
21
601.416596
0
LINE
8
Calque_1
10
230.911135
20
601.416596
11
230.862270
21
602.219090
0
LINE
8
Calque_1
10
230.862000
20
602.219000
11
230.477578
21
603.042893
0
LINE
8
Calque_1
10
230.477578
20
603.042893
11
229.943061
21
603.614170
0
LINE
8
Calque_1
10
229.943000
20
603.614000
11
229.460480
21
603.867656
0
LINE
8
Calque_1
10
229.461000
20
603.868000
11
228.450337
21
604.092816
0
LINE
8
Calque_1
10
228.450337
20
604.092816
11
227.439010
21
603.870910
0
LINE
8
Calque_1
10
227.439000
20
603.871000
11
227.414500
21
603.867031
0
LINE
8
Calque_1
10
227.414000
20
603.867000
11
226.562900
21
603.727062
0
LINE
8
Calque_1
10
226.563000
20
603.727000
11
225.924641
21
603.703452
0
LINE
8
Calque_1
10
225.925000
20
603.704000
11
224.403010
21
603.508023
0
LINE
8
Calque_1
10
224.403000
20
603.508000
11
222.805145
21
602.929781
0
LINE
8
Calque_1
10
222.805145
20
602.929781
11
222.102940
21
602.514200
0
LINE
8
Calque_1
10
222.103000
20
602.514000
11
221.404473
21
602.290084
0
LINE
8
Calque_1
10
221.404473
20
602.290084
11
220.399660
21
602.169116
0
LINE
8
Calque_1
10
220.399000
20
602.169000
11
216.637750
21
601.811099
0
LINE
8
Calque_1
10
216.638000
20
601.811000
11
214.897650
21
601.830050
0
LINE
8
Calque_1
10
214.898000
20
601.830000
11
213.107670
21
601.884398
0
LINE
8
Calque_1
10
213.107000
20
601.884000
11
210.821416
21
601.867659
0
LINE
8
Calque_1
10
210.821416
20
601.867659
11
208.411460
21
601.678260
0
LINE
8
Calque_1
10
208.412000
20
601.679000
11
201.329020
21
601.111651
0
LINE
8
Calque_1
10
201.329020
20
601.111651
11
194.343600
21
600.828683
0
LINE
8
Calque_1
10
194.343000
20
600.828000
11
185.568760
21
601.046757
0
LINE
8
Calque_1
10
185.569000
20
601.047000
11
181.214770
21
601.288644
0
LINE
8
Calque_1
10
181.215000
20
601.289000
11
178.101403
21
601.722930
0
LINE
8
Calque_1
10
178.101403
20
601.722930
11
174.858850
21
602.296800
0
LINE
8
Calque_1
10
174.859000
20
602.297000
11
165.120130
21
604.001180
0
LINE
8
Calque_1
10
165.120000
20
604.001000
11
161.448800
21
604.649678
0
LINE
8
Calque_1
10
161.449000
20
604.649000
11
160.385010
21
604.932130
0
LINE
8
Calque_1
10
160.385000
20
604.933000
11
155.544079
21
605.947452
0
LINE
8
Calque_1
10
155.544079
20
605.947452
11
153.029090
21
606.301570
0
LINE
8
Calque_1
10
153.029090
20
606.301570
11
150.431770
21
606.482870
0
LINE
8
Calque_1
10
150.432000
20
606.482000
11
149.508387
21
606.326333
0
LINE
8
Calque_1
10
149.508387
20
606.326333
11
148.714700
21
605.828956
0
LINE
8
Calque_1
10
149.874000
20
621.350000
11
149.875058
21
621.349815
0
LINE
8
Calque_1
10
148.714000
20
605.829000
11
148.171660
21
605.065625
0
LINE
8
Calque_1
10
148.172000
20
605.066000
11
148.173323
21
605.063354
0
LINE
8
Calque_1
10
331.500000
20
1072.320000
11
294.310000
21
1072.320000
0
LINE
8
Calque_1
10
294.310000
20
1072.320000
11
294.310000
21
1023.330000
0
LINE
8
Calque_1
10
294.310000
20
1023.330000
11
331.500000
21
1023.330000
0
LINE
8
Calque_1
10
331.500000
20
1023.330000
11
331.500000
21
1072.320000
0
LINE
8
Calque_1
10
290.310000
20
1072.320000
11
252.976000
21
1072.320000
0
LINE
8
Calque_1
10
252.976000
20
1072.320000
11
252.976000
21
1023.330000
0
LINE
8
Calque_1
10
252.976000
20
1023.330000
11
290.310000
21
1023.330000
0
LINE
8
Calque_1
10
290.310000
20
1023.330000
11
290.310000
21
1072.320000
0
LINE
8
Calque_1
10
248.975000
20
1072.320000
11
163.935000
21
1072.320000
0
LINE
8
Calque_1
10
163.935000
20
1072.320000
11
163.935000
21
1005.030000
0
LINE
8
Calque_1
10
163.935000
20
1005.030000
11
171.921000
21
1005.030000
0
LINE
8
Calque_1
10
171.921000
20
1005.030000
11
248.975000
21
1005.030000
0
LINE
8
Calque_1
10
248.975000
20
1005.030000
11
248.975000
21
1072.320000
0
LINE
8
Calque_1
10
159.933000
20
1072.320000
11
121.708000
21
1072.320000
0
LINE
8
Calque_1
10
121.708000
20
1072.320000
11
121.708000
21
1036.580000
0
LINE
8
Calque_1
10
121.708000
20
1036.580000
11
121.708000
21
1034.580000
0
LINE
8
Calque_1
10
121.708000
20
1034.580000
11
121.708000
21
1032.580000
0
LINE
8
Calque_1
10
121.708000
20
1032.580000
11
121.708000
21
1026.510000
0
LINE
8
Calque_1
10
121.708000
20
1026.510000
11
159.933000
21
1026.510000
0
LINE
8
Calque_1
10
159.933000
20
1026.510000
11
159.933000
21
1072.320000
0
LINE
8
Calque_1
10
117.709000
20
1072.320000
11
0.500009
21
1072.320000
0
LINE
8
Calque_1
10
0.500009
20
1072.320000
11
0.500009
21
1036.580000
0
LINE
8
Calque_1
10
0.500009
20
1036.580000
11
117.709000
21
1036.580000
0
LINE
8
Calque_1
10
117.709000
20
1036.580000
11
117.709000
21
1072.320000
0
LINE
8
Calque_1
10
117.709000
20
1032.580000
11
0.500009
21
1032.580000
0
LINE
8
Calque_1
10
0.500009
20
1032.580000
11
0.500009
21
1005.030000
0
LINE
8
Calque_1
10
0.500009
20
1005.030000
11
117.709000
21
1005.030000
0
LINE
8
Calque_1
10
117.709000
20
1005.030000
11
117.709000
21
1022.510000
0
LINE
8
Calque_1
10
117.709000
20
1022.510000
11
117.709000
21
1032.580000
0
LINE
8
Calque_1
10
159.933000
20
1022.510000
11
121.708000
21
1022.510000
0
LINE
8
Calque_1
10
121.708000
20
1022.510000
11
121.708000
21
1005.030000
0
LINE
8
Calque_1
10
121.708000
20
1005.030000
11
159.933000
21
1005.030000
0
LINE
8
Calque_1
10
159.933000
20
1005.030000
11
159.933000
21
1022.510000
0
LINE
8
Calque_1
10
331.500000
20
1019.330000
11
294.310000
21
1019.330000
0
LINE
8
Calque_1
10
294.310000
20
1019.330000
11
252.976000
21
1019.330000
0
LINE
8
Calque_1
10
252.976000
20
1019.330000
11
252.976000
21
1005.030000
0
LINE
8
Calque_1
10
252.976000
20
1005.030000
11
331.500000
21
1005.030000
0
LINE
8
Calque_1
10
331.500000
20
1005.030000
11
331.500000
21
1019.330000
0
LINE
8
Calque_1
10
331.500000
20
1001.030000
11
252.975000
21
1001.030000
0
LINE
8
Calque_1
10
252.975000
20
1001.030000
11
248.976000
21
1001.030000
0
LINE
8
Calque_1
10
248.976000
20
1001.030000
11
173.921000
21
1001.030000
0
LINE
8
Calque_1
10
173.921000
20
1001.030000
11
173.921000
21
762.209000
0
LINE
8
Calque_1
10
173.921000
20
762.209000
11
331.500000
21
762.209000
0
LINE
8
Calque_1
10
331.500000
20
762.209000
11
331.500000
21
1001.030000
0
LINE
8
Calque_1
10
169.921000
20
1001.030000
11
159.935000
21
1001.030000
0
LINE
8
Calque_1
10
159.935000
20
1001.030000
11
121.708000
21
1001.030000
0
LINE
8
Calque_1
10
121.708000
20
1001.030000
11
117.709000
21
1001.030000
0
LINE
8
Calque_1
10
117.709000
20
1001.030000
11
0.500009
21
1001.030000
0
LINE
8
Calque_1
10
0.500009
20
1001.030000
11
0.500009
21
762.209000
0
LINE
8
Calque_1
10
0.500009
20
762.209000
11
169.921000
21
762.209000
0
LINE
8
Calque_1
10
169.921000
20
762.209000
11
169.921000
21
1001.030000
0
LINE
8
Calque_1
10
331.500000
20
758.208000
11
173.921000
21
758.208000
0
LINE
8
Calque_1
10
173.921000
20
758.208000
11
0.500009
21
758.208000
0
LINE
8
Calque_1
10
0.500009
20
758.208000
11
0.500009
21
578.515000
0
LINE
8
Calque_1
10
0.500009
20
578.515000
11
331.500000
21
578.515000
0
LINE
8
Calque_1
10
331.500000
20
578.515000
11
331.500000
21
758.208000
0
LINE
8
Calque_1
10
331.500000
20
574.515000
11
0.500009
21
574.515000
0
LINE
8
Calque_1
10
0.500009
20
574.515000
11
0.500009
21
0.500459
0
LINE
8
Calque_1
10
0.500009
20
0.500459
11
331.500000
21
0.500459
0
LINE
8
Calque_1
10
331.500000
20
0.500459
11
331.500000
21
574.515000
0
LINE
8
Calque_1
10
168.783000
20
1033.050000
11
169.389896
21
1032.981512
0
LINE
8
Calque_1
10
169.389896
20
1032.981512
11
169.985099
21
1033.066851
0
LINE
8
Calque_1
10
169.985099
20
1033.066851
11
170.540113
21
1033.298175
0
LINE
8
Calque_1
10
170.540113
20
1033.298175
11
171.026440
21
1033.667643
0
LINE
8
Calque_1
10
171.027000
20
1033.670000
11
171.401067
21
1033.722890
0
LINE
8
Calque_1
10
171.401000
20
1033.720000
11
172.498050
21
1033.745135
0
LINE
8
Calque_1
10
172.498000
20
1033.750000
11
173.631030
21
1033.774077
0
LINE
8
Calque_1
10
173.631000
20
1033.770000
11
174.670476
21
1033.916291
0
LINE
8
Calque_1
10
174.670476
20
1033.916291
11
175.790150
21
1034.228337
0
LINE
8
Calque_1
10
175.790000
20
1034.230000
11
179.506620
21
1035.663620
0
LINE
8
Calque_1
10
179.507000
20
1035.660000
11
183.004710
21
1036.990350
0
LINE
8
Calque_1
10
183.004000
20
1037.000000
11
184.692490
21
1037.385365
0
LINE
8
Calque_1
10
184.693000
20
1037.380000
11
185.812140
21
1037.517715
0
LINE
8
Calque_1
10
185.812000
20
1037.520000
11
188.020500
21
1037.928490
0
LINE
8
Calque_1
10
188.021000
20
1037.930000
11
189.271303
21
1038.332232
0
LINE
8
Calque_1
10
189.271303
20
1038.332232
11
190.555260
21
1039.033230
0
LINE
8
Calque_1
10
190.555000
20
1039.030000
11
191.192336
21
1039.592102
0
LINE
8
Calque_1
10
191.192336
20
1039.592102
11
191.760385
21
1040.339320
0
LINE
8
Calque_1
10
191.760385
20
1040.339320
11
192.173682
21
1041.235396
0
LINE
8
Calque_1
10
192.173682
20
1041.235396
11
192.346760
21
1042.244070
0
LINE
8
Calque_1
10
192.347000
20
1042.240000
11
192.151552
21
1043.368045
0
LINE
8
Calque_1
10
192.151552
20
1043.368045
11
191.781271
21
1043.951080
0
LINE
8
Calque_1
10
191.781000
20
1043.960000
11
191.248651
21
1044.551422
0
LINE
8
Calque_1
10
191.248000
20
1044.550000
11
190.845105
21
1044.927021
0
LINE
8
Calque_1
10
190.845105
20
1044.927021
11
190.768720
21
1044.990654
0
LINE
8
Calque_1
10
190.768720
20
1044.990654
11
190.855941
21
1044.891709
0
LINE
8
Calque_1
10
190.856000
20
1044.890000
11
189.317772
21
1046.208283
0
LINE
8
Calque_1
10
189.317772
20
1046.208283
11
187.718821
21
1047.143234
0
LINE
8
Calque_1
10
187.718821
20
1047.143234
11
184.802960
21
1048.397970
0
LINE
8
Calque_1
10
184.803000
20
1048.400000
11
181.753860
21
1049.744740
0
LINE
8
Calque_1
10
181.754000
20
1049.740000
11
180.383590
21
1050.428551
0
LINE
8
Calque_1
10
180.384000
20
1050.430000
11
179.096310
21
1050.863175
0
LINE
8
Calque_1
10
179.096000
20
1050.860000
11
176.672159
21
1052.251529
0
LINE
8
Calque_1
10
176.672159
20
1052.251529
11
175.200695
21
1053.045003
0
LINE
8
Calque_1
10
175.200695
20
1053.045003
11
173.564520
21
1053.731860
0
LINE
8
Calque_1
10
173.565000
20
1053.730000
11
173.142109
21
1053.523440
0
LINE
8
Calque_1
10
168.186000
20
1030.250000
11
168.783079
21
1033.055590
0
LINE
8
Calque_1
10
173.779000
20
1056.520000
11
174.552555
21
1056.456378
0
LINE
8
Calque_1
10
174.552555
20
1056.456378
11
175.305620
21
1056.644354
0
LINE
8
Calque_1
10
175.306000
20
1056.650000
11
175.370639
21
1056.638181
0
LINE
8
Calque_1
10
175.370639
20
1056.638181
11
175.882218
21
1056.766820
0
LINE
8
Calque_1
10
175.882218
20
1056.766820
11
177.545320
21
1057.165381
0
LINE
8
Calque_1
10
177.545000
20
1057.160000
11
179.192475
21
1057.467518
0
LINE
8
Calque_1
10
179.192475
20
1057.467518
11
180.919390
21
1058.059238
0
LINE
8
Calque_1
10
180.919000
20
1058.060000
11
181.145099
21
1058.184857
0
LINE
8
Calque_1
10
181.145000
20
1058.190000
11
181.775480
21
1058.592325
0
LINE
8
Calque_1
10
181.776000
20
1058.590000
11
185.533210
21
1060.282590
0
LINE
8
Calque_1
10
185.533000
20
1060.280000
11
189.157205
21
1061.860505
0
LINE
8
Calque_1
10
189.157205
20
1061.860505
11
192.664590
21
1063.098950
0
LINE
8
Calque_1
10
192.665000
20
1063.100000
11
196.416738
21
1063.812306
0
LINE
8
Calque_1
10
196.416738
20
1063.812306
11
200.601270
21
1064.463710
0
LINE
8
Calque_1
10
200.601000
20
1064.460000
11
205.220879
21
1065.603890
0
LINE
8
Calque_1
10
205.220879
20
1065.603890
11
209.546960
21
1066.844240
0
LINE
8
Calque_1
10
209.547000
20
1066.850000
11
212.051980
21
1067.504631
0
LINE
8
Calque_1
10
212.052000
20
1067.500000
11
213.599680
21
1067.803688
0
LINE
8
Calque_1
10
213.599000
20
1067.810000
11
213.846668
21
1067.786981
0
LINE
8
Calque_1
10
213.847000
20
1067.780000
11
214.115740
21
1067.786615
0
LINE
8
Calque_1
10
214.116000
20
1067.790000
11
214.322571
21
1067.815665
0
LINE
8
Calque_1
10
214.322000
20
1067.820000
11
214.620018
21
1067.880616
0
LINE
8
Calque_1
10
214.620000
20
1067.880000
11
217.423530
21
1068.573181
0
LINE
8
Calque_1
10
217.424000
20
1068.570000
11
218.125391
21
1068.772459
0
LINE
8
Calque_1
10
218.125000
20
1068.770000
11
218.096298
21
1068.639984
0
LINE
8
Calque_1
10
218.097000
20
1068.640000
11
217.726510
21
1065.924880
0
LINE
8
Calque_1
10
217.726000
20
1065.930000
11
217.644240
21
1063.787879
0
LINE
8
Calque_1
10
217.644240
20
1063.787879
11
217.783602
21
1061.820290
0
LINE
8
Calque_1
10
217.784000
20
1061.820000
11
217.799399
21
1061.716204
0
LINE
8
Calque_1
10
217.799000
20
1061.710000
11
216.874081
21
1061.451555
0
LINE
8
Calque_1
10
216.874000
20
1061.460000
11
214.723345
21
1060.820559
0
LINE
8
Calque_1
10
214.723345
20
1060.820559
11
212.260750
21
1060.019690
0
LINE
8
Calque_1
10
212.261000
20
1060.010000
11
208.167682
21
1058.214658
0
LINE
8
Calque_1
10
208.167682
20
1058.214658
11
204.706510
21
1056.568300
0
LINE
8
Calque_1
10
204.707000
20
1056.570000
11
201.397870
21
1054.896410
0
LINE
8
Calque_1
10
201.397000
20
1054.900000
11
200.578249
21
1054.330667
0
LINE
8
Calque_1
10
200.578249
20
1054.330667
11
200.141690
21
1053.936574
0
LINE
8
Calque_1
10
200.142000
20
1053.940000
11
200.135994
21
1053.934973
0
LINE
8
Calque_1
10
200.136000
20
1053.930000
11
199.702482
21
1053.485735
0
LINE
8
Calque_1
10
199.702482
20
1053.485735
11
199.474683
21
1053.025100
0
LINE
8
Calque_1
10
199.475000
20
1053.030000
11
199.325867
21
1052.634138
0
LINE
8
Calque_1
10
199.325867
20
1052.634138
11
199.282828
21
1051.881050
0
LINE
8
Calque_1
10
199.283000
20
1051.880000
11
199.409128
21
1051.278904
0
LINE
8
Calque_1
10
199.409128
20
1051.278904
11
199.777310
21
1050.595400
0
LINE
8
Calque_1
10
199.777000
20
1050.590000
11
200.410787
21
1050.028902
0
LINE
8
Calque_1
10
200.410787
20
1050.028902
11
201.100660
21
1049.727777
0
LINE
8
Calque_1
10
201.101000
20
1049.730000
11
202.776010
21
1049.398511
0
LINE
8
Calque_1
10
202.776010
20
1049.398511
11
204.447857
21
1049.211568
0
LINE
8
Calque_1
10
204.447857
20
1049.211568
11
207.742208
21
1049.162291
0
LINE
8
Calque_1
10
207.742208
20
1049.162291
11
213.854500
21
1049.598952
0
LINE
8
Calque_1
10
213.854000
20
1049.600000
11
219.855660
21
1049.798861
0
LINE
8
Calque_1
10
219.856000
20
1049.800000
11
230.402100
21
1049.951580
0
LINE
8
Calque_1
10
230.402000
20
1049.950000
11
233.189060
21
1049.885309
0
LINE
8
Calque_1
10
233.189000
20
1049.890000
11
236.688250
21
1049.974799
0
LINE
8
Calque_1
10
236.688000
20
1049.970000
11
238.378020
21
1050.165765
0
LINE
8
Calque_1
10
238.378000
20
1050.170000
11
238.412901
21
1050.182171
0
LINE
8
Calque_1
10
238.413000
20
1050.180000
11
238.661187
21
1050.140895
0
LINE
8
Calque_1
10
238.661000
20
1050.140000
11
239.095189
21
1050.079305
0
LINE
8
Calque_1
10
239.095000
20
1050.080000
11
239.284611
21
1050.035312
0
LINE
8
Calque_1
10
239.285000
20
1050.030000
11
239.671918
21
1049.777694
0
LINE
8
Calque_1
10
239.672000
20
1049.780000
11
240.416476
21
1049.457020
0
LINE
8
Calque_1
10
240.416476
20
1049.457020
11
240.829180
21
1049.379210
0
LINE
8
Calque_1
10
240.829000
20
1049.380000
11
241.602328
21
1049.224822
0
LINE
8
Calque_1
10
241.602000
20
1049.230000
11
244.224640
21
1048.985922
0
LINE
8
Calque_1
10
244.225000
20
1048.980000
11
244.723424
21
1048.882395
0
LINE
8
Calque_1
10
244.724000
20
1048.880000
11
244.194752
21
1046.144850
0
LINE
8
Calque_1
10
244.194000
20
1046.150000
11
243.811345
21
1042.939111
0
LINE
8
Calque_1
10
243.811345
20
1042.939111
11
243.758777
21
1039.720820
0
LINE
8
Calque_1
10
243.759000
20
1039.720000
11
243.892599
21
1036.367180
0
LINE
8
Calque_1
10
243.893000
20
1036.370000
11
243.737088
21
1034.098406
0
LINE
8
Calque_1
10
243.737088
20
1034.098406
11
243.411530
21
1031.787580
0
LINE
8
Calque_1
10
243.411000
20
1031.780000
11
243.259412
21
1029.580230
0
LINE
8
Calque_1
10
243.260000
20
1029.580000
11
243.278494
21
1025.715420
0
LINE
8
Calque_1
10
243.278000
20
1025.720000
11
243.048091
21
1024.093114
0
LINE
8
Calque_1
10
243.048091
20
1024.093114
11
242.954383
21
1023.666651
0
LINE
8
Calque_1
10
242.954383
20
1023.666651
11
243.016965
21
1023.633790
0
LINE
8
Calque_1
10
243.017000
20
1023.630000
11
242.347753
21
1023.120803
0
LINE
8
Calque_1
10
242.347753
20
1023.120803
11
241.395320
21
1022.878267
0
LINE
8
Calque_1
10
241.395000
20
1022.880000
11
240.016751
21
1022.825522
0
LINE
8
Calque_1
10
240.016751
20
1022.825522
11
238.351010
21
1022.905665
0
LINE
8
Calque_1
10
238.351000
20
1022.910000
11
232.815400
21
1023.304652
0
LINE
8
Calque_1
10
232.816000
20
1023.300000
11
228.955510
21
1023.389879
0
LINE
8
Calque_1
10
228.955000
20
1023.390000
11
226.534521
21
1023.290150
0
LINE
8
Calque_1
10
226.534521
20
1023.290150
11
224.366920
21
1023.257947
0
LINE
8
Calque_1
10
224.367000
20
1023.260000
11
220.534489
21
1023.516421
0
LINE
8
Calque_1
10
220.534489
20
1023.516421
11
216.480060
21
1023.736329
0
LINE
8
Calque_1
10
216.480000
20
1023.740000
11
212.973040
21
1023.714865
0
LINE
8
Calque_1
10
212.973000
20
1023.710000
11
208.642350
21
1023.757307
0
LINE
8
Calque_1
10
208.643000
20
1023.760000
11
205.495730
21
1023.932640
0
LINE
8
Calque_1
10
205.495000
20
1023.930000
11
203.350730
21
1024.293802
0
LINE
8
Calque_1
10
203.351000
20
1024.290000
11
197.817970
21
1024.950293
0
LINE
8
Calque_1
10
197.818000
20
1024.960000
11
195.890928
21
1025.237230
0
LINE
8
Calque_1
10
195.890928
20
1025.237230
11
193.484260
21
1025.390080
0
LINE
8
Calque_1
10
193.484000
20
1025.390000
11
192.487152
21
1025.387354
0
LINE
8
Calque_1
10
192.488000
20
1025.380000
11
191.977241
21
1025.382646
0
LINE
8
Calque_1
10
191.977000
20
1025.390000
11
191.650992
21
1025.395546
0
LINE
8
Calque_1
10
191.650992
20
1025.395546
11
190.846040
21
1025.065754
0
LINE
8
Calque_1
10
190.846000
20
1025.060000
11
190.148322
21
1024.421568
0
LINE
8
Calque_1
10
190.148322
20
1024.421568
11
189.839001
21
1023.916705
0
LINE
8
Calque_1
10
189.839001
20
1023.916705
11
189.656970
21
1023.320660
0
LINE
8
Calque_1
10
189.657000
20
1023.320000
11
189.727221
21
1022.271282
0
LINE
8
Calque_1
10
189.727221
20
1022.271282
11
190.025937
21
1021.648470
0
LINE
8
Calque_1
10
190.026000
20
1021.650000
11
190.698000
21
1020.813850
0
LINE
8
Calque_1
10
190.698000
20
1020.813850
11
191.376920
21
1020.264295
0
LINE
8
Calque_1
10
191.376920
20
1020.264295
11
192.675370
21
1019.598740
0
LINE
8
Calque_1
10
192.675000
20
1019.600000
11
193.744810
21
1019.125232
0
LINE
8
Calque_1
10
193.745000
20
1019.120000
11
194.133668
21
1018.955247
0
LINE
8
Calque_1
10
194.133668
20
1018.955247
11
194.216001
21
1018.921728
0
LINE
8
Calque_1
10
194.216001
20
1018.921728
11
194.153508
21
1018.955059
0
LINE
8
Calque_1
10
194.153000
20
1018.960000
11
195.732030
21
1018.197445
0
LINE
8
Calque_1
10
195.732000
20
1018.200000
11
203.151860
21
1014.819450
0
LINE
8
Calque_1
10
203.152000
20
1014.820000
11
204.401660
21
1014.307714
0
LINE
8
Calque_1
10
204.402000
20
1014.300000
11
205.052528
21
1014.116035
0
LINE
8
Calque_1
10
205.052000
20
1014.120000
11
205.068907
21
1014.112063
0
LINE
8
Calque_1
10
205.069000
20
1014.110000
11
206.052489
21
1013.724106
0
LINE
8
Calque_1
10
206.053000
20
1013.730000
11
206.640829
21
1013.486954
0
LINE
8
Calque_1
10
206.641000
20
1013.480000
11
206.962148
21
1013.295030
0
LINE
8
Calque_1
10
206.962000
20
1013.300000
11
207.113590
21
1013.230097
0
LINE
8
Calque_1
10
207.113000
20
1013.230000
11
207.609358
21
1013.028044
0
LINE
8
Calque_1
10
207.610000
20
1013.030000
11
207.875152
21
1012.931416
0
LINE
8
Calque_1
10
207.875000
20
1012.930000
11
207.581588
21
1012.363739
0
LINE
8
Calque_1
10
207.582000
20
1012.360000
11
206.313330
21
1009.556480
0
LINE
8
Calque_1
10
206.313000
20
1009.560000
11
206.372229
21
1009.760729
0
LINE
8
Calque_1
10
206.372229
20
1009.760729
11
206.265737
21
1009.678487
0
LINE
8
Calque_1
10
206.265737
20
1009.678487
11
205.812520
21
1008.581149
0
LINE
8
Calque_1
10
205.812000
20
1008.580000
11
203.577790
21
1008.926921
0
LINE
8
Calque_1
10
203.577790
20
1008.926921
11
201.286100
21
1009.479741
0
LINE
8
Calque_1
10
201.286000
20
1009.480000
11
195.684110
21
1011.057470
0
LINE
8
Calque_1
10
195.685000
20
1011.060000
11
192.833454
21
1012.175622
0
LINE
8
Calque_1
10
192.833454
20
1012.175622
11
189.802560
21
1013.606080
0
LINE
8
Calque_1
10
189.802000
20
1013.600000
11
186.998990
21
1014.889230
0
LINE
8
Calque_1
10
186.999000
20
1014.890000
11
184.963431
21
1016.100612
0
LINE
8
Calque_1
10
184.963431
20
1016.100612
11
183.151880
21
1017.500300
0
LINE
8
Calque_1
10
183.152000
20
1017.500000
11
180.890125
21
1018.956854
0
LINE
8
Calque_1
10
180.890125
20
1018.956854
11
178.951860
21
1020.178140
0
LINE
8
Calque_1
10
178.952000
20
1020.180000
11
177.628350
21
1021.238520
0
LINE
8
Calque_1
10
177.628000
20
1021.240000
11
176.404237
21
1022.186982
0
LINE
8
Calque_1
10
176.404237
20
1022.186982
11
175.545920
21
1022.750190
0
LINE
8
Calque_1
10
175.546000
20
1022.750000
11
174.327160
21
1023.756080
0
LINE
8
Calque_1
10
174.327000
20
1023.750000
11
173.737123
21
1024.356345
0
LINE
8
Calque_1
10
173.737000
20
1024.360000
11
173.272998
21
1025.202697
0
LINE
8
Calque_1
10
173.273000
20
1025.200000
11
172.570451
21
1026.047824
0
LINE
8
Calque_1
10
172.570451
20
1026.047824
11
172.490029
21
1026.058359
0
LINE
8
Calque_1
10
172.490029
20
1026.058359
11
172.653302
21
1025.838730
0
LINE
8
Calque_1
10
172.654000
20
1025.840000
11
171.875023
21
1026.607661
0
LINE
8
Calque_1
10
171.875000
20
1026.610000
11
171.675629
21
1026.911122
0
LINE
8
Calque_1
10
171.675000
20
1026.910000
11
171.022462
21
1027.976160
0
LINE
8
Calque_1
10
171.023000
20
1027.980000
11
170.320590
21
1029.145380
0
LINE
8
Calque_1
10
170.320000
20
1029.140000
11
169.641210
21
1030.134806
0
LINE
8
Calque_1
10
169.642000
20
1030.140000
11
168.923014
21
1030.308943
0
LINE
8
Calque_1
10
168.923014
20
1030.308943
11
168.186800
21
1030.249961
0
LINE
8
Calque_1
10
173.142000
20
1053.530000
11
173.779161
21
1056.524660
0
LINE
8
Calque_1
10
205.052000
20
1014.120000
11
205.198949
21
1014.086610
0
LINE
8
Calque_1
10
205.199000
20
1014.090000
11
205.052051
21
1014.123390
0
LINE
8
Calque_1
10
168.186000
20
1030.250000
11
168.185788
21
1030.250159
0
LINE
8
Calque_1
10
238.413000
20
1050.180000
11
238.413000
21
1050.180000
0
LINE
8
Calque_1
10
172.203000
20
1049.120000
11
174.333166
21
1048.023845
0
LINE
8
Calque_1
10
174.333166
20
1048.023845
11
177.009970
21
1046.570350
0
LINE
8
Calque_1
10
177.010000
20
1046.570000
11
178.065391
21
1046.155021
0
LINE
8
Calque_1
10
178.065391
20
1046.155021
11
178.522740
21
1046.034563
0
LINE
8
Calque_1
10
178.523000
20
1046.030000
11
179.800420
21
1045.381031
0
LINE
8
Calque_1
10
179.801000
20
1045.390000
11
182.861430
21
1044.040650
0
LINE
8
Calque_1
10
182.861000
20
1044.040000
11
186.246180
21
1042.445540
0
LINE
8
Calque_1
10
186.246000
20
1042.440000
11
185.197250
21
1042.249368
0
LINE
8
Calque_1
10
185.197000
20
1042.250000
11
183.769550
21
1042.061934
0
LINE
8
Calque_1
10
183.770000
20
1042.060000
11
181.514240
21
1041.526124
0
LINE
8
Calque_1
10
181.514000
20
1041.530000
11
177.765010
21
1040.109740
0
LINE
8
Calque_1
10
177.765000
20
1040.110000
11
174.197920
21
1038.731870
0
LINE
8
Calque_1
10
174.198000
20
1038.730000
11
173.831541
21
1038.663371
0
LINE
8
Calque_1
10
173.831541
20
1038.663371
11
173.177500
21
1038.525504
0
LINE
8
Calque_1
10
173.178000
20
1038.530000
11
173.136902
21
1038.522856
0
LINE
8
Calque_1
10
173.137000
20
1038.520000
11
173.177100
21
1038.527144
0
LINE
8
Calque_1
10
173.177000
20
1038.530000
11
172.519800
21
1038.523915
0
LINE
8
Calque_1
10
172.519000
20
1038.520000
11
171.064320
21
1038.483011
0
LINE
8
Calque_1
10
171.065000
20
1038.480000
11
169.893950
21
1038.265714
0
LINE
8
Calque_1
10
169.894000
20
1038.270000
11
172.203720
21
1049.119700
0
LINE
8
Calque_1
10
8.094330
20
1057.470000
11
9.792000
21
1058.998600
0
LINE
8
Calque_1
10
9.792010
20
1059.000000
11
10.772025
21
1060.044280
0
LINE
8
Calque_1
10
10.772000
20
1060.050000
11
10.585410
21
1055.150067
0
LINE
8
Calque_1
10
10.585410
20
1055.150067
11
10.647863
21
1052.619668
0
LINE
8
Calque_1
10
10.647863
20
1052.619668
11
10.895587
21
1050.053500
0
LINE
8
Calque_1
10
10.895600
20
1050.050000
11
11.719961
21
1046.049450
0
LINE
8
Calque_1
10
11.720000
20
1046.050000
11
12.122246
21
1044.781590
0
LINE
8
Calque_1
10
12.122200
20
1044.780000
11
11.259659
21
1045.100013
0
LINE
8
Calque_1
10
11.259700
20
1045.100000
11
10.089266
21
1045.863471
0
LINE
8
Calque_1
10
10.089266
20
1045.863471
11
8.334580
21
1047.329430
0
LINE
8
Calque_1
10
8.334550
20
1047.330000
11
6.921309
21
1048.620273
0
LINE
8
Calque_1
10
6.921309
20
1048.620273
11
6.184680
21
1049.447430
0
LINE
8
Calque_1
10
6.184680
20
1049.450000
11
5.677316
21
1051.149360
0
LINE
8
Calque_1
10
5.677320
20
1051.150000
11
5.548389
21
1051.726288
0
LINE
8
Calque_1
10
5.548380
20
1051.720000
11
5.940704
21
1053.542290
0
LINE
8
Calque_1
10
5.940710
20
1053.550000
11
6.768326
21
1055.613770
0
LINE
8
Calque_1
10
6.768320
20
1055.610000
11
7.397763
21
1056.400733
0
LINE
8
Calque_1
10
7.397770
20
1056.400000
11
8.094338
21
1057.473250
0
LINE
8
Calque_1
10
169.894000
20
1038.270000
11
169.894000
21
1038.270000
0
LINE
8
Calque_1
10
19.010300
20
1063.040000
11
19.743565
21
1062.974489
0
LINE
8
Calque_1
10
19.743600
20
1062.980000
11
22.535400
21
1062.320421
0
LINE
8
Calque_1
10
22.535400
20
1062.320000
11
25.009990
21
1061.606790
0
LINE
8
Calque_1
10
25.010000
20
1061.600000
11
25.093211
21
1061.575658
0
LINE
8
Calque_1
10
25.093200
20
1061.580000
11
26.486600
21
1061.276973
0
LINE
8
Calque_1
10
26.486600
20
1061.280000
11
27.316200
21
1060.976391
0
LINE
8
Calque_1
10
27.316200
20
1060.970000
11
30.199847
21
1059.512835
0
LINE
8
Calque_1
10
30.199847
20
1059.512835
11
33.286670
21
1057.787940
0
LINE
8
Calque_1
10
33.286700
20
1057.790000
11
37.899020
21
1055.361760
0
LINE
8
Calque_1
10
37.899000
20
1055.360000
11
41.126730
21
1053.658920
0
LINE
8
Calque_1
10
41.126700
20
1053.660000
11
42.029960
21
1053.085564
0
LINE
8
Calque_1
10
42.030000
20
1053.090000
11
42.291646
21
1052.828380
0
LINE
8
Calque_1
10
42.291600
20
1052.820000
11
43.390280
21
1051.985320
0
LINE
8
Calque_1
10
43.390300
20
1051.990000
11
44.033660
21
1051.552327
0
LINE
8
Calque_1
10
44.033600
20
1051.550000
11
43.022280
21
1050.633432
0
LINE
8
Calque_1
10
43.022300
20
1050.640000
11
42.406060
21
1050.242332
0
LINE
8
Calque_1
10
42.406100
20
1050.240000
11
41.825420
21
1049.731445
0
LINE
8
Calque_1
10
41.825400
20
1049.730000
11
40.778600
21
1048.923551
0
LINE
8
Calque_1
10
40.778600
20
1048.920000
11
40.137674
21
1048.278968
0
LINE
8
Calque_1
10
40.137700
20
1048.280000
11
40.134790
21
1048.273915
0
LINE
8
Calque_1
10
40.134700
20
1048.280000
11
40.005795
21
1048.199805
0
LINE
8
Calque_1
10
40.005800
20
1048.200000
11
38.221930
21
1047.593258
0
LINE
8
Calque_1
10
38.221900
20
1047.590000
11
36.354450
21
1046.757040
0
LINE
8
Calque_1
10
36.354400
20
1046.760000
11
35.876378
21
1046.679990
0
LINE
8
Calque_1
10
35.876400
20
1046.680000
11
34.616010
21
1046.623512
0
LINE
8
Calque_1
10
34.616000
20
1046.620000
11
32.184462
21
1046.325718
0
LINE
8
Calque_1
10
32.184462
20
1046.325718
11
29.711210
21
1045.859192
0
LINE
8
Calque_1
10
29.711200
20
1045.860000
11
27.207050
21
1044.996586
0
LINE
8
Calque_1
10
27.207100
20
1044.990000
11
26.115270
21
1044.617838
0
LINE
8
Calque_1
10
26.115300
20
1044.620000
11
25.807431
21
1044.570999
0
LINE
8
Calque_1
10
25.807400
20
1044.570000
11
19.329220
21
1044.801986
0
LINE
8
Calque_1
10
19.329200
20
1044.810000
11
19.614209
21
1045.878680
0
LINE
8
Calque_1
10
19.614200
20
1045.870000
11
19.691842
21
1047.165375
0
LINE
8
Calque_1
10
19.691842
20
1047.165375
11
19.667011
21
1047.907130
0
LINE
8
Calque_1
10
19.667000
20
1047.910000
11
19.844376
21
1050.732250
0
LINE
8
Calque_1
10
19.844400
20
1050.730000
11
19.765396
21
1055.377080
0
LINE
8
Calque_1
10
19.765400
20
1055.380000
11
19.571944
21
1059.123202
0
LINE
8
Calque_1
10
19.571944
20
1059.123202
11
19.361533
21
1061.062786
0
LINE
8
Calque_1
10
19.361533
20
1061.062786
11
19.009672
21
1063.038800
0
LINE
8
Calque_1
10
25.807500
20
1044.570000
11
26.108119
21
1044.550156
0
LINE
8
Calque_1
10
26.108100
20
1044.550000
11
25.807481
21
1044.569844
0
LINE
8
Calque_1
10
19.009700
20
1063.040000
11
19.009700
21
1063.040000
0
LINE
8
Calque_1
10
40.134700
20
1048.280000
11
40.134700
21
1048.280000
0
LINE
8
Calque_1
10
74.907500
20
1061.700000
11
75.852609
21
1062.941930
0
LINE
8
Calque_1
10
75.852600
20
1062.940000
11
76.945460
21
1064.225290
0
LINE
8
Calque_1
10
76.945400
20
1064.230000
11
79.283640
21
1064.341892
0
LINE
8
Calque_1
10
79.284100
20
1064.340000
11
78.501411
21
1062.820610
0
LINE
8
Calque_1
10
78.501400
20
1062.820000
11
78.069430
21
1061.153851
0
LINE
8
Calque_1
10
78.069430
20
1061.153851
11
77.840911
21
1059.744300
0
LINE
8
Calque_1
10
77.840900
20
1059.740000
11
77.569487
21
1057.077112
0
LINE
8
Calque_1
10
77.569487
20
1057.077112
11
77.635221
21
1054.380370
0
LINE
8
Calque_1
10
77.635200
20
1054.390000
11
77.687699
21
1053.688141
0
LINE
8
Calque_1
10
77.687700
20
1053.680000
11
77.796110
21
1052.642460
0
LINE
8
Calque_1
10
77.796200
20
1052.650000
11
78.094001
21
1051.389740
0
LINE
8
Calque_1
10
78.094000
20
1051.390000
11
78.384478
21
1049.473316
0
LINE
8
Calque_1
10
78.384478
20
1049.473316
11
78.920388
21
1047.121460
0
LINE
8
Calque_1
10
78.920300
20
1047.120000
11
78.660771
21
1047.240941
0
LINE
8
Calque_1
10
78.660800
20
1047.240000
11
76.374820
21
1049.354470
0
LINE
8
Calque_1
10
76.374800
20
1049.350000
11
74.812960
21
1051.249280
0
LINE
8
Calque_1
10
74.813000
20
1051.250000
11
74.095731
21
1052.109366
0
LINE
8
Calque_1
10
74.095700
20
1052.110000
11
73.703091
21
1053.218500
0
LINE
8
Calque_1
10
73.703100
20
1053.220000
11
73.379150
21
1054.715340
0
LINE
8
Calque_1
10
73.379200
20
1054.710000
11
73.371730
21
1056.005157
0
LINE
8
Calque_1
10
73.371730
20
1056.005157
11
73.543829
21
1057.988790
0
LINE
8
Calque_1
10
73.543800
20
1057.990000
11
73.952770
21
1059.875143
0
LINE
8
Calque_1
10
73.952770
20
1059.875143
11
74.225268
21
1060.760160
0
LINE
8
Calque_1
10
74.225300
20
1060.760000
11
74.907472
21
1061.697285
0
LINE
8
Calque_1
10
79.283700
20
1064.340000
11
79.284200
21
1064.340000
0
LINE
8
Calque_1
10
85.647700
20
1064.160000
11
88.157140
21
1063.751722
0
LINE
8
Calque_1
10
88.157200
20
1063.750000
11
91.154880
21
1063.153418
0
LINE
8
Calque_1
10
91.154900
20
1063.160000
11
93.162970
21
1062.449965
0
LINE
8
Calque_1
10
93.162900
20
1062.450000
11
94.777930
21
1061.983408
0
LINE
8
Calque_1
10
94.778000
20
1061.980000
11
97.027336
21
1060.995158
0
LINE
8
Calque_1
10
97.027336
20
1060.995158
11
99.673010
21
1059.862860
0
LINE
8
Calque_1
10
99.673000
20
1059.860000
11
102.262240
21
1059.142689
0
LINE
8
Calque_1
10
102.262000
20
1059.150000
11
106.013415
21
1058.083912
0
LINE
8
Calque_1
10
106.013415
20
1058.083912
11
109.497860
21
1056.904140
0
LINE
8
Calque_1
10
109.498000
20
1056.900000
11
111.366010
21
1056.115564
0
LINE
8
Calque_1
10
111.366000
20
1056.110000
11
112.358840
21
1055.638275
0
LINE
8
Calque_1
10
112.359000
20
1055.640000
11
112.612029
21
1055.470905
0
LINE
8
Calque_1
10
112.612000
20
1055.470000
11
112.660900
21
1055.413803
0
LINE
8
Calque_1
10
112.661000
20
1055.420000
11
110.589790
21
1054.746848
0
LINE
8
Calque_1
10
110.590000
20
1054.740000
11
109.011506
21
1053.954982
0
LINE
8
Calque_1
10
109.011506
20
1053.954982
11
108.036830
21
1053.379280
0
LINE
8
Calque_1
10
108.036000
20
1053.380000
11
105.652180
21
1052.411811
0
LINE
8
Calque_1
10
105.653000
20
1052.420000
11
103.990166
21
1051.437117
0
LINE
8
Calque_1
10
103.990166
20
1051.437117
11
102.883180
21
1050.690630
0
LINE
8
Calque_1
10
102.883000
20
1050.690000
11
102.759900
21
1050.620997
0
LINE
8
Calque_1
10
102.760000
20
1050.620000
11
102.354490
21
1050.473104
0
LINE
8
Calque_1
10
102.354000
20
1050.470000
11
101.172640
21
1049.900670
0
LINE
8
Calque_1
10
101.173000
20
1049.900000
11
100.498390
21
1049.515190
0
LINE
8
Calque_1
10
100.498390
20
1049.515190
11
100.393411
21
1049.417639
0
LINE
8
Calque_1
10
100.393000
20
1049.420000
11
99.411011
21
1049.035640
0
LINE
8
Calque_1
10
99.411300
20
1049.030000
11
97.817020
21
1048.264403
0
LINE
8
Calque_1
10
97.817000
20
1048.270000
11
96.777190
21
1047.981552
0
LINE
8
Calque_1
10
96.777200
20
1047.980000
11
94.074520
21
1047.066818
0
LINE
8
Calque_1
10
94.074500
20
1047.070000
11
92.955270
21
1046.816106
0
LINE
8
Calque_1
10
92.955300
20
1046.810000
11
91.956721
21
1046.454295
0
LINE
8
Calque_1
10
91.956700
20
1046.460000
11
89.925645
21
1046.258001
0
LINE
8
Calque_1
10
89.925645
20
1046.258001
11
87.474470
21
1046.198698
0
LINE
8
Calque_1
10
87.474500
20
1046.200000
11
87.436800
21
1046.200000
0
LINE
8
Calque_1
10
87.436800
20
1046.200000
11
87.516799
21
1046.558907
0
LINE
8
Calque_1
10
87.516800
20
1046.560000
11
87.677455
21
1047.804474
0
LINE
8
Calque_1
10
87.677455
20
1047.804474
11
87.660905
21
1048.909135
0
LINE
8
Calque_1
10
87.660905
20
1048.909135
11
87.460999
21
1050.624340
0
LINE
8
Calque_1
10
87.461000
20
1050.620000
11
86.690651
21
1058.304050
0
LINE
8
Calque_1
10
86.690600
20
1058.300000
11
86.242507
21
1061.317942
0
LINE
8
Calque_1
10
86.242507
20
1061.317942
11
85.647800
21
1064.156920
0
LINE
8
Calque_1
10
183.661000
20
960.376000
11
185.053160
21
963.313800
0
LINE
8
Calque_1
10
185.053000
20
963.314000
11
185.162922
21
963.405645
0
LINE
8
Calque_1
10
185.162922
20
963.405645
11
185.659678
21
964.063828
0
LINE
8
Calque_1
10
185.660000
20
964.064000
11
186.961134
21
965.914966
0
LINE
8
Calque_1
10
186.961134
20
965.914966
11
188.181300
21
967.438490
0
LINE
8
Calque_1
10
188.181000
20
967.438000
11
190.275095
21
969.271139
0
LINE
8
Calque_1
10
190.275095
20
969.271139
11
192.732130
21
971.108560
0
LINE
8
Calque_1
10
192.732000
20
971.109000
11
196.775160
21
974.021480
0
LINE
8
Calque_1
10
196.775000
20
974.021000
11
199.028610
21
975.442600
0
LINE
8
Calque_1
10
199.029000
20
975.443000
11
201.932183
21
977.787514
0
LINE
8
Calque_1
10
201.932183
20
977.787514
11
204.435900
21
980.082520
0
LINE
8
Calque_1
10
204.436000
20
980.082000
11
205.527920
21
981.080377
0
LINE
8
Calque_1
10
205.528000
20
981.081000
11
206.570310
21
981.578125
0
LINE
8
Calque_1
10
206.570000
20
981.578000
11
206.749840
21
981.589906
0
LINE
8
Calque_1
10
206.750000
20
981.590000
11
207.044039
21
981.665962
0
LINE
8
Calque_1
10
207.044000
20
981.666000
11
207.988127
21
982.036522
0
LINE
8
Calque_1
10
207.988000
20
982.036000
11
209.565886
21
982.758643
0
LINE
8
Calque_1
10
209.565886
20
982.758643
11
211.063260
21
983.567170
0
LINE
8
Calque_1
10
211.063000
20
983.567000
11
212.136320
21
984.157126
0
LINE
8
Calque_1
10
212.137000
20
984.157000
11
213.758090
21
984.458810
0
LINE
8
Calque_1
10
213.758000
20
984.459000
11
217.484311
21
985.302848
0
LINE
8
Calque_1
10
217.484311
20
985.302848
11
221.291900
21
986.389110
0
LINE
8
Calque_1
10
221.292000
20
986.389000
11
223.180749
21
987.081705
0
LINE
8
Calque_1
10
223.180749
20
987.081705
11
224.739850
21
987.587880
0
LINE
8
Calque_1
10
224.739000
20
987.588000
11
226.161235
21
987.814606
0
LINE
8
Calque_1
10
226.161235
20
987.814606
11
228.146010
21
988.206569
0
LINE
8
Calque_1
10
228.146000
20
988.207000
11
231.443551
21
989.247724
0
LINE
8
Calque_1
10
231.443551
20
989.247724
11
234.332180
21
990.091120
0
LINE
8
Calque_1
10
234.333000
20
990.091000
11
236.925610
21
990.247078
0
LINE
8
Calque_1
10
236.925000
20
990.247000
11
240.015760
21
990.587016
0
LINE
8
Calque_1
10
240.016000
20
990.587000
11
242.861830
21
991.104286
0
LINE
8
Calque_1
10
242.862000
20
991.104000
11
249.510680
21
992.083777
0
LINE
8
Calque_1
10
249.511000
20
992.084000
11
251.129500
21
992.415761
0
LINE
8
Calque_1
10
251.129000
20
992.416000
11
252.151109
21
992.608620
0
LINE
8
Calque_1
10
252.151109
20
992.608620
11
252.559920
21
992.686801
0
LINE
8
Calque_1
10
252.560000
20
992.687000
11
253.503098
21
992.697319
0
LINE
8
Calque_1
10
253.504000
20
992.686000
11
256.142080
21
992.244676
0
LINE
8
Calque_1
10
256.142000
20
992.245000
11
256.145995
21
992.222246
0
LINE
8
Calque_1
10
256.146000
20
992.222000
11
256.165103
21
992.056106
0
LINE
8
Calque_1
10
256.165000
20
992.056000
11
256.168604
21
990.365591
0
LINE
8
Calque_1
10
256.168604
20
990.365591
11
256.299879
21
987.842300
0
LINE
8
Calque_1
10
256.300000
20
987.842000
11
256.354800
21
987.581571
0
LINE
8
Calque_1
10
256.355000
20
987.582000
11
256.876736
21
985.746934
0
LINE
8
Calque_1
10
256.876736
20
985.746934
11
257.179240
21
984.325350
0
LINE
8
Calque_1
10
257.179000
20
984.325000
11
257.181117
21
984.314152
0
LINE
8
Calque_1
10
257.181000
20
984.315000
11
257.182962
21
983.034798
0
LINE
8
Calque_1
10
257.182962
20
983.034798
11
257.021073
21
981.594440
0
LINE
8
Calque_1
10
257.021073
20
981.594440
11
256.598600
21
978.193420
0
LINE
8
Calque_1
10
256.599000
20
978.193000
11
256.595005
21
978.137173
0
LINE
8
Calque_1
10
256.595000
20
978.137000
11
256.371240
21
973.266000
0
LINE
8
Calque_1
10
256.371000
20
973.266000
11
256.367005
21
973.215888
0
LINE
8
Calque_1
10
256.367000
20
973.216000
11
256.120745
21
970.680493
0
LINE
8
Calque_1
10
256.120745
20
970.680493
11
255.940669
21
967.803930
0
LINE
8
Calque_1
10
255.941000
20
967.804000
11
255.943117
21
967.714121
0
LINE
8
Calque_1
10
255.943000
20
967.714000
11
256.248411
21
963.402650
0
LINE
8
Calque_1
10
256.248000
20
963.403000
11
256.586966
21
961.430873
0
LINE
8
Calque_1
10
256.586966
20
961.430873
11
256.903258
21
960.032660
0
LINE
8
Calque_1
10
256.903000
20
960.032000
11
256.984100
21
957.509680
0
LINE
8
Calque_1
10
256.984000
20
957.510000
11
256.987995
21
957.414882
0
LINE
8
Calque_1
10
256.988000
20
957.415000
11
256.854505
21
955.990787
0
LINE
8
Calque_1
10
256.854505
20
955.990787
11
256.596811
21
953.918060
0
LINE
8
Calque_1
10
256.597000
20
953.918000
11
256.589989
21
953.792429
0
LINE
8
Calque_1
10
256.590000
20
953.792000
11
256.534699
21
949.545260
0
LINE
8
Calque_1
10
256.535000
20
949.546000
11
256.655085
21
947.813370
0
LINE
8
Calque_1
10
256.655085
20
947.813370
11
256.838860
21
946.388570
0
LINE
8
Calque_1
10
256.839000
20
946.388000
11
256.841990
21
946.365246
0
LINE
8
Calque_1
10
256.842000
20
946.366000
11
256.901641
21
944.859359
0
LINE
8
Calque_1
10
256.901641
20
944.859359
11
256.814926
21
943.194090
0
LINE
8
Calque_1
10
256.814926
20
943.194090
11
256.646658
21
939.374180
0
LINE
8
Calque_1
10
256.646000
20
939.374000
11
256.648117
21
939.294996
0
LINE
8
Calque_1
10
256.648000
20
939.295000
11
257.233490
21
932.574460
0
LINE
8
Calque_1
10
257.234000
20
932.574000
11
257.479571
21
928.827374
0
LINE
8
Calque_1
10
257.479571
20
928.827374
11
257.602969
21
925.145540
0
LINE
8
Calque_1
10
257.603000
20
925.146000
11
257.605117
21
925.076706
0
LINE
8
Calque_1
10
257.605000
20
925.076000
11
257.569826
21
923.413015
0
LINE
8
Calque_1
10
257.569826
20
923.413015
11
257.346100
21
921.759930
0
LINE
8
Calque_1
10
257.346000
20
921.760000
11
256.510308
21
918.395530
0
LINE
8
Calque_1
10
256.510308
20
918.395530
11
255.364730
21
915.162460
0
LINE
8
Calque_1
10
253.503000
20
992.697000
11
253.504058
21
992.686152
0
LINE
8
Calque_1
10
255.363000
20
915.163000
11
252.078960
21
907.547980
0
LINE
8
Calque_1
10
252.079000
20
907.548000
11
252.063998
21
907.510800
0
LINE
8
Calque_1
10
252.064000
20
907.511000
11
250.973096
21
905.046525
0
LINE
8
Calque_1
10
250.973096
20
905.046525
11
249.712974
21
902.535765
0
LINE
8
Calque_1
10
249.712974
20
902.535765
11
248.406477
21
899.921573
0
LINE
8
Calque_1
10
248.406477
20
899.921573
11
247.176450
21
897.146800
0
LINE
8
Calque_1
10
247.176000
20
897.146000
11
247.146599
21
897.070012
0
LINE
8
Calque_1
10
247.147000
20
897.070000
11
246.407531
21
895.340969
0
LINE
8
Calque_1
10
246.407531
20
895.340969
11
245.479910
21
893.557030
0
LINE
8
Calque_1
10
245.480000
20
893.557000
11
245.459310
21
893.518212
0
LINE
8
Calque_1
10
245.459000
20
893.519000
11
243.994239
21
890.874802
0
LINE
8
Calque_1
10
243.994239
20
890.874802
11
242.387870
21
888.441280
0
LINE
8
Calque_1
10
255.365000
20
915.163000
11
255.363000
21
915.163000
0
LINE
8
Calque_1
10
242.420000
20
888.482000
11
240.494494
21
885.772922
0
LINE
8
Calque_1
10
240.494494
20
885.772922
11
238.802140
21
882.909720
0
LINE
8
Calque_1
10
238.802000
20
882.909000
11
238.791708
21
882.888892
0
LINE
8
Calque_1
10
238.792000
20
882.889000
11
232.453900
21
871.423100
0
LINE
8
Calque_1
10
232.454000
20
871.423000
11
231.299243
21
869.334367
0
LINE
8
Calque_1
10
231.299243
20
869.334367
11
230.283070
21
867.119900
0
LINE
8
Calque_1
10
230.283000
20
867.120000
11
230.272999
21
867.096188
0
LINE
8
Calque_1
10
230.273000
20
867.096000
11
229.094797
21
863.703365
0
LINE
8
Calque_1
10
229.094797
20
863.703365
11
228.200260
21
860.217370
0
LINE
8
Calque_1
10
228.200000
20
860.218000
11
228.193994
21
860.190087
0
LINE
8
Calque_1
10
228.194000
20
860.190000
11
227.641494
21
856.745166
0
LINE
8
Calque_1
10
227.641494
20
856.745166
11
227.283983
21
853.351670
0
LINE
8
Calque_1
10
227.284000
20
853.352000
11
227.006113
21
849.322919
0
LINE
8
Calque_1
10
227.006113
20
849.322919
11
226.929491
21
845.268780
0
LINE
8
Calque_1
10
226.929000
20
845.268000
11
226.946925
21
841.696279
0
LINE
8
Calque_1
10
226.946925
20
841.696279
11
226.752790
21
838.491690
0
LINE
8
Calque_1
10
226.753000
20
838.492000
11
226.769510
21
838.587118
0
LINE
8
Calque_1
10
242.388000
20
888.441000
11
242.419999
21
888.481799
0
LINE
8
Calque_1
10
226.753000
20
838.487000
11
226.349359
21
835.772844
0
LINE
8
Calque_1
10
226.349359
20
835.772844
11
226.179389
21
833.025290
0
LINE
8
Calque_1
10
226.179000
20
833.025000
11
226.179000
21
832.996610
0
LINE
8
Calque_1
10
226.179000
20
832.997000
11
226.018811
21
823.706120
0
LINE
8
Calque_1
10
226.019000
20
823.706000
11
226.019000
21
823.695681
0
LINE
8
Calque_1
10
226.019000
20
823.696000
11
225.946600
21
815.146130
0
LINE
8
Calque_1
10
225.946000
20
815.146000
11
225.946000
21
815.126950
0
LINE
8
Calque_1
10
225.946000
20
815.127000
11
226.747499
21
798.916700
0
LINE
8
Calque_1
10
226.748000
20
798.916000
11
226.751995
21
798.863295
0
LINE
8
Calque_1
10
226.752000
20
798.864000
11
226.869488
21
795.339023
0
LINE
8
Calque_1
10
226.869488
20
795.339023
11
226.863630
21
791.627730
0
LINE
8
Calque_1
10
226.864000
20
791.627000
11
226.864000
21
791.602658
0
LINE
8
Calque_1
10
226.864000
20
791.603000
11
227.216236
21
784.240562
0
LINE
8
Calque_1
10
227.216236
20
784.240562
11
227.617948
21
777.089700
0
LINE
8
Calque_1
10
227.618000
20
777.090000
11
227.621995
21
777.018192
0
LINE
8
Calque_1
10
227.622000
20
777.018000
11
227.637645
21
775.206286
0
LINE
8
Calque_1
10
227.637645
20
775.206286
11
227.439059
21
773.475580
0
LINE
8
Calque_1
10
227.439000
20
773.476000
11
227.435005
21
773.458008
0
LINE
8
Calque_1
10
227.435000
20
773.457000
11
227.038980
21
770.535984
0
LINE
8
Calque_1
10
227.038980
20
770.535984
11
226.838140
21
767.649610
0
LINE
8
Calque_1
10
226.838000
20
767.650000
11
225.331630
21
767.917679
0
LINE
8
Calque_1
10
225.331000
20
767.918000
11
222.566830
21
768.254417
0
LINE
8
Calque_1
10
222.567000
20
768.254000
11
218.464930
21
768.965596
0
LINE
8
Calque_1
10
218.465000
20
768.966000
11
209.105890
21
770.430490
0
LINE
8
Calque_1
10
209.106000
20
770.430000
11
205.796186
21
771.231674
0
LINE
8
Calque_1
10
205.796186
20
771.231674
11
202.417530
21
772.215430
0
LINE
8
Calque_1
10
202.418000
20
772.216000
11
197.388350
21
773.629350
0
LINE
8
Calque_1
10
197.388000
20
773.629000
11
196.260643
21
774.090767
0
LINE
8
Calque_1
10
196.260643
20
774.090767
11
195.046030
21
774.768450
0
LINE
8
Calque_1
10
195.046000
20
774.768000
11
192.140656
21
776.195095
0
LINE
8
Calque_1
10
192.140656
20
776.195095
11
189.642720
21
777.521330
0
LINE
8
Calque_1
10
189.643000
20
777.522000
11
188.782592
21
778.087334
0
LINE
8
Calque_1
10
188.782000
20
778.087000
11
188.543600
21
778.320865
0
LINE
8
Calque_1
10
188.543600
20
778.320865
11
187.582590
21
778.893661
0
LINE
8
Calque_1
10
187.583000
20
778.894000
11
185.890600
21
779.567866
0
LINE
8
Calque_1
10
226.770000
20
838.587000
11
226.752987
21
838.486750
0
LINE
8
Calque_1
10
263.430000
20
835.486000
11
264.010654
21
838.128030
0
LINE
8
Calque_1
10
264.010654
20
838.128030
11
264.446745
21
840.730096
0
LINE
8
Calque_1
10
264.446745
20
840.730096
11
265.176660
21
845.748900
0
LINE
8
Calque_1
10
265.176000
20
845.749000
11
265.186848
21
845.820808
0
LINE
8
Calque_1
10
265.187000
20
845.821000
11
265.631784
21
848.159905
0
LINE
8
Calque_1
10
265.631784
20
848.159905
11
266.312510
21
850.537480
0
LINE
8
Calque_1
10
266.313000
20
850.537000
11
266.327023
21
850.582006
0
LINE
8
Calque_1
10
266.327000
20
850.582000
11
267.350200
21
853.734270
0
LINE
8
Calque_1
10
267.350000
20
853.735000
11
267.867805
21
856.448924
0
LINE
8
Calque_1
10
267.867805
20
856.448924
11
268.177827
21
858.623590
0
LINE
8
Calque_1
10
268.178000
20
858.623000
11
268.181969
21
858.642579
0
LINE
8
Calque_1
10
268.182000
20
858.643000
11
268.544302
21
859.811440
0
LINE
8
Calque_1
10
268.544302
20
859.811440
11
269.091834
21
861.106516
0
LINE
8
Calque_1
10
269.091834
20
861.106516
11
270.340520
21
864.237000
0
LINE
8
Calque_1
10
270.340000
20
864.237000
11
270.365400
21
864.324286
0
LINE
8
Calque_1
10
270.365000
20
864.324000
11
271.220238
21
868.118070
0
LINE
8
Calque_1
10
271.221000
20
868.118000
11
271.228937
21
868.153719
0
LINE
8
Calque_1
10
271.229000
20
868.154000
11
272.039454
21
871.499726
0
LINE
8
Calque_1
10
272.039454
20
871.499726
11
273.139450
21
874.697770
0
LINE
8
Calque_1
10
273.139000
20
874.698000
11
273.144027
21
874.710965
0
LINE
8
Calque_1
10
273.144000
20
874.711000
11
274.861436
21
878.304038
0
LINE
8
Calque_1
10
274.861436
20
878.304038
11
276.990270
21
881.779280
0
LINE
8
Calque_1
10
276.990000
20
881.779000
11
277.004552
21
881.801225
0
LINE
8
Calque_1
10
277.005000
20
881.801000
11
278.793854
21
884.421974
0
LINE
8
Calque_1
10
278.793854
20
884.421974
11
280.640450
21
887.270430
0
LINE
8
Calque_1
10
280.640000
20
887.270000
11
280.663813
21
887.310799
0
LINE
8
Calque_1
10
280.664000
20
887.311000
11
281.768136
21
889.444283
0
LINE
8
Calque_1
10
281.768136
20
889.444283
11
282.718926
21
891.588375
0
LINE
8
Calque_1
10
282.718926
20
891.588375
11
284.369700
21
895.800890
0
LINE
8
Calque_1
10
284.370000
20
895.801000
11
284.401009
21
895.886302
0
LINE
8
Calque_1
10
284.401000
20
895.886000
11
285.397887
21
898.219489
0
LINE
8
Calque_1
10
285.397887
20
898.219489
11
286.685090
21
900.624730
0
LINE
8
Calque_1
10
185.890000
20
779.568000
11
183.660440
21
960.376000
0
LINE
8
Calque_1
10
286.658000
20
900.578000
11
288.035929
21
903.190325
0
LINE
8
Calque_1
10
288.035929
20
903.190325
11
289.198390
21
905.770940
0
LINE
8
Calque_1
10
289.198000
20
905.771000
11
289.210435
21
905.798887
0
LINE
8
Calque_1
10
289.210000
20
905.799000
11
292.747770
21
913.436770
0
LINE
8
Calque_1
10
292.748000
20
913.437000
11
292.781602
21
913.517116
0
LINE
8
Calque_1
10
292.782000
20
913.517000
11
293.943079
21
916.306635
0
LINE
8
Calque_1
10
293.943079
20
916.306635
11
295.062470
21
919.430320
0
LINE
8
Calque_1
10
295.062000
20
919.430000
11
295.068879
21
919.453812
0
LINE
8
Calque_1
10
295.069000
20
919.454000
11
295.417158
21
921.161031
0
LINE
8
Calque_1
10
295.417158
20
921.161031
11
295.552687
21
922.782611
0
LINE
8
Calque_1
10
295.552687
20
922.782611
11
295.549589
21
925.700140
0
LINE
8
Calque_1
10
295.550000
20
925.700000
11
295.550000
21
925.735110
0
LINE
8
Calque_1
10
295.550000
20
925.735000
11
295.865290
21
926.876516
0
LINE
8
Calque_1
10
295.865290
20
926.876516
11
296.354094
21
929.170950
0
LINE
8
Calque_1
10
296.354000
20
929.171000
11
296.366965
21
929.344117
0
LINE
8
Calque_1
10
296.367000
20
929.344000
11
296.396395
21
934.435660
0
LINE
8
Calque_1
10
296.396000
20
934.436000
11
296.389915
21
934.525905
0
LINE
8
Calque_1
10
296.390000
20
934.526000
11
296.217942
21
937.410060
0
LINE
8
Calque_1
10
296.218000
20
937.410000
11
296.035041
21
941.309480
0
LINE
8
Calque_1
10
296.035000
20
941.309000
11
295.483609
21
947.108660
0
LINE
8
Calque_1
10
295.484000
20
947.109000
11
295.484000
21
947.119054
0
LINE
8
Calque_1
10
295.483000
20
947.119000
11
295.230995
21
949.359216
0
LINE
8
Calque_1
10
295.230995
20
949.359216
11
295.180185
21
951.122350
0
LINE
8
Calque_1
10
286.685000
20
900.625000
11
286.657616
21
900.578010
0
LINE
8
Calque_1
10
295.161000
20
950.976000
11
295.266159
21
952.122540
0
LINE
8
Calque_1
10
295.266159
20
952.122540
11
295.232156
21
953.140352
0
LINE
8
Calque_1
10
295.232156
20
953.140352
11
295.031275
21
954.772160
0
LINE
8
Calque_1
10
295.031000
20
954.772000
11
294.725063
21
959.644030
0
LINE
8
Calque_1
10
294.725000
20
959.644000
11
294.722090
21
959.679110
0
LINE
8
Calque_1
10
294.722000
20
959.680000
11
294.669295
21
963.146460
0
LINE
8
Calque_1
10
294.670000
20
963.146000
11
294.670000
21
963.183677
0
LINE
8
Calque_1
10
294.671000
20
963.184000
11
294.891662
21
966.786880
0
LINE
8
Calque_1
10
294.891000
20
966.787000
11
294.874031
21
968.708027
0
LINE
8
Calque_1
10
294.874031
20
968.708027
11
294.734810
21
970.497986
0
LINE
8
Calque_1
10
294.734810
20
970.497986
11
294.469837
21
973.701290
0
LINE
8
Calque_1
10
294.470000
20
973.701000
11
294.338740
21
984.840900
0
LINE
8
Calque_1
10
295.180000
20
951.122000
11
295.160950
21
950.975765
0
LINE
8
Calque_1
10
294.338000
20
984.852000
11
295.396860
21
984.460285
0
LINE
8
Calque_1
10
295.397000
20
984.460000
11
296.277559
21
983.991820
0
LINE
8
Calque_1
10
296.278000
20
983.992000
11
297.842240
21
983.001375
0
LINE
8
Calque_1
10
297.842000
20
983.002000
11
300.499740
21
981.705940
0
LINE
8
Calque_1
10
300.500000
20
981.705000
11
302.760840
21
980.702470
0
LINE
8
Calque_1
10
294.339000
20
984.841000
11
294.339000
21
984.852377
0
LINE
8
Calque_1
10
302.761000
20
980.703000
11
304.450310
21
980.074113
0
LINE
8
Calque_1
10
304.450000
20
980.074000
11
305.211205
21
979.571716
0
LINE
8
Calque_1
10
305.212000
20
979.572000
11
306.912130
21
978.654744
0
LINE
8
Calque_1
10
306.912000
20
978.655000
11
307.800311
21
977.897922
0
LINE
8
Calque_1
10
307.800000
20
977.897000
11
309.752860
21
976.351890
0
LINE
8
Calque_1
10
309.753000
20
976.352000
11
310.778669
21
975.153298
0
LINE
8
Calque_1
10
310.778669
20
975.153298
11
312.060880
21
973.799200
0
LINE
8
Calque_1
10
312.061000
20
973.800000
11
313.291500
21
972.825571
0
LINE
8
Calque_1
10
313.291500
20
972.825571
11
314.106330
21
972.278120
0
LINE
8
Calque_1
10
314.106000
20
972.278000
11
314.960735
21
971.246020
0
LINE
8
Calque_1
10
314.961000
20
971.246000
11
316.723180
21
969.375850
0
LINE
8
Calque_1
10
316.723000
20
969.376000
11
318.114120
21
967.020580
0
LINE
8
Calque_1
10
318.114000
20
967.020000
11
318.191549
21
966.616792
0
LINE
8
Calque_1
10
318.191549
20
966.616792
11
318.846233
21
965.312620
0
LINE
8
Calque_1
10
318.846000
20
965.313000
11
320.160130
21
963.457820
0
LINE
8
Calque_1
10
320.160000
20
963.458000
11
320.280650
21
962.945671
0
LINE
8
Calque_1
10
320.280650
20
962.945671
11
320.980101
21
961.494790
0
LINE
8
Calque_1
10
320.981000
20
961.494000
11
321.760805
21
960.199530
0
LINE
8
Calque_1
10
302.761000
20
980.703000
11
302.761000
21
980.703000
0
LINE
8
Calque_1
10
320.305000
20
777.771000
11
320.316906
21
777.681095
0
LINE
8
Calque_1
10
320.317000
20
777.681000
11
320.110810
21
777.271214
0
LINE
8
Calque_1
10
320.110000
20
777.271000
11
319.921379
21
776.570781
0
LINE
8
Calque_1
10
319.922000
20
776.571000
11
319.844504
21
776.502817
0
LINE
8
Calque_1
10
319.844000
20
776.503000
11
319.495200
21
776.135044
0
LINE
8
Calque_1
10
319.495000
20
776.135000
11
319.045394
21
775.889546
0
LINE
8
Calque_1
10
319.046000
20
775.889000
11
318.616582
21
775.455957
0
LINE
8
Calque_1
10
318.616000
20
775.456000
11
318.393803
21
775.288572
0
LINE
8
Calque_1
10
318.394000
20
775.289000
11
318.203315
21
775.139643
0
LINE
8
Calque_1
10
318.203000
20
775.140000
11
317.899126
21
774.840280
0
LINE
8
Calque_1
10
317.900000
20
774.840000
11
317.731540
21
774.624497
0
LINE
8
Calque_1
10
321.760000
20
960.200000
11
320.304290
21
777.771000
0
LINE
8
Calque_1
10
317.725000
20
774.614000
11
317.455787
21
774.476549
0
LINE
8
Calque_1
10
317.456000
20
774.477000
11
316.973321
21
774.159712
0
LINE
8
Calque_1
10
316.973000
20
774.160000
11
316.911008
21
774.143860
0
LINE
8
Calque_1
10
317.731000
20
774.624000
11
317.724915
21
774.613946
0
LINE
8
Calque_1
10
316.911000
20
774.144000
11
316.701715
21
774.046898
0
LINE
8
Calque_1
10
316.701000
20
774.047000
11
316.120690
21
773.854780
0
LINE
8
Calque_1
10
316.121000
20
773.854000
11
313.686520
21
772.979633
0
LINE
8
Calque_1
10
313.687000
20
772.980000
11
312.637980
21
772.584660
0
LINE
8
Calque_1
10
312.638000
20
772.585000
11
312.157914
21
772.458926
0
LINE
8
Calque_1
10
312.158000
20
772.459000
11
312.061904
21
772.448152
0
LINE
8
Calque_1
10
316.911000
20
774.144000
11
316.911000
21
774.144000
0
LINE
8
Calque_1
10
312.127000
20
772.448000
11
312.005556
21
772.415986
0
LINE
8
Calque_1
10
312.006000
20
772.416000
11
312.032908
21
772.441665
0
LINE
8
Calque_1
10
312.033000
20
772.441000
11
311.879515
21
772.423802
0
LINE
8
Calque_1
10
311.879000
20
772.424000
11
310.764840
21
772.193522
0
LINE
8
Calque_1
10
310.765000
20
772.194000
11
308.792530
21
771.644170
0
LINE
8
Calque_1
10
308.792000
20
771.644000
11
305.393250
21
770.543280
0
LINE
8
Calque_1
10
305.394000
20
770.543000
11
299.288960
21
769.148780
0
LINE
8
Calque_1
10
299.289000
20
769.149000
11
297.975370
21
768.768662
0
LINE
8
Calque_1
10
297.975000
20
768.769000
11
297.326481
21
768.674412
0
LINE
8
Calque_1
10
297.326000
20
768.674000
11
297.113593
21
768.631085
0
LINE
8
Calque_1
10
297.114000
20
768.631000
11
296.144568
21
768.634969
0
LINE
8
Calque_1
10
296.145000
20
768.635000
11
294.532680
21
768.436563
0
LINE
8
Calque_1
10
294.532000
20
768.437000
11
290.330180
21
767.952787
0
LINE
8
Calque_1
10
290.330000
20
767.953000
11
287.579790
21
767.567503
0
LINE
8
Calque_1
10
287.580000
20
767.567000
11
286.415230
21
767.433174
0
LINE
8
Calque_1
10
286.416000
20
767.433000
11
285.217100
21
767.340978
0
LINE
8
Calque_1
10
285.217000
20
767.341000
11
284.086830
21
767.158067
0
LINE
8
Calque_1
10
284.086000
20
767.158000
11
283.057140
21
767.100109
0
LINE
8
Calque_1
10
283.058000
20
767.100000
11
281.852900
21
766.896906
0
LINE
8
Calque_1
10
281.852000
20
766.897000
11
279.457840
21
766.655674
0
LINE
8
Calque_1
10
279.458000
20
766.656000
11
276.480910
21
766.537123
0
LINE
8
Calque_1
10
276.481000
20
766.537000
11
275.379250
21
766.430029
0
LINE
8
Calque_1
10
275.379000
20
766.430000
11
271.656529
21
766.348214
0
LINE
8
Calque_1
10
271.656529
20
766.348214
11
267.796020
21
766.376819
0
LINE
8
Calque_1
10
267.797000
20
766.377000
11
265.851890
21
766.377000
0
LINE
8
Calque_1
10
265.851000
20
766.377000
11
265.848090
21
766.453994
0
LINE
8
Calque_1
10
265.848000
20
766.454000
11
265.845354
21
766.471992
0
LINE
8
Calque_1
10
265.846000
20
766.472000
11
265.255848
21
771.369880
0
LINE
8
Calque_1
10
265.256000
20
771.370000
11
264.784222
21
775.279320
0
LINE
8
Calque_1
10
264.784000
20
775.279000
11
264.849590
21
780.327270
0
LINE
8
Calque_1
10
264.850000
20
780.327000
11
264.850000
21
780.354913
0
LINE
8
Calque_1
10
264.850000
20
780.355000
11
264.778695
21
786.632630
0
LINE
8
Calque_1
10
264.779000
20
786.633000
11
264.663774
21
790.462230
0
LINE
8
Calque_1
10
264.664000
20
790.462000
11
264.661354
21
790.492004
0
LINE
8
Calque_1
10
264.662000
20
790.492000
11
264.717048
21
793.883096
0
LINE
8
Calque_1
10
264.717048
20
793.883096
11
264.751403
21
797.825390
0
LINE
8
Calque_1
10
264.751000
20
797.826000
11
264.404256
21
800.749320
0
LINE
8
Calque_1
10
264.404000
20
800.749000
11
264.385902
21
800.848192
0
LINE
8
Calque_1
10
264.386000
20
800.848000
11
264.404098
21
802.278420
0
LINE
8
Calque_1
10
312.061000
20
772.448000
11
312.127000
21
772.448000
0
LINE
8
Calque_1
10
264.396000
20
802.203000
11
264.464163
21
803.678862
0
LINE
8
Calque_1
10
264.464163
20
803.678862
11
264.431700
21
804.831790
0
LINE
8
Calque_1
10
264.432000
20
804.831000
11
264.432000
21
804.866586
0
LINE
8
Calque_1
10
264.432000
20
804.867000
11
264.522139
21
808.381335
0
LINE
8
Calque_1
10
264.522139
20
808.381335
11
264.597875
21
812.244840
0
LINE
8
Calque_1
10
264.598000
20
812.245000
11
264.594031
21
812.336996
0
LINE
8
Calque_1
10
264.594000
20
812.337000
11
264.448208
21
814.667717
0
LINE
8
Calque_1
10
264.448208
20
814.667717
11
264.449829
21
816.781700
0
LINE
8
Calque_1
10
264.450000
20
816.782000
11
264.494296
21
819.861373
0
LINE
8
Calque_1
10
264.494296
20
819.861373
11
264.283601
21
822.578540
0
LINE
8
Calque_1
10
264.283000
20
822.578000
11
264.201400
21
829.883980
0
LINE
8
Calque_1
10
264.202000
20
829.884000
11
264.202000
21
829.955808
0
LINE
8
Calque_1
10
264.202000
20
829.956000
11
264.298099
21
832.030810
0
LINE
8
Calque_1
10
264.298000
20
832.031000
11
264.300990
21
832.041319
0
LINE
8
Calque_1
10
264.301000
20
832.041000
11
264.309996
21
832.126302
0
LINE
8
Calque_1
10
264.310000
20
832.126000
11
264.316006
21
832.191617
0
LINE
8
Calque_1
10
264.316000
20
832.192000
11
264.322006
21
832.288599
0
LINE
8
Calque_1
10
264.322000
20
832.288000
11
264.322000
21
832.481251
0
LINE
8
Calque_1
10
264.404000
20
802.279000
11
264.396010
21
802.202985
0
LINE
8
Calque_1
10
264.320000
20
832.500000
11
264.332912
21
832.780590
0
LINE
8
Calque_1
10
264.322000
20
832.482000
11
264.319883
21
832.500521
0
LINE
8
Calque_1
10
264.312000
20
832.570000
11
264.320117
21
833.561735
0
LINE
8
Calque_1
10
264.320117
20
833.561735
11
264.107359
21
834.373131
0
LINE
8
Calque_1
10
264.107359
20
834.373131
11
263.429880
21
835.485070
0
LINE
8
Calque_1
10
264.333000
20
832.781000
11
264.312310
21
832.570154
0
LINE
8
Calque_1
10
263.430000
20
835.485000
11
263.430000
21
835.485000
0
LINE
8
Calque_1
10
23.167300
20
930.091000
11
23.179735
21
950.612700
0
LINE
8
Calque_1
10
23.179700
20
950.612000
11
23.196104
21
956.361490
0
LINE
8
Calque_1
10
23.196200
20
956.362000
11
23.202285
21
957.266345
0
LINE
8
Calque_1
10
23.202200
20
957.266000
11
23.710702
21
957.942433
0
LINE
8
Calque_1
10
23.710700
20
957.943000
11
24.215577
21
959.094360
0
LINE
8
Calque_1
10
24.215600
20
959.094000
11
25.102879
21
960.776590
0
LINE
8
Calque_1
10
25.102800
20
960.777000
11
25.824715
21
962.075630
0
LINE
8
Calque_1
10
25.824800
20
962.075000
11
26.396881
21
963.344680
0
LINE
8
Calque_1
10
26.396800
20
963.345000
11
26.955696
21
964.231075
0
LINE
8
Calque_1
10
26.955696
20
964.231075
11
27.675270
21
965.685950
0
LINE
8
Calque_1
10
27.675300
20
965.686000
11
27.867520
21
966.229110
0
LINE
8
Calque_1
10
27.867500
20
966.229000
11
28.007544
21
966.889426
0
LINE
8
Calque_1
10
28.007600
20
966.889000
11
28.931913
21
968.599411
0
LINE
8
Calque_1
10
28.931913
20
968.599411
11
30.128920
21
970.313580
0
LINE
8
Calque_1
10
30.128900
20
970.314000
11
31.536060
21
971.562010
0
LINE
8
Calque_1
10
31.536000
20
971.562000
11
32.784893
21
972.923804
0
LINE
8
Calque_1
10
32.784893
20
972.923804
11
33.728100
21
973.844030
0
LINE
8
Calque_1
10
33.728100
20
973.844000
11
34.744448
21
974.378527
0
LINE
8
Calque_1
10
34.744448
20
974.378527
11
36.424570
21
975.399960
0
LINE
8
Calque_1
10
36.424600
20
975.400000
11
38.230700
21
976.886720
0
LINE
8
Calque_1
10
38.230700
20
976.887000
11
38.208447
21
976.864373
0
LINE
8
Calque_1
10
38.208447
20
976.864373
11
38.439711
21
977.002074
0
LINE
8
Calque_1
10
38.439711
20
977.002074
11
39.197063
21
977.453896
0
LINE
8
Calque_1
10
39.197100
20
977.454000
11
39.854404
21
977.832777
0
LINE
8
Calque_1
10
39.854400
20
977.832000
11
40.079719
21
977.961725
0
LINE
8
Calque_1
10
40.079700
20
977.962000
11
40.254880
21
978.065875
0
LINE
8
Calque_1
10
40.254900
20
978.066000
11
41.275500
21
978.785851
0
LINE
8
Calque_1
10
41.275500
20
978.786000
11
41.779345
21
979.145648
0
LINE
8
Calque_1
10
41.779300
20
979.146000
11
41.923498
21
979.235932
0
LINE
8
Calque_1
10
41.923500
20
979.235000
11
45.299500
21
980.590990
0
LINE
8
Calque_1
10
45.299500
20
980.591000
11
47.761466
21
981.869241
0
LINE
8
Calque_1
10
47.761466
20
981.869241
11
49.550930
21
982.852360
0
LINE
8
Calque_1
10
49.550900
20
982.853000
11
52.601597
21
983.923574
0
LINE
8
Calque_1
10
52.601597
20
983.923574
11
55.938600
21
985.249220
0
LINE
8
Calque_1
10
55.938600
20
985.249000
11
58.460130
21
986.603799
0
LINE
8
Calque_1
10
58.460130
20
986.603799
11
60.496470
21
987.606490
0
LINE
8
Calque_1
10
60.496500
20
987.607000
11
61.674880
21
987.892479
0
LINE
8
Calque_1
10
61.674880
20
987.892479
11
63.256520
21
988.091716
0
LINE
8
Calque_1
10
63.256500
20
988.091000
11
66.275821
21
988.553055
0
LINE
8
Calque_1
10
66.275821
20
988.553055
11
69.454570
21
989.218070
0
LINE
8
Calque_1
10
69.454600
20
989.218000
11
73.571140
21
990.368300
0
LINE
8
Calque_1
10
73.571100
20
990.369000
11
79.407136
21
991.397728
0
LINE
8
Calque_1
10
79.407136
20
991.397728
11
85.369300
21
992.120330
0
LINE
8
Calque_1
10
85.369400
20
992.120000
11
87.240701
21
992.452101
0
LINE
8
Calque_1
10
87.240701
20
992.452101
11
88.668940
21
992.786088
0
LINE
8
Calque_1
10
88.668900
20
992.786000
11
89.324672
21
992.845954
0
LINE
8
Calque_1
10
89.324700
20
992.846000
11
89.066966
21
985.806316
0
LINE
8
Calque_1
10
89.066966
20
985.806316
11
88.965029
21
978.704300
0
LINE
8
Calque_1
10
88.965000
20
978.704000
11
88.967117
21
978.639918
0
LINE
8
Calque_1
10
88.967000
20
978.640000
11
89.403963
21
968.357895
0
LINE
8
Calque_1
10
89.403963
20
968.357895
11
89.942650
21
958.116200
0
LINE
8
Calque_1
10
23.166800
20
930.091000
11
23.166800
21
930.091000
0
LINE
8
Calque_1
10
89.942700
20
958.106000
11
90.501319
21
947.582100
0
LINE
8
Calque_1
10
90.501300
20
947.582000
11
90.501300
21
947.571946
0
LINE
8
Calque_1
10
90.501300
20
947.572000
11
90.801011
21
936.676349
0
LINE
8
Calque_1
10
90.801011
20
936.676349
11
90.898180
21
925.711900
0
LINE
8
Calque_1
10
90.898200
20
925.712000
11
90.898200
21
925.662920
0
LINE
8
Calque_1
10
90.898200
20
925.663000
11
90.760600
21
921.278665
0
LINE
8
Calque_1
10
90.760600
20
921.278665
11
90.104959
21
916.936420
0
LINE
8
Calque_1
10
90.104900
20
916.937000
11
89.260267
21
913.584306
0
LINE
8
Calque_1
10
89.260267
20
913.584306
11
88.206180
21
910.275901
0
LINE
8
Calque_1
10
88.206180
20
910.275901
11
86.965351
21
907.015820
0
LINE
8
Calque_1
10
86.965351
20
907.015820
11
85.560490
21
903.808100
0
LINE
8
Calque_1
10
85.560500
20
903.808000
11
85.533600
21
903.748601
0
LINE
8
Calque_1
10
85.533600
20
903.748000
11
84.291242
21
901.214893
0
LINE
8
Calque_1
10
84.291242
20
901.214893
11
82.809220
21
898.849620
0
LINE
8
Calque_1
10
82.809200
20
898.850000
11
80.258692
21
895.127031
0
LINE
8
Calque_1
10
80.258692
20
895.127031
11
77.973850
21
891.194130
0
LINE
8
Calque_1
10
77.973900
20
891.194000
11
75.772516
21
886.650643
0
LINE
8
Calque_1
10
75.772516
20
886.650643
11
73.811890
21
882.261230
0
LINE
8
Calque_1
10
73.811900
20
882.261000
11
73.784000
21
882.200014
0
LINE
8
Calque_1
10
73.784000
20
882.200000
11
72.473307
21
879.735421
0
LINE
8
Calque_1
10
72.473307
20
879.735421
11
70.820350
21
877.286090
0
LINE
8
Calque_1
10
89.942700
20
958.116000
11
89.942700
21
958.106000
0
LINE
8
Calque_1
10
70.844600
20
877.319000
11
69.022912
21
874.651318
0
LINE
8
Calque_1
10
69.022912
20
874.651318
11
67.434417
21
871.827771
0
LINE
8
Calque_1
10
67.434417
20
871.827771
11
66.105239
21
868.863189
0
LINE
8
Calque_1
10
66.105239
20
868.863189
11
65.061500
21
865.772400
0
LINE
8
Calque_1
10
65.061500
20
865.773000
11
65.045890
21
865.716194
0
LINE
8
Calque_1
10
65.046000
20
865.716000
11
63.289023
21
857.842145
0
LINE
8
Calque_1
10
63.289023
20
857.842145
11
62.625872
21
853.845354
0
LINE
8
Calque_1
10
62.625872
20
853.845354
11
62.135060
21
849.811600
0
LINE
8
Calque_1
10
62.135100
20
849.812000
11
62.129015
21
849.732916
0
LINE
8
Calque_1
10
62.129100
20
849.733000
11
61.557598
21
838.986461
0
LINE
8
Calque_1
10
61.557598
20
838.986461
11
61.180092
21
828.251462
0
LINE
8
Calque_1
10
61.180092
20
828.251462
11
60.650660
21
806.833300
0
LINE
8
Calque_1
10
60.650600
20
806.833000
11
60.650603
21
800.901804
0
LINE
8
Calque_1
10
60.650603
20
800.901804
11
61.069170
21
795.064200
0
LINE
8
Calque_1
10
61.069200
20
795.064000
11
61.073169
21
795.027779
0
LINE
8
Calque_1
10
61.073200
20
795.028000
11
61.281526
21
791.680708
0
LINE
8
Calque_1
10
61.281526
20
791.680708
11
61.234801
21
788.257866
0
LINE
8
Calque_1
10
61.234801
20
788.257866
11
60.769856
21
781.204600
0
LINE
8
Calque_1
10
60.769800
20
781.205000
11
60.618537
21
778.857223
0
LINE
8
Calque_1
10
60.618537
20
778.857223
11
60.625348
21
776.562109
0
LINE
8
Calque_1
10
60.625348
20
776.562109
11
60.877829
21
772.146130
0
LINE
8
Calque_1
10
60.877900
20
772.146000
11
60.880810
21
772.112901
0
LINE
8
Calque_1
10
60.880900
20
772.113000
11
61.017422
21
769.126543
0
LINE
8
Calque_1
10
61.017422
20
769.126543
11
60.933102
21
766.212610
0
LINE
8
Calque_1
10
60.933100
20
766.212000
11
56.718900
21
766.616627
0
LINE
8
Calque_1
10
56.718900
20
766.617000
11
52.951160
21
767.120316
0
LINE
8
Calque_1
10
52.951100
20
767.120000
11
52.311867
21
767.248164
0
LINE
8
Calque_1
10
70.820300
20
877.286000
11
70.844615
21
877.319099
0
LINE
8
Calque_1
10
52.309900
20
767.248000
11
51.455191
21
767.303298
0
LINE
8
Calque_1
10
51.455200
20
767.304000
11
49.208810
21
767.683809
0
LINE
8
Calque_1
10
49.208800
20
767.683000
11
44.835450
21
768.313475
0
LINE
8
Calque_1
10
44.835400
20
768.314000
11
42.133740
21
768.675209
0
LINE
8
Calque_1
10
42.133800
20
768.675000
11
40.077090
21
769.191254
0
LINE
8
Calque_1
10
40.077100
20
769.191000
11
36.449400
21
770.077247
0
LINE
8
Calque_1
10
36.449400
20
770.078000
11
35.546114
21
770.260933
0
LINE
8
Calque_1
10
35.546100
20
770.260000
11
34.506900
21
770.608297
0
LINE
8
Calque_1
10
34.506900
20
770.609000
11
33.099210
21
770.904592
0
LINE
8
Calque_1
10
33.099200
20
770.904000
11
32.356621
21
771.163397
0
LINE
8
Calque_1
10
32.356600
20
771.164000
11
31.289480
21
771.465281
0
LINE
8
Calque_1
10
31.289500
20
771.465000
11
30.689532
21
771.632957
0
LINE
8
Calque_1
10
30.689500
20
771.633000
11
30.007379
21
772.115150
0
LINE
8
Calque_1
10
30.007400
20
772.115000
11
28.706180
21
772.739231
0
LINE
8
Calque_1
10
28.706200
20
772.739000
11
27.792039
21
773.186542
0
LINE
8
Calque_1
10
27.792000
20
773.187000
11
26.980180
21
773.461399
0
LINE
8
Calque_1
10
26.980200
20
773.461000
11
26.873732
21
773.563314
0
LINE
8
Calque_1
10
26.873700
20
773.564000
11
26.483043
21
774.794920
0
LINE
8
Calque_1
10
26.483100
20
774.795000
11
26.065710
21
775.378511
0
LINE
8
Calque_1
10
26.065710
20
775.378511
11
25.504355
21
775.890030
0
LINE
8
Calque_1
10
25.504300
20
775.890000
11
25.524408
21
775.837798
0
LINE
8
Calque_1
10
25.524500
20
775.837000
11
25.488808
21
775.901082
0
LINE
8
Calque_1
10
25.488800
20
775.901000
11
25.419585
21
775.954710
0
LINE
8
Calque_1
10
25.419600
20
775.955000
11
25.072335
21
776.657283
0
LINE
8
Calque_1
10
52.311900
20
767.248000
11
52.309200
21
767.248000
0
LINE
8
Calque_1
10
23.306600
20
778.306000
11
23.302631
21
779.252731
0
LINE
8
Calque_1
10
23.302600
20
779.253000
11
23.289106
21
785.019560
0
LINE
8
Calque_1
10
23.289200
20
785.020000
11
23.257688
21
805.563400
0
LINE
8
Calque_1
10
23.257700
20
805.563000
11
23.194703
21
867.834600
0
LINE
8
Calque_1
10
23.194700
20
867.835000
11
23.167289
21
930.090600
0
LINE
8
Calque_1
10
25.072400
20
776.657000
11
23.306630
21
778.305990
0
LINE
8
Calque_1
10
97.778700
20
783.082000
11
98.023127
21
788.169530
0
LINE
8
Calque_1
10
98.023100
20
788.169000
11
98.326058
21
793.824870
0
LINE
8
Calque_1
10
98.326058
20
793.824870
11
98.321768
21
799.394592
0
LINE
8
Calque_1
10
98.321768
20
799.394592
11
98.230286
21
804.872744
0
LINE
8
Calque_1
10
98.230286
20
804.872744
11
98.271670
21
810.253900
0
LINE
8
Calque_1
10
98.271700
20
810.254000
11
99.625620
21
834.477800
0
LINE
8
Calque_1
10
23.167300
20
930.090000
11
23.167300
21
930.090000
0
LINE
8
Calque_1
10
99.625600
20
834.488000
11
99.627717
21
834.507050
0
LINE
8
Calque_1
10
99.627600
20
834.507000
11
99.921807
21
840.994687
0
LINE
8
Calque_1
10
99.921807
20
840.994687
11
100.286470
21
847.341300
0
LINE
8
Calque_1
10
100.286000
20
847.342000
11
101.169541
21
852.742574
0
LINE
8
Calque_1
10
101.169541
20
852.742574
11
102.425231
21
858.081010
0
LINE
8
Calque_1
10
102.425231
20
858.081010
11
104.022071
21
863.341716
0
LINE
8
Calque_1
10
104.022071
20
863.341716
11
105.929060
21
868.509100
0
LINE
8
Calque_1
10
105.930000
20
868.509000
11
105.938996
21
868.530696
0
LINE
8
Calque_1
10
105.939000
20
868.530000
11
107.267544
21
871.668532
0
LINE
8
Calque_1
10
107.267544
20
871.668532
11
108.772940
21
874.728600
0
LINE
8
Calque_1
10
108.772000
20
874.729000
11
113.717141
21
883.550647
0
LINE
8
Calque_1
10
113.717141
20
883.550647
11
116.240781
21
888.021530
0
LINE
8
Calque_1
10
116.240781
20
888.021530
11
118.669580
21
892.602800
0
LINE
8
Calque_1
10
118.670000
20
892.603000
11
118.672990
21
892.613319
0
LINE
8
Calque_1
10
118.673000
20
892.613000
11
120.957238
21
897.493118
0
LINE
8
Calque_1
10
120.957238
20
897.493118
11
123.060830
21
902.360710
0
LINE
8
Calque_1
10
123.061000
20
902.361000
11
123.066001
21
902.371319
0
LINE
8
Calque_1
10
123.066000
20
902.371000
11
127.465210
21
912.815800
0
LINE
8
Calque_1
10
127.465000
20
912.816000
11
128.469827
21
915.637418
0
LINE
8
Calque_1
10
128.469827
20
915.637418
11
129.104170
21
918.460080
0
LINE
8
Calque_1
10
129.104000
20
918.460000
11
129.107995
21
918.480108
0
LINE
8
Calque_1
10
129.108000
20
918.480000
11
130.175781
21
924.780908
0
LINE
8
Calque_1
10
130.175781
20
924.780908
11
131.154900
21
931.159800
0
LINE
8
Calque_1
10
131.155000
20
931.160000
11
131.173600
21
931.345526
0
LINE
8
Calque_1
10
131.174000
20
931.346000
11
131.178542
21
933.528461
0
LINE
8
Calque_1
10
131.178542
20
933.528461
11
131.045331
21
935.534380
0
LINE
8
Calque_1
10
131.045000
20
935.534000
11
131.042010
21
935.564983
0
LINE
8
Calque_1
10
131.042000
20
935.565000
11
130.074849
21
945.966263
0
LINE
8
Calque_1
10
130.074849
20
945.966263
11
129.343400
21
956.268600
0
LINE
8
Calque_1
10
129.343000
20
956.269000
11
129.180598
21
960.323728
0
LINE
8
Calque_1
10
129.180598
20
960.323728
11
129.109929
21
964.195620
0
LINE
8
Calque_1
10
129.110000
20
964.195000
11
129.602479
21
969.168340
0
LINE
8
Calque_1
10
129.603000
20
969.169000
11
129.731874
21
971.555961
0
LINE
8
Calque_1
10
129.731874
20
971.555961
11
129.713590
21
973.802830
0
LINE
8
Calque_1
10
129.713000
20
973.802000
11
129.251530
21
984.250400
0
LINE
8
Calque_1
10
129.252000
20
984.251000
11
129.320702
21
984.215334
0
LINE
8
Calque_1
10
129.321000
20
984.215000
11
130.560720
21
983.616063
0
LINE
8
Calque_1
10
130.560000
20
983.616000
11
132.023470
21
982.687393
0
LINE
8
Calque_1
10
132.024000
20
982.688000
11
134.792310
21
981.220380
0
LINE
8
Calque_1
10
134.792000
20
981.220000
11
136.743820
21
980.453133
0
LINE
8
Calque_1
10
136.744000
20
980.453000
11
137.949610
21
979.647874
0
LINE
8
Calque_1
10
137.950000
20
979.648000
11
139.509080
21
978.757096
0
LINE
8
Calque_1
10
139.509000
20
978.757000
11
140.761120
21
977.991165
0
LINE
8
Calque_1
10
140.761000
20
977.991000
11
142.482149
21
976.824957
0
LINE
8
Calque_1
10
142.482149
20
976.824957
11
143.938060
21
975.555490
0
LINE
8
Calque_1
10
143.938000
20
975.556000
11
146.216395
21
973.251516
0
LINE
8
Calque_1
10
146.216395
20
973.251516
11
148.811080
21
970.756810
0
LINE
8
Calque_1
10
148.811000
20
970.757000
11
151.578299
21
968.637084
0
LINE
8
Calque_1
10
151.578299
20
968.637084
11
153.941430
21
966.811010
0
LINE
8
Calque_1
10
153.941000
20
966.811000
11
155.399111
21
965.371209
0
LINE
8
Calque_1
10
155.399111
20
965.371209
11
156.733321
21
963.836426
0
LINE
8
Calque_1
10
156.733321
20
963.836426
11
159.098810
21
960.514220
0
LINE
8
Calque_1
10
159.099000
20
960.514000
11
158.942938
21
960.354853
0
LINE
8
Calque_1
10
158.943000
20
960.355000
11
158.671234
21
959.710158
0
LINE
8
Calque_1
10
158.671234
20
959.710158
11
158.678933
21
959.534899
0
LINE
8
Calque_1
10
158.679000
20
959.534000
11
158.647499
21
959.263199
0
LINE
8
Calque_1
10
158.648000
20
959.264000
11
158.614401
21
958.730204
0
LINE
8
Calque_1
10
158.614000
20
958.730000
11
158.556599
21
957.063420
0
LINE
8
Calque_1
10
158.557000
20
957.063000
11
158.447960
21
951.102130
0
LINE
8
Calque_1
10
158.448000
20
951.102000
11
158.233542
21
930.253700
0
LINE
8
Calque_1
10
158.233000
20
930.254000
11
157.807709
21
867.503400
0
LINE
8
Calque_1
10
157.808000
20
867.504000
11
157.367202
21
804.874300
0
LINE
8
Calque_1
10
157.367000
20
804.874000
11
157.132900
21
784.193600
0
LINE
8
Calque_1
10
157.133000
20
784.193000
11
157.012080
21
778.385590
0
LINE
8
Calque_1
10
157.012000
20
778.386000
11
156.984600
21
777.693031
0
LINE
8
Calque_1
10
156.985000
20
777.693000
11
155.842440
21
777.158675
0
LINE
8
Calque_1
10
155.842000
20
777.159000
11
153.473560
21
776.414765
0
LINE
8
Calque_1
10
153.473560
20
776.414765
11
150.604600
21
775.568910
0
LINE
8
Calque_1
10
150.605000
20
775.569000
11
148.708990
21
774.906511
0
LINE
8
Calque_1
10
148.709000
20
774.906000
11
143.608550
21
773.474050
0
LINE
8
Calque_1
10
143.608000
20
773.474000
11
139.483180
21
772.246180
0
LINE
8
Calque_1
10
139.483000
20
772.246000
11
138.739903
21
771.996922
0
LINE
8
Calque_1
10
138.740000
20
771.997000
11
135.925700
21
771.538107
0
LINE
8
Calque_1
10
135.926000
20
771.538000
11
133.834650
21
770.956632
0
LINE
8
Calque_1
10
133.835000
20
770.957000
11
132.840231
21
770.725490
0
LINE
8
Calque_1
10
132.840000
20
770.726000
11
131.619920
21
770.384423
0
LINE
8
Calque_1
10
131.620000
20
770.384000
11
131.416401
21
770.307509
0
LINE
8
Calque_1
10
131.416000
20
770.308000
11
131.199471
21
770.194811
0
LINE
8
Calque_1
10
131.200000
20
770.194000
11
129.628010
21
769.774901
0
LINE
8
Calque_1
10
129.628000
20
769.775000
11
126.979580
21
769.217418
0
LINE
8
Calque_1
10
126.979000
20
769.218000
11
124.514550
21
768.468172
0
LINE
8
Calque_1
10
124.515000
20
768.468000
11
120.862000
21
768.122296
0
LINE
8
Calque_1
10
120.862000
20
768.122000
11
118.834220
21
767.769575
0
LINE
8
Calque_1
10
118.834000
20
767.770000
11
114.977400
21
767.253746
0
LINE
8
Calque_1
10
114.977000
20
767.253000
11
113.104240
21
766.995640
0
LINE
8
Calque_1
10
113.105000
20
766.996000
11
110.373165
21
766.909118
0
LINE
8
Calque_1
10
110.373165
20
766.909118
11
107.371000
21
766.875615
0
LINE
8
Calque_1
10
107.371000
20
766.876000
11
105.492121
21
766.712121
0
LINE
8
Calque_1
10
105.492121
20
766.712121
11
103.930380
21
766.508574
0
LINE
8
Calque_1
10
103.930000
20
766.508000
11
99.830520
21
766.328692
0
LINE
8
Calque_1
10
99.830500
20
766.329000
11
98.793870
21
766.275290
0
LINE
8
Calque_1
10
98.793900
20
766.275000
11
98.807791
21
769.226240
0
LINE
8
Calque_1
10
98.807800
20
769.226000
11
98.792798
21
769.359323
0
LINE
8
Calque_1
10
98.792800
20
769.360000
11
98.220944
21
774.241319
0
LINE
8
Calque_1
10
98.220944
20
774.241319
11
97.889492
21
779.130970
0
LINE
8
Calque_1
10
97.889500
20
779.131000
11
97.885505
21
779.204898
0
LINE
8
Calque_1
10
97.885500
20
779.205000
11
97.785250
21
781.411070
0
LINE
8
Calque_1
10
99.625600
20
834.478000
11
99.625600
21
834.488000
0
LINE
8
Calque_1
10
97.785200
20
781.411000
11
97.778189
21
783.081710
0
LINE
8
Calque_1
10
97.785200
20
781.411000
11
97.785200
21
781.411000
0
LINE
8
Calque_1
10
97.778200
20
783.082000
11
97.778729
21
783.081841
0
LINE
8
Calque_1
10
93.223000
20
989.311000
11
93.223000
21
989.315000
0
LINE
8
Calque_1
10
93.223000
20
989.315000
11
93.223529
21
989.311031
0
LINE
8
Calque_1
10
93.223529
20
989.311031
11
93.223000
21
989.311000
 0 
ENDSEC
 0 
EOF