  0
SECTION
  2
HEADER
  9
$ACADVER
  1
AC1014
  9
$HANDSEED
  5
FFFF
  9
$INSUNITS
 70
     4
  9
$MEASUREMENT
 70
     1
  0
ENDSEC
  0
SECTION
  2
TABLES
  0
TABLE
  2
VPORT
  5
8
330
0
100
AcDbSymbolTable
 70
     4
  0
VPORT
  5
2E
330
8
100
AcDbSymbolTableRecord
100
AcDbViewportTableRecord
  2
*ACTIVE
 70
     0
 10
0.0
 20
0.0
 11
1.0
 21
1.0
 12
210.0
 22
148.5
 13
0.0
 23
0.0
 14
10.0
 24
10.0
 15
10.0
 25
10.0
 16
0.0
 26
0.0
 36
1.0
 17
0.0
 27
0.0
 37
0.0
 40
341.0
 41
1.24
 42
50.0
 43
0.0
 44
0.0
 50
0.0
 51
0.0
 71
     0
 72
   100
 73
     1
 74
     3
 75
     0
 76
     0
 77
     0
 78
     0
  0
ENDTAB
  0
TABLE
  2
LTYPE
  5
5
330
0
100
AcDbSymbolTable
 70
     1
  0
LTYPE
  5
14
330
5
100
AcDbSymbolTableRecord
100
AcDbLinetypeTableRecord
  2
BYBLOCK
 70
     0
  3

 72
    65
 73
     0
 40
0.0
  0
LTYPE
  5
15
330
5
100
AcDbSymbolTableRecord
100
AcDbLinetypeTableRecord
  2
BYLAYER
 70
     0
  3

 72
    65
 73
     0
 40
0.0
  0
LTYPE
  5
16
330
5
100
AcDbSymbolTableRecord
100
AcDbLinetypeTableRecord
  2
CONTINUOUS
 70
     0
  3
Solid line
 72
    65
 73
     0
 40
0.0
  0
ENDTAB
  0
TABLE
  2
LAYER
  5
2
100
AcDbSymbolTable
 70
2
  0
LAYER
  5
50
100
AcDbSymbolTableRecord
100
AcDbLayerTableRecord
  2
0
 70
0
  6
CONTINUOUS
  0
LAYER
  5
51
100
AcDbSymbolTableRecord
100
AcDbLayerTableRecord
  2
Calque_1
 70
0
  6
CONTINUOUS
  0
ENDTAB
  0
TABLE
  2
STYLE
  5
3
330
0
100
AcDbSymbolTable
 70
     1
  0
STYLE
  5
11
330
3
100
AcDbSymbolTableRecord
100
AcDbTextStyleTableRecord
  2
STANDARD
 70
     0
 40
0.0
 41
1.0
 50
0.0
 71
     0
 42
2.5
  3
txt
  4

  0
ENDTAB
  0
TABLE
  2
VIEW
  5
6
330
0
100
AcDbSymbolTable
 70
     0
  0
ENDTAB
  0
TABLE
  2
UCS
  5
7
330
0
100
AcDbSymbolTable
 70
     0
  0
ENDTAB
  0
TABLE
  2
APPID
  5
9
330
0
100
AcDbSymbolTable
 70
     2
  0
APPID
  5
12
330
9
100
AcDbSymbolTableRecord
100
AcDbRegAppTableRecord
  2
ACAD
 70
     0
  0
ENDTAB
  0
TABLE
  2
DIMSTYLE
  5
A
330
0
100
AcDbSymbolTable
 70
     1
  0
DIMSTYLE
105
27
330
A
100
AcDbSymbolTableRecord
100
AcDbDimStyleTableRecord
  2
ISO-25
 70
     0
  3

  4

  5

  6

  7

 40
1.0
 41
2.5
 42
0.625
 43
3.75
 44
1.25
 45
0.0
 46
0.0
 47
0.0
 48
0.0
140
2.5
141
2.5
142
0.0
143
0.03937007874016
144
1.0
145
0.0
146
1.0
147
0.625
 71
     0
 72
     0
 73
     0
 74
     0
 75
     0
 76
     0
 77
     1
 78
     8
170
     0
171
     3
172
     1
173
     0
174
     0
175
     0
176
     0
177
     0
178
     0
270
     2
271
     2
272
     2
273
     2
274
     3
340
11
275
     0
280
     0
281
     0
282
     0
283
     0
284
     8
285
     0
286
     0
287
     3
288
     0
  0
ENDTAB
  0
TABLE
  2
BLOCK_RECORD
  5
1
330
0
100
AcDbSymbolTable
 70
     1
  0
BLOCK_RECORD
  5
1F
330
1
100
AcDbSymbolTableRecord
100
AcDbBlockTableRecord
  2
*MODEL_SPACE
  0
BLOCK_RECORD
  5
1B
330
1
100
AcDbSymbolTableRecord
100
AcDbBlockTableRecord
  2
*PAPER_SPACE
  0
ENDTAB
  0
ENDSEC
  0
SECTION
  2
BLOCKS
  0
BLOCK
  5
20
330
1F
100
AcDbEntity
  8
0
100
AcDbBlockBegin
  2
*MODEL_SPACE
 70
     0
 10
0.0
 20
0.0
 30
0.0
  3
*MODEL_SPACE
  1

  0
ENDBLK
  5
21
330
1F
100
AcDbEntity
  8
0
100
AcDbBlockEnd
  0
BLOCK
  5
1C
330
1B
100
AcDbEntity
 67
     1
  8
0
100
AcDbBlockBegin
  2
*PAPER_SPACE
  1

  0
ENDBLK
  5
1D
330
1B
100
AcDbEntity
 67
     1
  8
0
100
AcDbBlockEnd
  0
ENDSEC
  0
SECTION
  2
ENTITIES
  0
SPLINE
  5
100
100
AcDbEntity
  8
Calque_1
 62
7
100
AcDbSpline
 70
8
 71
3
 72
8
 73
4
 74
0
 40
0
 40
0
 40
0
 40
0
 40
1
 40
1
 40
1
 40
1
 10
6.467710
 20
211.381700
 30
0.0
 10
6.427710
 20
202.735400
 30
0.0
 10
6.512710
 20
194.085900
 30
0.0
 10
6.732810
 20
185.444300
 30
0.0
  0
SPLINE
  5
101
100
AcDbEntity
  8
Calque_1
 62
7
100
AcDbSpline
 70
8
 71
3
 72
8
 73
4
 74
0
 40
0
 40
0
 40
0
 40
0
 40
1
 40
1
 40
1
 40
1
 10
6.732810
 20
185.444300
 30
0.0
 10
6.973210
 20
176.023900
 30
0.0
 10
8.201910
 20
155.617900
 30
0.0
 10
8.674310
 20
146.044100
 30
0.0
  0
SPLINE
  5
102
100
AcDbEntity
  8
Calque_1
 62
7
100
AcDbSpline
 70
8
 71
3
 72
8
 73
4
 74
0
 40
0
 40
0
 40
0
 40
0
 40
1
 40
1
 40
1
 40
1
 10
8.674310
 20
146.044100
 30
0.0
 10
9.122710
 20
136.956000
 30
0.0
 10
9.517310
 20
127.863200
 30
0.0
 10
9.938810
 20
118.772900
 30
0.0
  0
SPLINE
  5
103
100
AcDbEntity
  8
Calque_1
 62
7
100
AcDbSpline
 70
8
 71
3
 72
8
 73
4
 74
0
 40
0
 40
0
 40
0
 40
0
 40
1
 40
1
 40
1
 40
1
 10
9.938810
 20
118.772900
 30
0.0
 10
10.233010
 20
111.890700
 30
0.0
 10
10.491410
 20
105.005400
 30
0.0
 10
10.821510
 20
98.126100
 30
0.0
  0
SPLINE
  5
104
100
AcDbEntity
  8
Calque_1
 62
7
100
AcDbSpline
 70
8
 71
3
 72
8
 73
4
 74
0
 40
0
 40
0
 40
0
 40
0
 40
1
 40
1
 40
1
 40
1
 10
10.821510
 20
98.126100
 30
0.0
 10
11.842810
 20
76.838800
 30
0.0
 10
13.343710
 20
55.604100
 30
0.0
 10
14.557210
 20
34.336700
 30
0.0
  0
SPLINE
  5
105
100
AcDbEntity
  8
Calque_1
 62
7
100
AcDbSpline
 70
8
 71
3
 72
8
 73
4
 74
0
 40
0
 40
0
 40
0
 40
0
 40
1
 40
1
 40
1
 40
1
 10
14.557210
 20
34.336700
 30
0.0
 10
15.229510
 20
22.553800
 30
0.0
 10
15.513210
 20
15.289600
 30
0.0
 10
15.764810
 20
5.419600
 30
0.0
  0
SPLINE
  5
106
100
AcDbEntity
  8
Calque_1
 62
7
100
AcDbSpline
 70
8
 71
3
 72
8
 73
4
 74
0
 40
0
 40
0
 40
0
 40
0
 40
1
 40
1
 40
1
 40
1
 10
12.535610
 20
795.419900
 30
0.0
 10
12.378410
 20
789.486200
 30
0.0
 10
12.207810
 20
783.553600
 30
0.0
 10
12.115410
 20
777.616300
 30
0.0
  0
SPLINE
  5
107
100
AcDbEntity
  8
Calque_1
 62
7
100
AcDbSpline
 70
8
 71
3
 72
8
 73
4
 74
0
 40
0
 40
0
 40
0
 40
0
 40
1
 40
1
 40
1
 40
1
 10
12.115410
 20
777.616300
 30
0.0
 10
11.661910
 20
748.465200
 30
0.0
 10
12.240910
 20
775.449600
 30
0.0
 10
11.703610
 20
745.097900
 30
0.0
  0
SPLINE
  5
108
100
AcDbEntity
  8
Calque_1
 62
7
100
AcDbSpline
 70
8
 71
3
 72
8
 73
4
 74
0
 40
0
 40
0
 40
0
 40
0
 40
1
 40
1
 40
1
 40
1
 10
11.703610
 20
745.097900
 30
0.0
 10
11.537410
 20
735.715600
 30
0.0
 10
11.024210
 20
714.265300
 30
0.0
 10
10.938810
 20
703.934000
 30
0.0
  0
SPLINE
  5
109
100
AcDbEntity
  8
Calque_1
 62
7
100
AcDbSpline
 70
8
 71
3
 72
8
 73
4
 74
0
 40
0
 40
0
 40
0
 40
0
 40
1
 40
1
 40
1
 40
1
 10
10.938810
 20
703.934000
 30
0.0
 10
10.874810
 20
696.140700
 30
0.0
 10
11.010810
 20
666.439500
 30
0.0
 10
11.026810
 20
661.392900
 30
0.0
  0
SPLINE
  5
10a
100
AcDbEntity
  8
Calque_1
 62
7
100
AcDbSpline
 70
8
 71
3
 72
8
 73
4
 74
0
 40
0
 40
0
 40
0
 40
0
 40
1
 40
1
 40
1
 40
1
 10
11.026810
 20
661.392900
 30
0.0
 10
11.069810
 20
648.245100
 30
0.0
 10
10.932810
 20
635.095700
 30
0.0
 10
11.085810
 20
621.949300
 30
0.0
  0
SPLINE
  5
10b
100
AcDbEntity
  8
Calque_1
 62
7
100
AcDbSpline
 70
8
 71
3
 72
8
 73
4
 74
0
 40
0
 40
0
 40
0
 40
0
 40
1
 40
1
 40
1
 40
1
 10
11.085810
 20
621.949300
 30
0.0
 10
11.184810
 20
613.387500
 30
0.0
 10
11.392610
 20
604.828100
 30
0.0
 10
11.615510
 20
596.270300
 30
0.0
  0
SPLINE
  5
10c
100
AcDbEntity
  8
Calque_1
 62
7
100
AcDbSpline
 70
8
 71
3
 72
8
 73
4
 74
0
 40
0
 40
0
 40
0
 40
0
 40
1
 40
1
 40
1
 40
1
 10
11.615510
 20
596.270300
 30
0.0
 10
12.230410
 20
572.673900
 30
0.0
 10
13.383110
 20
549.092600
 30
0.0
 10
14.262410
 20
525.512300
 30
0.0
  0
SPLINE
  5
10d
100
AcDbEntity
  8
Calque_1
 62
7
100
AcDbSpline
 70
8
 71
3
 72
8
 73
4
 74
0
 40
0
 40
0
 40
0
 40
0
 40
1
 40
1
 40
1
 40
1
 10
14.262410
 20
525.512300
 30
0.0
 10
14.719010
 20
513.267800
 30
0.0
 10
15.409210
 20
496.601800
 30
0.0
 10
15.439110
 20
484.390800
 30
0.0
  0
SPLINE
  5
10e
100
AcDbEntity
  8
Calque_1
 62
7
100
AcDbSpline
 70
8
 71
3
 72
8
 73
4
 74
0
 40
0
 40
0
 40
0
 40
0
 40
1
 40
1
 40
1
 40
1
 10
15.439110
 20
484.390800
 30
0.0
 10
15.461110
 20
475.313900
 30
0.0
 10
15.228010
 20
466.239300
 30
0.0
 10
15.115610
 20
457.163600
 30
0.0
  0
SPLINE
  5
10f
100
AcDbEntity
  8
Calque_1
 62
7
100
AcDbSpline
 70
8
 71
3
 72
8
 73
4
 74
0
 40
0
 40
0
 40
0
 40
0
 40
1
 40
1
 40
1
 40
1
 10
15.115610
 20
457.163600
 30
0.0
 10
14.844910
 20
435.317100
 30
0.0
 10
14.740710
 20
413.447300
 30
0.0
 10
14.174010
 20
391.610000
 30
0.0
  0
SPLINE
  5
110
100
AcDbEntity
  8
Calque_1
 62
7
100
AcDbSpline
 70
8
 71
3
 72
8
 73
4
 74
0
 40
0
 40
0
 40
0
 40
0
 40
1
 40
1
 40
1
 40
1
 10
14.174010
 20
391.610000
 30
0.0
 10
13.947410
 20
382.875500
 30
0.0
 10
13.028010
 20
362.050000
 30
0.0
 10
12.644910
 20
353.328100
 30
0.0
  0
SPLINE
  5
111
100
AcDbEntity
  8
Calque_1
 62
7
100
AcDbSpline
 70
8
 71
3
 72
8
 73
4
 74
0
 40
0
 40
0
 40
0
 40
0
 40
1
 40
1
 40
1
 40
1
 10
12.644910
 20
353.328100
 30
0.0
 10
11.802610
 20
334.147700
 30
0.0
 10
11.647610
 20
331.327800
 30
0.0
 10
10.674010
 20
310.529200
 30
0.0
  0
SPLINE
  5
112
100
AcDbEntity
  8
Calque_1
 62
7
100
AcDbSpline
 70
8
 71
3
 72
8
 73
4
 74
0
 40
0
 40
0
 40
0
 40
0
 40
1
 40
1
 40
1
 40
1
 10
10.674010
 20
310.529200
 30
0.0
 10
9.701610
 20
289.755100
 30
0.0
 10
8.786210
 20
268.976200
 30
0.0
 10
7.820910
 20
248.201700
 30
0.0
  0
SPLINE
  5
113
100
AcDbEntity
  8
Calque_1
 62
7
100
AcDbSpline
 70
8
 71
3
 72
8
 73
4
 74
0
 40
0
 40
0
 40
0
 40
0
 40
1
 40
1
 40
1
 40
1
 10
7.820910
 20
248.201700
 30
0.0
 10
7.140910
 20
233.566500
 30
0.0
 10
6.535510
 20
226.213100
 30
0.0
 10
6.467510
 20
211.381700
 30
0.0
  0
LWPOLYLINE
  5
114
100
AcDbEntity
  8
Calque_1
 62
7
100
AcDbPolyline
 90
4
 70
0
 10
15.764810
 20
5.419600
 30
0.0
 10
124.341680
 20
5.419600
 30
0.0
 10
124.341680
 20
795.419900
 30
0.0
 10
12.535610
 20
795.419900
 30
0.0
  0
SPLINE
  5
115
100
AcDbEntity
  8
Calque_1
 62
7
100
AcDbSpline
 70
8
 71
3
 72
8
 73
4
 74
0
 40
0
 40
0
 40
0
 40
0
 40
1
 40
1
 40
1
 40
1
 10
70.272980
 20
940.633300
 30
0.0
 10
69.477380
 20
940.647300
 30
0.0
 10
66.093480
 20
940.560300
 30
0.0
 10
65.130080
 20
940.480800
 30
0.0
  0
SPLINE
  5
116
100
AcDbEntity
  8
Calque_1
 62
7
100
AcDbSpline
 70
8
 71
3
 72
8
 73
4
 74
0
 40
0
 40
0
 40
0
 40
0
 40
1
 40
1
 40
1
 40
1
 10
65.130080
 20
940.480800
 30
0.0
 10
62.817280
 20
940.289600
 30
0.0
 10
60.427280
 20
940.027300
 30
0.0
 10
58.148080
 20
939.615800
 30
0.0
  0
SPLINE
  5
117
100
AcDbEntity
  8
Calque_1
 62
7
100
AcDbSpline
 70
8
 71
3
 72
8
 73
4
 74
0
 40
0
 40
0
 40
0
 40
0
 40
1
 40
1
 40
1
 40
1
 10
58.148080
 20
939.615800
 30
0.0
 10
56.315380
 20
939.284900
 30
0.0
 10
54.521580
 20
938.645900
 30
0.0
 10
52.662180
 20
938.446300
 30
0.0
  0
SPLINE
  5
118
100
AcDbEntity
  8
Calque_1
 62
7
100
AcDbSpline
 70
8
 71
3
 72
8
 73
4
 74
0
 40
0
 40
0
 40
0
 40
0
 40
1
 40
1
 40
1
 40
1
 10
52.662180
 20
938.446300
 30
0.0
 10
51.499680
 20
938.321500
 30
0.0
 10
50.300580
 20
938.533300
 30
0.0
 10
49.139880
 20
938.319200
 30
0.0
  0
SPLINE
  5
119
100
AcDbEntity
  8
Calque_1
 62
7
100
AcDbSpline
 70
8
 71
3
 72
8
 73
4
 74
0
 40
0
 40
0
 40
0
 40
0
 40
1
 40
1
 40
1
 40
1
 10
49.139880
 20
938.319200
 30
0.0
 10
46.956080
 20
937.915800
 30
0.0
 10
44.862880
 20
937.226700
 30
0.0
 10
42.657080
 20
936.920300
 30
0.0
  0
SPLINE
  5
11a
100
AcDbEntity
  8
Calque_1
 62
7
100
AcDbSpline
 70
8
 71
3
 72
8
 73
4
 74
0
 40
0
 40
0
 40
0
 40
0
 40
1
 40
1
 40
1
 40
1
 10
42.657080
 20
936.920300
 30
0.0
 10
42.322780
 20
936.874300
 30
0.0
 10
40.831080
 20
936.608000
 30
0.0
 10
40.475280
 20
936.666100
 30
0.0
  0
SPLINE
  5
11b
100
AcDbEntity
  8
Calque_1
 62
7
100
AcDbSpline
 70
8
 71
3
 72
8
 73
4
 74
0
 40
0
 40
0
 40
0
 40
0
 40
1
 40
1
 40
1
 40
1
 10
40.475280
 20
936.666100
 30
0.0
 10
39.752580
 20
936.784100
 30
0.0
 10
39.016080
 20
936.833800
 30
0.0
 10
38.261980
 20
936.767900
 30
0.0
  0
SPLINE
  5
11c
100
AcDbEntity
  8
Calque_1
 62
7
100
AcDbSpline
 70
8
 71
3
 72
8
 73
4
 74
0
 40
0
 40
0
 40
0
 40
0
 40
1
 40
1
 40
1
 40
1
 10
38.261980
 20
936.767900
 30
0.0
 10
37.647280
 20
936.713900
 30
0.0
 10
37.023280
 20
936.696900
 30
0.0
 10
36.423380
 20
936.564300
 30
0.0
  0
SPLINE
  5
11d
100
AcDbEntity
  8
Calque_1
 62
7
100
AcDbSpline
 70
8
 71
3
 72
8
 73
4
 74
0
 40
0
 40
0
 40
0
 40
0
 40
1
 40
1
 40
1
 40
1
 10
36.423380
 20
936.564300
 30
0.0
 10
35.966980
 20
936.463400
 30
0.0
 10
35.460180
 20
936.178500
 30
0.0
 10
34.989380
 20
936.106400
 30
0.0
  0
SPLINE
  5
11e
100
AcDbEntity
  8
Calque_1
 62
7
100
AcDbSpline
 70
8
 71
3
 72
8
 73
4
 74
0
 40
0
 40
0
 40
0
 40
0
 40
1
 40
1
 40
1
 40
1
 10
34.989380
 20
936.106400
 30
0.0
 10
34.801780
 20
936.077400
 30
0.0
 10
34.615580
 20
936.180400
 30
0.0
 10
34.428080
 20
936.157400
 30
0.0
  0
SPLINE
  5
11f
100
AcDbEntity
  8
Calque_1
 62
7
100
AcDbSpline
 70
8
 71
3
 72
8
 73
4
 74
0
 40
0
 40
0
 40
0
 40
0
 40
1
 40
1
 40
1
 40
1
 10
34.428080
 20
936.157400
 30
0.0
 10
33.253580
 20
936.013600
 30
0.0
 10
33.212980
 20
936.070400
 30
0.0
 10
32.433380
 20
935.343500
 30
0.0
  0
SPLINE
  5
120
100
AcDbEntity
  8
Calque_1
 62
7
100
AcDbSpline
 70
8
 71
3
 72
8
 73
4
 74
0
 40
0
 40
0
 40
0
 40
0
 40
1
 40
1
 40
1
 40
1
 10
32.433380
 20
935.343500
 30
0.0
 10
31.607180
 20
934.572900
 30
0.0
 10
32.914080
 20
933.221100
 30
0.0
 10
33.399780
 20
932.240800
 30
0.0
  0
SPLINE
  5
121
100
AcDbEntity
  8
Calque_1
 62
7
100
AcDbSpline
 70
8
 71
3
 72
8
 73
4
 74
0
 40
0
 40
0
 40
0
 40
0
 40
1
 40
1
 40
1
 40
1
 10
33.399780
 20
932.240800
 30
0.0
 10
33.223080
 20
931.130400
 30
0.0
 10
32.862380
 20
930.031200
 30
0.0
 10
32.869580
 20
928.909200
 30
0.0
  0
SPLINE
  5
122
100
AcDbEntity
  8
Calque_1
 62
7
100
AcDbSpline
 70
8
 71
3
 72
8
 73
4
 74
0
 40
0
 40
0
 40
0
 40
0
 40
1
 40
1
 40
1
 40
1
 10
32.869580
 20
928.909200
 30
0.0
 10
32.869580
 20
928.373100
 30
0.0
 10
33.267380
 20
927.898500
 30
0.0
 10
33.430780
 20
927.383200
 30
0.0
  0
SPLINE
  5
123
100
AcDbEntity
  8
Calque_1
 62
7
100
AcDbSpline
 70
8
 71
3
 72
8
 73
4
 74
0
 40
0
 40
0
 40
0
 40
0
 40
1
 40
1
 40
1
 40
1
 10
33.430780
 20
927.383200
 30
0.0
 10
34.081780
 20
925.330400
 30
0.0
 10
34.117980
 20
924.899300
 30
0.0
 10
34.459680
 20
922.678600
 30
0.0
  0
SPLINE
  5
124
100
AcDbEntity
  8
Calque_1
 62
7
100
AcDbSpline
 70
8
 71
3
 72
8
 73
4
 74
0
 40
0
 40
0
 40
0
 40
0
 40
1
 40
1
 40
1
 40
1
 10
34.459680
 20
922.678600
 30
0.0
 10
34.658880
 20
921.383200
 30
0.0
 10
34.880080
 20
920.089700
 30
0.0
 10
35.020880
 20
918.787900
 30
0.0
  0
SPLINE
  5
125
100
AcDbEntity
  8
Calque_1
 62
7
100
AcDbSpline
 70
8
 71
3
 72
8
 73
4
 74
0
 40
0
 40
0
 40
0
 40
0
 40
1
 40
1
 40
1
 40
1
 10
35.020880
 20
918.787900
 30
0.0
 10
35.548880
 20
913.905200
 30
0.0
 10
34.915680
 20
917.618300
 30
0.0
 10
35.332480
 20
913.218200
 30
0.0
  0
SPLINE
  5
126
100
AcDbEntity
  8
Calque_1
 62
7
100
AcDbSpline
 70
8
 71
3
 72
8
 73
4
 74
0
 40
0
 40
0
 40
0
 40
0
 40
1
 40
1
 40
1
 40
1
 10
35.332480
 20
913.218200
 30
0.0
 10
35.598680
 20
910.408000
 30
0.0
 10
36.153880
 20
907.548900
 30
0.0
 10
36.734980
 20
904.775300
 30
0.0
  0
SPLINE
  5
127
100
AcDbEntity
  8
Calque_1
 62
7
100
AcDbSpline
 70
8
 71
3
 72
8
 73
4
 74
0
 40
0
 40
0
 40
0
 40
0
 40
1
 40
1
 40
1
 40
1
 10
36.734980
 20
904.775300
 30
0.0
 10
36.938680
 20
903.802700
 30
0.0
 10
37.235580
 20
902.776800
 30
0.0
 10
37.545280
 20
901.825600
 30
0.0
  0
SPLINE
  5
128
100
AcDbEntity
  8
Calque_1
 62
7
100
AcDbSpline
 70
8
 71
3
 72
8
 73
4
 74
0
 40
0
 40
0
 40
0
 40
0
 40
1
 40
1
 40
1
 40
1
 10
37.545280
 20
901.825600
 30
0.0
 10
37.755380
 20
901.180000
 30
0.0
 10
38.022080
 20
900.516700
 30
0.0
 10
38.106480
 20
899.841800
 30
0.0
  0
SPLINE
  5
129
100
AcDbEntity
  8
Calque_1
 62
7
100
AcDbSpline
 70
8
 71
3
 72
8
 73
4
 74
0
 40
0
 40
0
 40
0
 40
0
 40
1
 40
1
 40
1
 40
1
 10
38.106480
 20
899.841800
 30
0.0
 10
38.205480
 20
899.047200
 30
0.0
 10
38.116480
 20
898.169700
 30
0.0
 10
38.044480
 20
897.375300
 30
0.0
  0
SPLINE
  5
12a
100
AcDbEntity
  8
Calque_1
 62
7
100
AcDbSpline
 70
8
 71
3
 72
8
 73
4
 74
0
 40
0
 40
0
 40
0
 40
0
 40
1
 40
1
 40
1
 40
1
 10
38.044480
 20
897.375300
 30
0.0
 10
38.018480
 20
897.088500
 30
0.0
 10
38.021480
 20
896.678700
 30
0.0
 10
37.888880
 20
896.408900
 30
0.0
  0
SPLINE
  5
12b
100
AcDbEntity
  8
Calque_1
 62
7
100
AcDbSpline
 70
8
 71
3
 72
8
 73
4
 74
0
 40
0
 40
0
 40
0
 40
0
 40
1
 40
1
 40
1
 40
1
 10
37.888880
 20
896.408900
 30
0.0
 10
37.774180
 20
896.174900
 30
0.0
 10
37.207980
 20
896.361900
 30
0.0
 10
37.078080
 20
896.357900
 30
0.0
  0
SPLINE
  5
12c
100
AcDbEntity
  8
Calque_1
 62
7
100
AcDbSpline
 70
8
 71
3
 72
8
 73
4
 74
0
 40
0
 40
0
 40
0
 40
0
 40
1
 40
1
 40
1
 40
1
 10
37.078080
 20
896.357900
 30
0.0
 10
36.947980
 20
896.357900
 30
0.0
 10
36.832580
 20
896.274900
 30
0.0
 10
36.703980
 20
896.256100
 30
0.0
  0
SPLINE
  5
12d
100
AcDbEntity
  8
Calque_1
 62
7
100
AcDbSpline
 70
8
 71
3
 72
8
 73
4
 74
0
 40
0
 40
0
 40
0
 40
0
 40
1
 40
1
 40
1
 40
1
 10
36.703980
 20
896.256100
 30
0.0
 10
35.467180
 20
896.079600
 30
0.0
 10
36.098180
 20
896.281100
 30
0.0
 10
34.678280
 20
896.129000
 30
0.0
  0
SPLINE
  5
12e
100
AcDbEntity
  8
Calque_1
 62
7
100
AcDbSpline
 70
8
 71
3
 72
8
 73
4
 74
0
 40
0
 40
0
 40
0
 40
0
 40
1
 40
1
 40
1
 40
1
 10
34.678280
 20
896.129000
 30
0.0
 10
33.453780
 20
895.998200
 30
0.0
 10
32.246280
 20
895.760500
 30
0.0
 10
31.031480
 20
895.569900
 30
0.0
  0
SPLINE
  5
12f
100
AcDbEntity
  8
Calque_1
 62
7
100
AcDbSpline
 70
8
 71
3
 72
8
 73
4
 74
0
 40
0
 40
0
 40
0
 40
0
 40
1
 40
1
 40
1
 40
1
 10
31.031480
 20
895.569900
 30
0.0
 10
27.400780
 20
895.000200
 30
0.0
 10
23.722880
 20
894.915700
 30
0.0
 10
20.059980
 20
894.603500
 30
0.0
  0
SPLINE
  5
130
100
AcDbEntity
  8
Calque_1
 62
7
100
AcDbSpline
 70
8
 71
3
 72
8
 73
4
 74
0
 40
0
 40
0
 40
0
 40
0
 40
1
 40
1
 40
1
 40
1
 10
20.059980
 20
894.603500
 30
0.0
 10
17.875380
 20
894.417300
 30
0.0
 10
15.709080
 20
894.084500
 30
0.0
 10
13.514180
 20
893.967400
 30
0.0
  0
SPLINE
  5
131
100
AcDbEntity
  8
Calque_1
 62
7
100
AcDbSpline
 70
8
 71
3
 72
8
 73
4
 74
0
 40
0
 40
0
 40
0
 40
0
 40
1
 40
1
 40
1
 40
1
 10
13.514180
 20
893.967400
 30
0.0
 10
11.818780
 20
893.876400
 30
0.0
 10
10.127480
 20
894.000400
 30
0.0
 10
8.433380
 20
893.942400
 30
0.0
  0
SPLINE
  5
132
100
AcDbEntity
  8
Calque_1
 62
7
100
AcDbSpline
 70
8
 71
3
 72
8
 73
4
 74
0
 40
0
 40
0
 40
0
 40
0
 40
1
 40
1
 40
1
 40
1
 10
8.433380
 20
893.942400
 30
0.0
 10
7.946180
 20
893.925400
 30
0.0
 10
7.500280
 20
893.859400
 30
0.0
 10
7.030880
 20
893.789900
 30
0.0
  0
SPLINE
  5
133
100
AcDbEntity
  8
Calque_1
 62
7
100
AcDbSpline
 70
8
 71
3
 72
8
 73
4
 74
0
 40
0
 40
0
 40
0
 40
0
 40
1
 40
1
 40
1
 40
1
 10
7.030880
 20
893.789900
 30
0.0
 10
6.756080
 20
893.748900
 30
0.0
 10
6.426980
 20
893.840900
 30
0.0
 10
6.157980
 20
893.840900
 30
0.0
  0
SPLINE
  5
134
100
AcDbEntity
  8
Calque_1
 62
7
100
AcDbSpline
 70
8
 71
3
 72
8
 73
4
 74
0
 40
0
 40
0
 40
0
 40
0
 40
1
 40
1
 40
1
 40
1
 10
6.157980
 20
893.840900
 30
0.0
 10
6.092980
 20
893.840900
 30
0.0
 10
6.170980
 20
893.721300
 30
0.0
 10
6.157980
 20
893.663100
 30
0.0
  0
SPLINE
  5
135
100
AcDbEntity
  8
Calque_1
 62
7
100
AcDbSpline
 70
8
 71
3
 72
8
 73
4
 74
0
 40
0
 40
0
 40
0
 40
0
 40
1
 40
1
 40
1
 40
1
 10
6.157980
 20
893.663100
 30
0.0
 10
6.085980
 20
893.340800
 30
0.0
 10
5.995580
 20
893.021700
 30
0.0
 10
5.939980
 20
892.696800
 30
0.0
  0
SPLINE
  5
136
100
AcDbEntity
  8
Calque_1
 62
7
100
AcDbSpline
 70
8
 71
3
 72
8
 73
4
 74
0
 40
0
 40
0
 40
0
 40
0
 40
1
 40
1
 40
1
 40
1
 10
5.939980
 20
892.696800
 30
0.0
 10
5.459880
 20
889.893600
 30
0.0
 10
5.378280
 20
887.070800
 30
0.0
 10
5.067180
 20
884.253400
 30
0.0
  0
SPLINE
  5
137
100
AcDbEntity
  8
Calque_1
 62
7
100
AcDbSpline
 70
8
 71
3
 72
8
 73
4
 74
0
 40
0
 40
0
 40
0
 40
0
 40
1
 40
1
 40
1
 40
1
 10
5.067180
 20
884.253400
 30
0.0
 10
4.890380
 20
882.653000
 30
0.0
 10
4.540680
 20
881.071800
 30
0.0
 10
4.350380
 20
879.472800
 30
0.0
  0
SPLINE
  5
138
100
AcDbEntity
  8
Calque_1
 62
7
100
AcDbSpline
 70
8
 71
3
 72
8
 73
4
 74
0
 40
0
 40
0
 40
0
 40
0
 40
1
 40
1
 40
1
 40
1
 10
4.350380
 20
879.472800
 30
0.0
 10
4.060080
 20
877.032600
 30
0.0
 10
3.831480
 20
874.548200
 30
0.0
 10
3.664580
 20
872.097500
 30
0.0
  0
SPLINE
  5
139
100
AcDbEntity
  8
Calque_1
 62
7
100
AcDbSpline
 70
8
 71
3
 72
8
 73
4
 74
0
 40
0
 40
0
 40
0
 40
0
 40
1
 40
1
 40
1
 40
1
 10
3.664580
 20
872.097500
 30
0.0
 10
3.601580
 20
871.174500
 30
0.0
 10
3.619580
 20
870.247500
 30
0.0
 10
3.540080
 20
869.325600
 30
0.0
  0
SPLINE
  5
13a
100
AcDbEntity
  8
Calque_1
 62
7
100
AcDbSpline
 70
8
 71
3
 72
8
 73
4
 74
0
 40
0
 40
0
 40
0
 40
0
 40
1
 40
1
 40
1
 40
1
 10
3.540080
 20
869.325600
 30
0.0
 10
3.234880
 20
865.801100
 30
0.0
 10
3.241480
 20
869.022400
 30
0.0
 10
3.134980
 20
865.587300
 30
0.0
  0
SPLINE
  5
13b
100
AcDbEntity
  8
Calque_1
 62
7
100
AcDbSpline
 70
8
 71
3
 72
8
 73
4
 74
0
 40
0
 40
0
 40
0
 40
0
 40
1
 40
1
 40
1
 40
1
 10
3.134980
 20
865.587300
 30
0.0
 10
3.040980
 20
862.556700
 30
0.0
 10
3.283480
 20
859.511200
 30
0.0
 10
3.134980
 20
856.483000
 30
0.0
  0
SPLINE
  5
13c
100
AcDbEntity
  8
Calque_1
 62
7
100
AcDbSpline
 70
8
 71
3
 72
8
 73
4
 74
0
 40
0
 40
0
 40
0
 40
0
 40
1
 40
1
 40
1
 40
1
 10
3.134980
 20
856.483000
 30
0.0
 10
3.089980
 20
855.564400
 30
0.0
 10
2.954280
 20
854.651300
 30
0.0
 10
2.854380
 20
853.736400
 30
0.0
  0
SPLINE
  5
13d
100
AcDbEntity
  8
Calque_1
 62
7
100
AcDbSpline
 70
8
 71
3
 72
8
 73
4
 74
0
 40
0
 40
0
 40
0
 40
0
 40
1
 40
1
 40
1
 40
1
 10
2.854380
 20
853.736400
 30
0.0
 10
2.661880
 20
851.974400
 30
0.0
 10
2.693880
 20
850.144300
 30
0.0
 10
2.355680
 20
848.396100
 30
0.0
  0
SPLINE
  5
13e
100
AcDbEntity
  8
Calque_1
 62
7
100
AcDbSpline
 70
8
 71
3
 72
8
 73
4
 74
0
 40
0
 40
0
 40
0
 40
0
 40
1
 40
1
 40
1
 40
1
 10
2.355680
 20
848.396100
 30
0.0
 10
2.319680
 20
848.212200
 30
0.0
 10
2.191980
 20
848.047900
 30
0.0
 10
2.168580
 20
847.862300
 30
0.0
  0
SPLINE
  5
13f
100
AcDbEntity
  8
Calque_1
 62
7
100
AcDbSpline
 70
8
 71
3
 72
8
 73
4
 74
0
 40
0
 40
0
 40
0
 40
0
 40
1
 40
1
 40
1
 40
1
 10
2.168580
 20
847.862300
 30
0.0
 10
2.137580
 20
847.618100
 30
0.0
 10
2.263580
 20
846.934800
 30
0.0
 10
2.168580
 20
846.895900
 30
0.0
  0
SPLINE
  5
140
100
AcDbEntity
  8
Calque_1
 62
7
100
AcDbSpline
 70
8
 71
3
 72
8
 73
4
 74
0
 40
0
 40
0
 40
0
 40
0
 40
1
 40
1
 40
1
 40
1
 10
2.168580
 20
846.895900
 30
0.0
 10
2.150580
 20
846.885900
 30
0.0
 10
2.311480
 20
847.048400
 30
0.0
 10
2.418180
 20
847.048400
 30
0.0
  0
SPLINE
  5
141
100
AcDbEntity
  8
Calque_1
 62
7
100
AcDbSpline
 70
8
 71
3
 72
8
 73
4
 74
0
 40
0
 40
0
 40
0
 40
0
 40
1
 40
1
 40
1
 40
1
 10
2.418180
 20
847.048400
 30
0.0
 10
3.026180
 20
847.048400
 30
0.0
 10
2.495180
 20
847.038400
 30
0.0
 10
3.446580
 20
847.099400
 30
0.0
  0
SPLINE
  5
142
100
AcDbEntity
  8
Calque_1
 62
7
100
AcDbSpline
 70
8
 71
3
 72
8
 73
4
 74
0
 40
0
 40
0
 40
0
 40
0
 40
1
 40
1
 40
1
 40
1
 10
3.446580
 20
847.099400
 30
0.0
 10
3.820180
 20
847.122400
 30
0.0
 10
4.201580
 20
847.082400
 30
0.0
 10
4.568480
 20
847.150400
 30
0.0
  0
SPLINE
  5
143
100
AcDbEntity
  8
Calque_1
 62
7
100
AcDbSpline
 70
8
 71
3
 72
8
 73
4
 74
0
 40
0
 40
0
 40
0
 40
0
 40
1
 40
1
 40
1
 40
1
 10
4.568480
 20
847.150400
 30
0.0
 10
5.206980
 20
847.269200
 30
0.0
 10
6.342180
 20
847.648600
 30
0.0
 10
6.968780
 20
847.786000
 30
0.0
  0
SPLINE
  5
144
100
AcDbEntity
  8
Calque_1
 62
7
100
AcDbSpline
 70
8
 71
3
 72
8
 73
4
 74
0
 40
0
 40
0
 40
0
 40
0
 40
1
 40
1
 40
1
 40
1
 10
6.968780
 20
847.786000
 30
0.0
 10
7.056780
 20
847.805000
 30
0.0
 10
9.899780
 20
848.319000
 30
0.0
 10
10.116980
 20
848.345700
 30
0.0
  0
SPLINE
  5
145
100
AcDbEntity
  8
Calque_1
 62
7
100
AcDbSpline
 70
8
 71
3
 72
8
 73
4
 74
0
 40
0
 40
0
 40
0
 40
0
 40
1
 40
1
 40
1
 40
1
 10
10.116980
 20
848.345700
 30
0.0
 10
12.389880
 20
848.624900
 30
0.0
 10
14.620880
 20
848.601100
 30
0.0
 10
16.849380
 20
849.184900
 30
0.0
  0
SPLINE
  5
146
100
AcDbEntity
  8
Calque_1
 62
7
100
AcDbSpline
 70
8
 71
3
 72
8
 73
4
 74
0
 40
0
 40
0
 40
0
 40
0
 40
1
 40
1
 40
1
 40
1
 10
16.849380
 20
849.184900
 30
0.0
 10
19.426580
 20
849.860100
 30
0.0
 10
21.898380
 20
850.700900
 30
0.0
 10
24.579080
 20
851.015800
 30
0.0
  0
SPLINE
  5
147
100
AcDbEntity
  8
Calque_1
 62
7
100
AcDbSpline
 70
8
 71
3
 72
8
 73
4
 74
0
 40
0
 40
0
 40
0
 40
0
 40
1
 40
1
 40
1
 40
1
 10
24.579080
 20
851.015800
 30
0.0
 10
27.148980
 20
851.317600
 30
0.0
 10
29.733380
 20
851.288800
 30
0.0
 10
32.309380
 20
851.499000
 30
0.0
  0
SPLINE
  5
148
100
AcDbEntity
  8
Calque_1
 62
7
100
AcDbSpline
 70
8
 71
3
 72
8
 73
4
 74
0
 40
0
 40
0
 40
0
 40
0
 40
1
 40
1
 40
1
 40
1
 10
32.309380
 20
851.499000
 30
0.0
 10
33.495080
 20
851.596000
 30
0.0
 10
34.671380
 20
851.810200
 30
0.0
 10
35.862680
 20
851.855000
 30
0.0
  0
SPLINE
  5
149
100
AcDbEntity
  8
Calque_1
 62
7
100
AcDbSpline
 70
8
 71
3
 72
8
 73
4
 74
0
 40
0
 40
0
 40
0
 40
0
 40
1
 40
1
 40
1
 40
1
 10
35.862680
 20
851.855000
 30
0.0
 10
36.880080
 20
851.893000
 30
0.0
 10
37.900980
 20
851.770000
 30
0.0
 10
38.917280
 20
851.830000
 30
0.0
  0
SPLINE
  5
14a
100
AcDbEntity
  8
Calque_1
 62
7
100
AcDbSpline
 70
8
 71
3
 72
8
 73
4
 74
0
 40
0
 40
0
 40
0
 40
0
 40
1
 40
1
 40
1
 40
1
 10
38.917280
 20
851.830000
 30
0.0
 10
40.499880
 20
851.922000
 30
0.0
 10
42.031180
 20
852.291500
 30
0.0
 10
43.592480
 20
852.516300
 30
0.0
  0
SPLINE
  5
14b
100
AcDbEntity
  8
Calque_1
 62
7
100
AcDbSpline
 70
8
 71
3
 72
8
 73
4
 74
0
 40
0
 40
0
 40
0
 40
0
 40
1
 40
1
 40
1
 40
1
 10
43.592480
 20
852.516300
 30
0.0
 10
44.209180
 20
852.605300
 30
0.0
 10
44.815380
 20
852.583300
 30
0.0
 10
45.431580
 20
852.643400
 30
0.0
  0
SPLINE
  5
14c
100
AcDbEntity
  8
Calque_1
 62
7
100
AcDbSpline
 70
8
 71
3
 72
8
 73
4
 74
0
 40
0
 40
0
 40
0
 40
0
 40
1
 40
1
 40
1
 40
1
 10
45.431580
 20
852.643400
 30
0.0
 10
46.177080
 20
852.716400
 30
0.0
 10
46.899880
 20
852.861100
 30
0.0
 10
47.637680
 20
852.964300
 30
0.0
  0
SPLINE
  5
14d
100
AcDbEntity
  8
Calque_1
 62
7
100
AcDbSpline
 70
8
 71
3
 72
8
 73
4
 74
0
 40
0
 40
0
 40
0
 40
0
 40
1
 40
1
 40
1
 40
1
 10
47.637680
 20
852.964300
 30
0.0
 10
47.568680
 20
852.948300
 30
0.0
 10
47.591680
 20
852.818700
 30
0.0
 10
47.582680
 20
852.745200
 30
0.0
  0
SPLINE
  5
14e
100
AcDbEntity
  8
Calque_1
 62
7
100
AcDbSpline
 70
8
 71
3
 72
8
 73
4
 74
0
 40
0
 40
0
 40
0
 40
0
 40
1
 40
1
 40
1
 40
1
 10
47.582680
 20
852.745200
 30
0.0
 10
47.560680
 20
852.576600
 30
0.0
 10
47.559680
 20
852.406300
 30
0.0
 10
47.551680
 20
852.236700
 30
0.0
  0
SPLINE
  5
14f
100
AcDbEntity
  8
Calque_1
 62
7
100
AcDbSpline
 70
8
 71
3
 72
8
 73
4
 74
0
 40
0
 40
0
 40
0
 40
0
 40
1
 40
1
 40
1
 40
1
 10
47.551680
 20
852.236700
 30
0.0
 10
47.507680
 20
851.306300
 30
0.0
 10
47.525680
 20
851.361200
 30
0.0
 10
47.489680
 20
850.329300
 30
0.0
  0
SPLINE
  5
150
100
AcDbEntity
  8
Calque_1
 62
7
100
AcDbSpline
 70
8
 71
3
 72
8
 73
4
 74
0
 40
0
 40
0
 40
0
 40
0
 40
1
 40
1
 40
1
 40
1
 10
47.489680
 20
850.329300
 30
0.0
 10
47.410680
 20
848.151700
 30
0.0
 10
47.468680
 20
845.996400
 30
0.0
 10
47.520680
 20
843.819100
 30
0.0
  0
SPLINE
  5
151
100
AcDbEntity
  8
Calque_1
 62
7
100
AcDbSpline
 70
8
 71
3
 72
8
 73
4
 74
0
 40
0
 40
0
 40
0
 40
0
 40
1
 40
1
 40
1
 40
1
 10
47.520680
 20
843.819100
 30
0.0
 10
47.579680
 20
841.335100
 30
0.0
 10
47.690280
 20
838.852100
 30
0.0
 10
47.738680
 20
836.367900
 30
0.0
  0
SPLINE
  5
152
100
AcDbEntity
  8
Calque_1
 62
7
100
AcDbSpline
 70
8
 71
3
 72
8
 73
4
 74
0
 40
0
 40
0
 40
0
 40
0
 40
1
 40
1
 40
1
 40
1
 10
47.738680
 20
836.367900
 30
0.0
 10
47.781680
 20
834.172700
 30
0.0
 10
47.726680
 20
831.976700
 30
0.0
 10
47.707680
 20
829.781200
 30
0.0
  0
SPLINE
  5
153
100
AcDbEntity
  8
Calque_1
 62
7
100
AcDbSpline
 70
8
 71
3
 72
8
 73
4
 74
0
 40
0
 40
0
 40
0
 40
0
 40
1
 40
1
 40
1
 40
1
 10
47.707680
 20
829.781200
 30
0.0
 10
47.689680
 20
827.712900
 30
0.0
 10
47.559980
 20
825.575800
 30
0.0
 10
47.738680
 20
823.499900
 30
0.0
  0
SPLINE
  5
154
100
AcDbEntity
  8
Calque_1
 62
7
100
AcDbSpline
 70
8
 71
3
 72
8
 73
4
 74
0
 40
0
 40
0
 40
0
 40
0
 40
1
 40
1
 40
1
 40
1
 10
47.738680
 20
823.499900
 30
0.0
 10
47.925080
 20
821.335100
 30
0.0
 10
48.280180
 20
819.178000
 30
0.0
 10
48.674080
 20
817.040400
 30
0.0
  0
SPLINE
  5
155
100
AcDbEntity
  8
Calque_1
 62
7
100
AcDbSpline
 70
8
 71
3
 72
8
 73
4
 74
0
 40
0
 40
0
 40
0
 40
0
 40
1
 40
1
 40
1
 40
1
 10
48.674080
 20
817.040400
 30
0.0
 10
48.923880
 20
815.684600
 30
0.0
 10
49.031280
 20
814.319400
 30
0.0
 10
49.328780
 20
812.971400
 30
0.0
  0
SPLINE
  5
156
100
AcDbEntity
  8
Calque_1
 62
7
100
AcDbSpline
 70
8
 71
3
 72
8
 73
4
 74
0
 40
0
 40
0
 40
0
 40
0
 40
1
 40
1
 40
1
 40
1
 10
49.328780
 20
812.971400
 30
0.0
 10
49.383780
 20
812.724100
 30
0.0
 10
49.308780
 20
812.402700
 30
0.0
 10
49.515380
 20
812.234000
 30
0.0
  0
SPLINE
  5
157
100
AcDbEntity
  8
Calque_1
 62
7
100
AcDbSpline
 70
8
 71
3
 72
8
 73
4
 74
0
 40
0
 40
0
 40
0
 40
0
 40
1
 40
1
 40
1
 40
1
 10
49.515380
 20
812.234000
 30
0.0
 10
49.670480
 20
812.107500
 30
0.0
 10
49.930880
 20
812.272000
 30
0.0
 10
50.139080
 20
812.285000
 30
0.0
  0
SPLINE
  5
158
100
AcDbEntity
  8
Calque_1
 62
7
100
AcDbSpline
 70
8
 71
3
 72
8
 73
4
 74
0
 40
0
 40
0
 40
0
 40
0
 40
1
 40
1
 40
1
 40
1
 10
50.139080
 20
812.285000
 30
0.0
 10
51.474280
 20
812.367000
 30
0.0
 10
50.185080
 20
812.254000
 30
0.0
 10
51.479080
 20
812.539300
 30
0.0
  0
SPLINE
  5
159
100
AcDbEntity
  8
Calque_1
 62
7
100
AcDbSpline
 70
8
 71
3
 72
8
 73
4
 74
0
 40
0
 40
0
 40
0
 40
0
 40
1
 40
1
 40
1
 40
1
 10
51.479080
 20
812.539300
 30
0.0
 10
52.667580
 20
812.801000
 30
0.0
 10
54.007280
 20
813.108800
 30
0.0
 10
55.219380
 20
813.251400
 30
0.0
  0
SPLINE
  5
15a
100
AcDbEntity
  8
Calque_1
 62
7
100
AcDbSpline
 70
8
 71
3
 72
8
 73
4
 74
0
 40
0
 40
0
 40
0
 40
0
 40
1
 40
1
 40
1
 40
1
 10
55.219380
 20
813.251400
 30
0.0
 10
58.653680
 20
813.655500
 30
0.0
 10
62.044080
 20
813.194400
 30
0.0
 10
65.474080
 20
813.073100
 30
0.0
  0
SPLINE
  5
15b
100
AcDbEntity
  8
Calque_1
 62
7
100
AcDbSpline
 70
8
 71
3
 72
8
 73
4
 74
0
 40
0
 40
0
 40
0
 40
0
 40
1
 40
1
 40
1
 40
1
 10
65.474080
 20
813.073100
 30
0.0
 10
67.773780
 20
812.991100
 30
0.0
 10
70.135080
 20
813.073100
 30
0.0
 10
72.425080
 20
813.251400
 30
0.0
  0
SPLINE
  5
15c
100
AcDbEntity
  8
Calque_1
 62
7
100
AcDbSpline
 70
8
 71
3
 72
8
 73
4
 74
0
 40
0
 40
0
 40
0
 40
0
 40
1
 40
1
 40
1
 40
1
 10
72.425080
 20
813.251400
 30
0.0
 10
75.372480
 20
813.474700
 30
0.0
 10
72.688080
 20
813.435000
 30
0.0
 10
76.040880
 20
813.531000
 30
0.0
  0
SPLINE
  5
15d
100
AcDbEntity
  8
Calque_1
 62
7
100
AcDbSpline
 70
8
 71
3
 72
8
 73
4
 74
0
 40
0
 40
0
 40
0
 40
0
 40
1
 40
1
 40
1
 40
1
 10
76.040880
 20
813.531000
 30
0.0
 10
77.769580
 20
813.580000
 30
0.0
 10
79.484880
 20
813.504000
 30
0.0
 10
81.214680
 20
813.607000
 30
0.0
  0
SPLINE
  5
15e
100
AcDbEntity
  8
Calque_1
 62
7
100
AcDbSpline
 70
8
 71
3
 72
8
 73
4
 74
0
 40
0
 40
0
 40
0
 40
0
 40
1
 40
1
 40
1
 40
1
 10
81.214680
 20
813.607000
 30
0.0
 10
83.305580
 20
813.731900
 30
0.0
 10
85.381980
 20
814.051300
 30
0.0
 10
87.448480
 20
814.344500
 30
0.0
  0
SPLINE
  5
15f
100
AcDbEntity
  8
Calque_1
 62
7
100
AcDbSpline
 70
8
 71
3
 72
8
 73
4
 74
0
 40
0
 40
0
 40
0
 40
0
 40
1
 40
1
 40
1
 40
1
 10
87.448480
 20
814.344500
 30
0.0
 10
88.752880
 20
814.529500
 30
0.0
 10
90.019680
 20
814.761700
 30
0.0
 10
91.313880
 20
815.005400
 30
0.0
  0
SPLINE
  5
160
100
AcDbEntity
  8
Calque_1
 62
7
100
AcDbSpline
 70
8
 71
3
 72
8
 73
4
 74
0
 40
0
 40
0
 40
0
 40
0
 40
1
 40
1
 40
1
 40
1
 10
91.313880
 20
815.005400
 30
0.0
 10
91.955780
 20
815.126300
 30
0.0
 10
92.659480
 20
815.179300
 30
0.0
 10
93.277080
 20
815.386800
 30
0.0
  0
SPLINE
  5
161
100
AcDbEntity
  8
Calque_1
 62
7
100
AcDbSpline
 70
8
 71
3
 72
8
 73
4
 74
0
 40
0
 40
0
 40
0
 40
0
 40
1
 40
1
 40
1
 40
1
 10
93.277080
 20
815.386800
 30
0.0
 10
94.074680
 20
815.654700
 30
0.0
 10
93.545680
 20
816.820700
 30
0.0
 10
93.464580
 20
817.243500
 30
0.0
  0
SPLINE
  5
162
100
AcDbEntity
  8
Calque_1
 62
7
100
AcDbSpline
 70
8
 71
3
 72
8
 73
4
 74
0
 40
0
 40
0
 40
0
 40
0
 40
1
 40
1
 40
1
 40
1
 10
93.464580
 20
817.243500
 30
0.0
 10
93.053880
 20
819.385100
 30
0.0
 10
92.625780
 20
821.479800
 30
0.0
 10
92.404780
 20
823.651900
 30
0.0
  0
SPLINE
  5
163
100
AcDbEntity
  8
Calque_1
 62
7
100
AcDbSpline
 70
8
 71
3
 72
8
 73
4
 74
0
 40
0
 40
0
 40
0
 40
0
 40
1
 40
1
 40
1
 40
1
 10
92.404780
 20
823.651900
 30
0.0
 10
92.268680
 20
824.989600
 30
0.0
 10
92.234380
 20
826.336100
 30
0.0
 10
92.061580
 20
827.670200
 30
0.0
  0
SPLINE
  5
164
100
AcDbEntity
  8
Calque_1
 62
7
100
AcDbSpline
 70
8
 71
3
 72
8
 73
4
 74
0
 40
0
 40
0
 40
0
 40
0
 40
1
 40
1
 40
1
 40
1
 10
92.061580
 20
827.670200
 30
0.0
 10
91.771380
 20
829.911400
 30
0.0
 10
91.236280
 20
832.121400
 30
0.0
 10
90.908680
 20
834.358200
 30
0.0
  0
SPLINE
  5
165
100
AcDbEntity
  8
Calque_1
 62
7
100
AcDbSpline
 70
8
 71
3
 72
8
 73
4
 74
0
 40
0
 40
0
 40
0
 40
0
 40
1
 40
1
 40
1
 40
1
 10
90.908680
 20
834.358200
 30
0.0
 10
90.411180
 20
837.754900
 30
0.0
 10
89.904580
 20
841.176000
 30
0.0
 10
89.474680
 20
844.581400
 30
0.0
  0
SPLINE
  5
166
100
AcDbEntity
  8
Calque_1
 62
7
100
AcDbSpline
 70
8
 71
3
 72
8
 73
4
 74
0
 40
0
 40
0
 40
0
 40
0
 40
1
 40
1
 40
1
 40
1
 10
89.474680
 20
844.581400
 30
0.0
 10
89.253580
 20
846.332800
 30
0.0
 10
89.008080
 20
848.084800
 30
0.0
 10
88.913480
 20
849.845600
 30
0.0
  0
SPLINE
  5
167
100
AcDbEntity
  8
Calque_1
 62
7
100
AcDbSpline
 70
8
 71
3
 72
8
 73
4
 74
0
 40
0
 40
0
 40
0
 40
0
 40
1
 40
1
 40
1
 40
1
 10
88.913480
 20
849.845600
 30
0.0
 10
88.858480
 20
850.861500
 30
0.0
 10
89.002480
 20
851.912400
 30
0.0
 10
89.069480
 20
852.923000
 30
0.0
  0
SPLINE
  5
168
100
AcDbEntity
  8
Calque_1
 62
7
100
AcDbSpline
 70
8
 71
3
 72
8
 73
4
 74
0
 40
0
 40
0
 40
0
 40
0
 40
1
 40
1
 40
1
 40
1
 10
89.069480
 20
852.923000
 30
0.0
 10
89.098480
 20
853.354900
 30
0.0
 10
89.145480
 20
853.787500
 30
0.0
 10
89.131480
 20
854.220100
 30
0.0
  0
SPLINE
  5
169
100
AcDbEntity
  8
Calque_1
 62
7
100
AcDbSpline
 70
8
 71
3
 72
8
 73
4
 74
0
 40
0
 40
0
 40
0
 40
0
 40
1
 40
1
 40
1
 40
1
 10
89.131480
 20
854.220100
 30
0.0
 10
89.121480
 20
854.458000
 30
0.0
 10
88.941380
 20
854.724000
 30
0.0
 10
89.069480
 20
854.932200
 30
0.0
  0
SPLINE
  5
16a
100
AcDbEntity
  8
Calque_1
 62
7
100
AcDbSpline
 70
8
 71
3
 72
8
 73
4
 74
0
 40
0
 40
0
 40
0
 40
0
 40
1
 40
1
 40
1
 40
1
 10
89.069480
 20
854.932200
 30
0.0
 10
89.160480
 20
855.081000
 30
0.0
 10
89.443080
 20
854.890200
 30
0.0
 10
89.630780
 20
854.881200
 30
0.0
  0
SPLINE
  5
16b
100
AcDbEntity
  8
Calque_1
 62
7
100
AcDbSpline
 70
8
 71
3
 72
8
 73
4
 74
0
 40
0
 40
0
 40
0
 40
0
 40
1
 40
1
 40
1
 40
1
 10
89.630780
 20
854.881200
 30
0.0
 10
90.272280
 20
854.851200
 30
0.0
 10
90.371980
 20
854.894200
 30
0.0
 10
91.033280
 20
854.957200
 30
0.0
  0
SPLINE
  5
16c
100
AcDbEntity
  8
Calque_1
 62
7
100
AcDbSpline
 70
8
 71
3
 72
8
 73
4
 74
0
 40
0
 40
0
 40
0
 40
0
 40
1
 40
1
 40
1
 40
1
 10
91.033280
 20
854.957200
 30
0.0
 10
92.490580
 20
855.098300
 30
0.0
 10
93.915080
 20
855.282300
 30
0.0
 10
95.365780
 20
855.465700
 30
0.0
  0
SPLINE
  5
16d
100
AcDbEntity
  8
Calque_1
 62
7
100
AcDbSpline
 70
8
 71
3
 72
8
 73
4
 74
0
 40
0
 40
0
 40
0
 40
0
 40
1
 40
1
 40
1
 40
1
 10
95.365780
 20
855.465700
 30
0.0
 10
96.971480
 20
855.668600
 30
0.0
 10
98.600380
 20
855.719300
 30
0.0
 10
100.196980
 20
855.974200
 30
0.0
  0
SPLINE
  5
16e
100
AcDbEntity
  8
Calque_1
 62
7
100
AcDbSpline
 70
8
 71
3
 72
8
 73
4
 74
0
 40
0
 40
0
 40
0
 40
0
 40
1
 40
1
 40
1
 40
1
 10
100.196980
 20
855.974200
 30
0.0
 10
100.912280
 20
856.088300
 30
0.0
 10
101.607580
 20
856.288400
 30
0.0
 10
102.316280
 20
856.432000
 30
0.0
  0
SPLINE
  5
16f
100
AcDbEntity
  8
Calque_1
 62
7
100
AcDbSpline
 70
8
 71
3
 72
8
 73
4
 74
0
 40
0
 40
0
 40
0
 40
0
 40
1
 40
1
 40
1
 40
1
 10
102.316280
 20
856.432000
 30
0.0
 10
105.649780
 20
857.107500
 30
0.0
 10
109.042180
 20
857.303500
 30
0.0
 10
112.352880
 20
858.059800
 30
0.0
  0
SPLINE
  5
170
100
AcDbEntity
  8
Calque_1
 62
7
100
AcDbSpline
 70
8
 71
3
 72
8
 73
4
 74
0
 40
0
 40
0
 40
0
 40
0
 40
1
 40
1
 40
1
 40
1
 10
112.352880
 20
858.059800
 30
0.0
 10
114.709780
 20
858.598200
 30
0.0
 10
116.993280
 20
859.361900
 30
0.0
 10
119.365880
 20
859.839600
 30
0.0
  0
SPLINE
  5
171
100
AcDbEntity
  8
Calque_1
 62
7
100
AcDbSpline
 70
8
 71
3
 72
8
 73
4
 74
0
 40
0
 40
0
 40
0
 40
0
 40
1
 40
1
 40
1
 40
1
 10
119.365880
 20
859.839600
 30
0.0
 10
120.337980
 20
860.035300
 30
0.0
 10
121.327480
 20
860.059100
 30
0.0
 10
122.295880
 20
860.246800
 30
0.0
  0
SPLINE
  5
172
100
AcDbEntity
  8
Calque_1
 62
7
100
AcDbSpline
 70
8
 71
3
 72
8
 73
4
 74
0
 40
0
 40
0
 40
0
 40
0
 40
1
 40
1
 40
1
 40
1
 10
122.295880
 20
860.246800
 30
0.0
 10
122.473280
 20
860.280800
 30
0.0
 10
124.129980
 20
860.691600
 30
0.0
 10
124.540280
 20
860.831700
 30
0.0
  0
SPLINE
  5
173
100
AcDbEntity
  8
Calque_1
 62
7
100
AcDbSpline
 70
8
 71
3
 72
8
 73
4
 74
0
 40
0
 40
0
 40
0
 40
0
 40
1
 40
1
 40
1
 40
1
 10
124.540280
 20
860.831700
 30
0.0
 10
124.723380
 20
860.894700
 30
0.0
 10
124.882480
 20
861.009200
 30
0.0
 10
125.069880
 20
861.060200
 30
0.0
  0
SPLINE
  5
174
100
AcDbEntity
  8
Calque_1
 62
7
100
AcDbSpline
 70
8
 71
3
 72
8
 73
4
 74
0
 40
0
 40
0
 40
0
 40
0
 40
1
 40
1
 40
1
 40
1
 10
125.069880
 20
861.060200
 30
0.0
 10
125.911780
 20
861.289100
 30
0.0
 10
127.623880
 20
861.111200
 30
0.0
 10
128.529680
 20
861.111200
 30
0.0
  0
SPLINE
  5
175
100
AcDbEntity
  8
Calque_1
 62
7
100
AcDbSpline
 70
8
 71
3
 72
8
 73
4
 74
0
 40
0
 40
0
 40
0
 40
0
 40
1
 40
1
 40
1
 40
1
 10
128.529680
 20
861.111200
 30
0.0
 10
128.727080
 20
861.111200
 30
0.0
 10
128.589680
 20
861.466000
 30
0.0
 10
128.591680
 20
861.645000
 30
0.0
  0
SPLINE
  5
176
100
AcDbEntity
  8
Calque_1
 62
7
100
AcDbSpline
 70
8
 71
3
 72
8
 73
4
 74
0
 40
0
 40
0
 40
0
 40
0
 40
1
 40
1
 40
1
 40
1
 10
128.591680
 20
861.645000
 30
0.0
 10
128.613680
 20
863.028100
 30
0.0
 10
128.488780
 20
864.488300
 30
0.0
 10
128.154980
 20
865.841200
 30
0.0
  0
SPLINE
  5
177
100
AcDbEntity
  8
Calque_1
 62
7
100
AcDbSpline
 70
8
 71
3
 72
8
 73
4
 74
0
 40
0
 40
0
 40
0
 40
0
 40
1
 40
1
 40
1
 40
1
 10
128.154980
 20
865.841200
 30
0.0
 10
126.967080
 20
870.656600
 30
0.0
 10
125.036880
 20
875.291300
 30
0.0
 10
124.352680
 20
880.209800
 30
0.0
  0
SPLINE
  5
178
100
AcDbEntity
  8
Calque_1
 62
7
100
AcDbSpline
 70
8
 71
3
 72
8
 73
4
 74
0
 40
0
 40
0
 40
0
 40
0
 40
1
 40
1
 40
1
 40
1
 10
124.352680
 20
880.209800
 30
0.0
 10
124.054180
 20
882.355400
 30
0.0
 10
124.034180
 20
884.577100
 30
0.0
 10
123.511380
 20
886.694700
 30
0.0
  0
SPLINE
  5
179
100
AcDbEntity
  8
Calque_1
 62
7
100
AcDbSpline
 70
8
 71
3
 72
8
 73
4
 74
0
 40
0
 40
0
 40
0
 40
0
 40
1
 40
1
 40
1
 40
1
 10
123.511380
 20
886.694700
 30
0.0
 10
121.784380
 20
893.689000
 30
0.0
 10
124.372380
 20
880.957900
 30
0.0
 10
122.232880
 20
891.322800
 30
0.0
  0
SPLINE
  5
17a
100
AcDbEntity
  8
Calque_1
 62
7
100
AcDbSpline
 70
8
 71
3
 72
8
 73
4
 74
0
 40
0
 40
0
 40
0
 40
0
 40
1
 40
1
 40
1
 40
1
 10
122.232880
 20
891.322800
 30
0.0
 10
121.856080
 20
893.148300
 30
0.0
 10
121.694980
 20
895.014100
 30
0.0
 10
121.329080
 20
896.841300
 30
0.0
  0
SPLINE
  5
17b
100
AcDbEntity
  8
Calque_1
 62
7
100
AcDbSpline
 70
8
 71
3
 72
8
 73
4
 74
0
 40
0
 40
0
 40
0
 40
0
 40
1
 40
1
 40
1
 40
1
 10
121.329080
 20
896.841300
 30
0.0
 10
120.713780
 20
899.913400
 30
0.0
 10
120.863580
 20
897.920300
 30
0.0
 10
120.705880
 20
900.732600
 30
0.0
  0
SPLINE
  5
17c
100
AcDbEntity
  8
Calque_1
 62
7
100
AcDbSpline
 70
8
 71
3
 72
8
 73
4
 74
0
 40
0
 40
0
 40
0
 40
0
 40
1
 40
1
 40
1
 40
1
 10
120.705880
 20
900.732600
 30
0.0
 10
120.562280
 20
903.291000
 30
0.0
 10
120.558480
 20
905.789200
 30
0.0
 10
120.176180
 20
908.336200
 30
0.0
  0
SPLINE
  5
17d
100
AcDbEntity
  8
Calque_1
 62
7
100
AcDbSpline
 70
8
 71
3
 72
8
 73
4
 74
0
 40
0
 40
0
 40
0
 40
0
 40
1
 40
1
 40
1
 40
1
 10
120.176180
 20
908.336200
 30
0.0
 10
120.051380
 20
909.167400
 30
0.0
 10
119.691580
 20
909.954300
 30
0.0
 10
119.552380
 20
910.777400
 30
0.0
  0
SPLINE
  5
17e
100
AcDbEntity
  8
Calque_1
 62
7
100
AcDbSpline
 70
8
 71
3
 72
8
 73
4
 74
0
 40
0
 40
0
 40
0
 40
0
 40
1
 40
1
 40
1
 40
1
 10
119.552380
 20
910.777400
 30
0.0
 10
119.507380
 20
911.046600
 30
0.0
 10
119.472380
 20
912.468700
 30
0.0
 10
119.209780
 20
912.659500
 30
0.0
  0
SPLINE
  5
17f
100
AcDbEntity
  8
Calque_1
 62
7
100
AcDbSpline
 70
8
 71
3
 72
8
 73
4
 74
0
 40
0
 40
0
 40
0
 40
0
 40
1
 40
1
 40
1
 40
1
 10
119.209780
 20
912.659500
 30
0.0
 10
118.740480
 20
912.999900
 30
0.0
 10
117.379980
 20
912.498000
 30
0.0
 10
117.090080
 20
912.455900
 30
0.0
  0
SPLINE
  5
180
100
AcDbEntity
  8
Calque_1
 62
7
100
AcDbSpline
 70
8
 71
3
 72
8
 73
4
 74
0
 40
0
 40
0
 40
0
 40
0
 40
1
 40
1
 40
1
 40
1
 10
117.090080
 20
912.455900
 30
0.0
 10
116.761280
 20
912.407900
 30
0.0
 10
116.425680
 20
912.408900
 30
0.0
 10
116.092680
 20
912.404900
 30
0.0
  0
SPLINE
  5
181
100
AcDbEntity
  8
Calque_1
 62
7
100
AcDbSpline
 70
8
 71
3
 72
8
 73
4
 74
0
 40
0
 40
0
 40
0
 40
0
 40
1
 40
1
 40
1
 40
1
 10
116.092680
 20
912.404900
 30
0.0
 10
113.588380
 20
912.376900
 30
0.0
 10
111.201180
 20
912.546300
 30
0.0
 10
108.705480
 20
912.150700
 30
0.0
  0
SPLINE
  5
182
100
AcDbEntity
  8
Calque_1
 62
7
100
AcDbSpline
 70
8
 71
3
 72
8
 73
4
 74
0
 40
0
 40
0
 40
0
 40
0
 40
1
 40
1
 40
1
 40
1
 10
108.705480
 20
912.150700
 30
0.0
 10
106.428680
 20
911.789700
 30
0.0
 10
101.800380
 20
910.567400
 30
0.0
 10
99.915880
 20
910.141500
 30
0.0
  0
SPLINE
  5
183
100
AcDbEntity
  8
Calque_1
 62
7
100
AcDbSpline
 70
8
 71
3
 72
8
 73
4
 74
0
 40
0
 40
0
 40
0
 40
0
 40
1
 40
1
 40
1
 40
1
 10
99.915880
 20
910.141500
 30
0.0
 10
98.252880
 20
909.765700
 30
0.0
 10
95.462880
 20
909.207000
 30
0.0
 10
93.682180
 20
909.048000
 30
0.0
  0
SPLINE
  5
184
100
AcDbEntity
  8
Calque_1
 62
7
100
AcDbSpline
 70
8
 71
3
 72
8
 73
4
 74
0
 40
0
 40
0
 40
0
 40
0
 40
1
 40
1
 40
1
 40
1
 10
93.682180
 20
909.048000
 30
0.0
 10
91.259680
 20
908.831700
 30
0.0
 10
88.659680
 20
909.101000
 30
0.0
 10
86.325980
 20
908.844400
 30
0.0
  0
SPLINE
  5
185
100
AcDbEntity
  8
Calque_1
 62
7
100
AcDbSpline
 70
8
 71
3
 72
8
 73
4
 74
0
 40
0
 40
0
 40
0
 40
0
 40
1
 40
1
 40
1
 40
1
 10
86.325980
 20
908.844400
 30
0.0
 10
85.416980
 20
908.744400
 30
0.0
 10
81.816380
 20
907.844900
 30
0.0
 10
81.681880
 20
907.954600
 30
0.0
  0
SPLINE
  5
186
100
AcDbEntity
  8
Calque_1
 62
7
100
AcDbSpline
 70
8
 71
3
 72
8
 73
4
 74
0
 40
0
 40
0
 40
0
 40
0
 40
1
 40
1
 40
1
 40
1
 10
81.681880
 20
907.954600
 30
0.0
 10
81.355380
 20
908.220900
 30
0.0
 10
81.269280
 20
910.453200
 30
0.0
 10
81.245680
 20
910.624700
 30
0.0
  0
SPLINE
  5
187
100
AcDbEntity
  8
Calque_1
 62
7
100
AcDbSpline
 70
8
 71
3
 72
8
 73
4
 74
0
 40
0
 40
0
 40
0
 40
0
 40
1
 40
1
 40
1
 40
1
 10
81.245680
 20
910.624700
 30
0.0
 10
81.034580
 20
912.162200
 30
0.0
 10
80.820080
 20
912.850000
 30
0.0
 10
80.746480
 20
914.515400
 30
0.0
  0
SPLINE
  5
188
100
AcDbEntity
  8
Calque_1
 62
7
100
AcDbSpline
 70
8
 71
3
 72
8
 73
4
 74
0
 40
0
 40
0
 40
0
 40
0
 40
1
 40
1
 40
1
 40
1
 10
80.746480
 20
914.515400
 30
0.0
 10
80.632380
 20
917.099100
 30
0.0
 10
80.883780
 20
919.690100
 30
0.0
 10
80.652480
 20
922.272000
 30
0.0
  0
SPLINE
  5
189
100
AcDbEntity
  8
Calque_1
 62
7
100
AcDbSpline
 70
8
 71
3
 72
8
 73
4
 74
0
 40
0
 40
0
 40
0
 40
0
 40
1
 40
1
 40
1
 40
1
 10
80.652480
 20
922.272000
 30
0.0
 10
80.422880
 20
924.841500
 30
0.0
 10
79.793780
 20
927.317400
 30
0.0
 10
79.312580
 20
929.850400
 30
0.0
  0
SPLINE
  5
18a
100
AcDbEntity
  8
Calque_1
 62
7
100
AcDbSpline
 70
8
 71
3
 72
8
 73
4
 74
0
 40
0
 40
0
 40
0
 40
0
 40
1
 40
1
 40
1
 40
1
 10
79.312580
 20
929.850400
 30
0.0
 10
79.038880
 20
931.290900
 30
0.0
 10
78.774980
 20
932.732900
 30
0.0
 10
78.502280
 20
934.173600
 30
0.0
  0
SPLINE
  5
18b
100
AcDbEntity
  8
Calque_1
 62
7
100
AcDbSpline
 70
8
 71
3
 72
8
 73
4
 74
0
 40
0
 40
0
 40
0
 40
0
 40
1
 40
1
 40
1
 40
1
 10
78.502280
 20
934.173600
 30
0.0
 10
78.314180
 20
935.167200
 30
0.0
 10
78.242280
 20
936.055700
 30
0.0
 10
77.910080
 20
937.022000
 30
0.0
  0
SPLINE
  5
18c
100
AcDbEntity
  8
Calque_1
 62
7
100
AcDbSpline
 70
8
 71
3
 72
8
 73
4
 74
0
 40
0
 40
0
 40
0
 40
0
 40
1
 40
1
 40
1
 40
1
 10
77.910080
 20
937.022000
 30
0.0
 10
77.688980
 20
937.665100
 30
0.0
 10
77.225280
 20
938.271200
 30
0.0
 10
76.912680
 20
938.878300
 30
0.0
  0
SPLINE
  5
18d
100
AcDbEntity
  8
Calque_1
 62
7
100
AcDbSpline
 70
8
 71
3
 72
8
 73
4
 74
0
 40
0
 40
0
 40
0
 40
0
 40
1
 40
1
 40
1
 40
1
 10
76.912680
 20
938.878300
 30
0.0
 10
76.791680
 20
939.113300
 30
0.0
 10
76.489080
 20
940.075600
 30
0.0
 10
76.133480
 20
940.251800
 30
0.0
  0
SPLINE
  5
18e
100
AcDbEntity
  8
Calque_1
 62
7
100
AcDbSpline
 70
8
 71
3
 72
8
 73
4
 74
0
 40
0
 40
0
 40
0
 40
0
 40
1
 40
1
 40
1
 40
1
 10
76.133480
 20
940.251800
 30
0.0
 10
75.578680
 20
940.526600
 30
0.0
 10
74.423980
 20
940.439500
 30
0.0
 10
73.858080
 20
940.454900
 30
0.0
  0
SPLINE
  5
18f
100
AcDbEntity
  8
Calque_1
 62
7
100
AcDbSpline
 70
8
 71
3
 72
8
 73
4
 74
0
 40
0
 40
0
 40
0
 40
0
 40
1
 40
1
 40
1
 40
1
 10
73.858080
 20
940.454900
 30
0.0
 10
72.665180
 20
940.487900
 30
0.0
 10
71.461380
 20
940.612800
 30
0.0
 10
70.273280
 20
940.633200
 30
0.0
  0
LWPOLYLINE
  5
190
100
AcDbEntity
  8
Calque_1
 62
7
100
AcDbPolyline
 90
2
 70
0
 10
6.467510
 20
211.381700
 30
0.0
 10
6.467710
 20
211.381700
 30
0.0
  0
LWPOLYLINE
  5
191
100
AcDbEntity
  8
Calque_1
 62
7
100
AcDbPolyline
 90
2
 70
0
 10
70.273280
 20
940.633200
 30
0.0
 10
70.272980
 20
940.633300
 30
0.0
  0
LWPOLYLINE
  5
192
100
AcDbEntity
  8
Calque_1
 62
7
100
AcDbPolyline
 90
4
 70
1
 10
0.500350
 20
800.336400
 30
0.0
 10
130.299140
 20
800.336400
 30
0.0
 10
130.299140
 20
0.502500
 30
0.0
 10
0.500350
 20
0.502500
 30
0.0
  0
LWPOLYLINE
  5
193
100
AcDbEntity
  8
Calque_1
 62
7
100
AcDbPolyline
 90
5
 70
1
 10
0.500350
 20
948.485000
 30
0.0
 10
95.027390
 20
948.485000
 30
0.0
 10
130.299140
 20
948.485000
 30
0.0
 10
130.299140
 20
804.336700
 30
0.0
 10
0.500350
 20
804.336700
 30
0.0
  0
LWPOLYLINE
  5
194
100
AcDbEntity
  8
Calque_1
 62
7
100
AcDbPolyline
 90
4
 70
1
 10
95.027390
 20
1018.484800
 30
0.0
 10
130.299140
 20
1018.484800
 30
0.0
 10
130.299140
 20
952.485300
 30
0.0
 10
95.027390
 20
952.485300
 30
0.0
  0
LWPOLYLINE
  5
195
100
AcDbEntity
  8
Calque_1
 62
7
100
AcDbPolyline
 90
5
 70
1
 10
0.500350
 20
1018.484800
 30
0.0
 10
70.342080
 20
1018.484800
 30
0.0
 10
91.027640
 20
1018.484800
 30
0.0
 10
91.027640
 20
952.485300
 30
0.0
 10
0.500350
 20
952.485300
 30
0.0
  0
LWPOLYLINE
  5
196
100
AcDbEntity
  8
Calque_1
 62
7
100
AcDbPolyline
 90
5
 70
1
 10
70.500210
 20
1039.178200
 30
0.0
 10
130.299140
 20
1039.178200
 30
0.0
 10
130.299140
 20
1022.485100
 30
0.0
 10
91.027640
 20
1022.485100
 30
0.0
 10
70.500210
 20
1022.485100
 30
0.0
  0
LWPOLYLINE
  5
197
100
AcDbEntity
  8
Calque_1
 62
7
100
AcDbPolyline
 90
4
 70
1
 10
70.342080
 20
1067.276200
 30
0.0
 10
130.138940
 20
1067.276200
 30
0.0
 10
130.138940
 20
1043.444000
 30
0.0
 10
70.342080
 20
1043.444000
 30
0.0
  0
SPLINE
  5
198
100
AcDbEntity
  8
Calque_1
 62
7
100
AcDbSpline
 70
8
 71
3
 72
8
 73
4
 74
0
 40
0
 40
0
 40
0
 40
0
 40
1
 40
1
 40
1
 40
1
 10
74.001020
 20
960.306000
 30
0.0
 10
74.023020
 20
960.463100
 30
0.0
 10
74.062020
 20
960.764100
 30
0.0
 10
73.991020
 20
961.232700
 30
0.0
  0
SPLINE
  5
199
100
AcDbEntity
  8
Calque_1
 62
7
100
AcDbSpline
 70
8
 71
3
 72
8
 73
4
 74
0
 40
0
 40
0
 40
0
 40
0
 40
1
 40
1
 40
1
 40
1
 10
73.991020
 20
961.232700
 30
0.0
 10
73.609320
 20
963.817100
 30
0.0
 10
72.669720
 20
966.304800
 30
0.0
 10
71.620420
 20
969.040700
 30
0.0
  0
SPLINE
  5
19a
100
AcDbEntity
  8
Calque_1
 62
7
100
AcDbSpline
 70
8
 71
3
 72
8
 73
4
 74
0
 40
0
 40
0
 40
0
 40
0
 40
1
 40
1
 40
1
 40
1
 10
71.620420
 20
969.040700
 30
0.0
 10
71.358020
 20
969.724900
 30
0.0
 10
71.168020
 20
970.312200
 30
0.0
 10
70.973720
 20
970.771800
 30
0.0
  0
SPLINE
  5
19b
100
AcDbEntity
  8
Calque_1
 62
7
100
AcDbSpline
 70
8
 71
3
 72
8
 73
4
 74
0
 40
0
 40
0
 40
0
 40
0
 40
1
 40
1
 40
1
 40
1
 10
70.973720
 20
970.771800
 30
0.0
 10
70.066820
 20
972.916900
 30
0.0
 10
68.807220
 20
974.995300
 30
0.0
 10
67.416320
 20
977.060200
 30
0.0
  0
SPLINE
  5
19c
100
AcDbEntity
  8
Calque_1
 62
7
100
AcDbSpline
 70
8
 71
3
 72
8
 73
4
 74
0
 40
0
 40
0
 40
0
 40
0
 40
1
 40
1
 40
1
 40
1
 10
67.416320
 20
977.060200
 30
0.0
 10
67.354320
 20
977.153200
 30
0.0
 10
67.009920
 20
977.591100
 30
0.0
 10
66.655620
 20
978.082400
 30
0.0
  0
SPLINE
  5
19d
100
AcDbEntity
  8
Calque_1
 62
7
100
AcDbSpline
 70
8
 71
3
 72
8
 73
4
 74
0
 40
0
 40
0
 40
0
 40
0
 40
1
 40
1
 40
1
 40
1
 10
66.655620
 20
978.082400
 30
0.0
 10
66.301220
 20
978.573600
 30
0.0
 10
65.894420
 20
979.103800
 30
0.0
 10
65.602020
 20
979.994300
 30
0.0
  0
SPLINE
  5
19e
100
AcDbEntity
  8
Calque_1
 62
7
100
AcDbSpline
 70
8
 71
3
 72
8
 73
4
 74
0
 40
0
 40
0
 40
0
 40
0
 40
1
 40
1
 40
1
 40
1
 10
65.602020
 20
979.994300
 30
0.0
 10
65.470320
 20
980.396000
 30
0.0
 10
65.363120
 20
981.246500
 30
0.0
 10
65.843720
 20
982.020400
 30
0.0
  0
SPLINE
  5
19f
100
AcDbEntity
  8
Calque_1
 62
7
100
AcDbSpline
 70
8
 71
3
 72
8
 73
4
 74
0
 40
0
 40
0
 40
0
 40
0
 40
1
 40
1
 40
1
 40
1
 10
65.843720
 20
982.020400
 30
0.0
 10
66.324320
 20
982.794300
 30
0.0
 10
67.072720
 20
983.050100
 30
0.0
 10
67.464620
 20
983.120900
 30
0.0
  0
SPLINE
  5
1a0
100
AcDbEntity
  8
Calque_1
 62
7
100
AcDbSpline
 70
8
 71
3
 72
8
 73
4
 74
0
 40
0
 40
0
 40
0
 40
0
 40
1
 40
1
 40
1
 40
1
 10
67.464620
 20
983.120900
 30
0.0
 10
68.248320
 20
983.262600
 30
0.0
 10
68.407620
 20
983.110900
 30
0.0
 10
68.594120
 20
983.059900
 30
0.0
  0
SPLINE
  5
1a1
100
AcDbEntity
  8
Calque_1
 62
7
100
AcDbSpline
 70
8
 71
3
 72
8
 73
4
 74
0
 40
0
 40
0
 40
0
 40
0
 40
1
 40
1
 40
1
 40
1
 10
68.594120
 20
983.059900
 30
0.0
 10
68.966420
 20
982.952300
 30
0.0
 10
69.014320
 20
983.040900
 30
0.0
 10
69.616720
 20
982.494700
 30
0.0
  0
LWPOLYLINE
  5
1a2
100
AcDbEntity
  8
Calque_1
 62
7
100
AcDbPolyline
 90
5
 70
1
 10
0.500350
 20
1067.276200
 30
0.0
 10
66.341800
 20
1067.276200
 30
0.0
 10
66.341800
 20
1039.178200
 30
0.0
 10
66.341800
 20
1022.485100
 30
0.0
 10
0.500350
 20
1022.485100
 30
0.0
  0
SPLINE
  5
1a3
100
AcDbEntity
  8
Calque_1
 62
7
100
AcDbSpline
 70
8
 71
3
 72
8
 73
4
 74
0
 40
0
 40
0
 40
0
 40
0
 40
1
 40
1
 40
1
 40
1
 10
69.616720
 20
982.494700
 30
0.0
 10
69.887920
 20
982.248900
 30
0.0
 10
70.028320
 20
982.086300
 30
0.0
 10
70.069020
 20
982.047300
 30
0.0
  0
SPLINE
  5
1a4
100
AcDbEntity
  8
Calque_1
 62
7
100
AcDbSpline
 70
8
 71
3
 72
8
 73
4
 74
0
 40
0
 40
0
 40
0
 40
0
 40
1
 40
1
 40
1
 40
1
 10
70.069020
 20
982.047300
 30
0.0
 10
70.341920
 20
981.784500
 30
0.0
 10
70.467720
 20
981.667500
 30
0.0
 10
70.507720
 20
981.631300
 30
0.0
  0
SPLINE
  5
1a5
100
AcDbEntity
  8
Calque_1
 62
7
100
AcDbSpline
 70
8
 71
3
 72
8
 73
4
 74
0
 40
0
 40
0
 40
0
 40
0
 40
1
 40
1
 40
1
 40
1
 10
70.507720
 20
981.631300
 30
0.0
 10
70.527720
 20
981.612300
 30
0.0
 10
70.517720
 20
981.631300
 30
0.0
 10
70.526720
 20
981.614300
 30
0.0
  0
SPLINE
  5
1a6
100
AcDbEntity
  8
Calque_1
 62
7
100
AcDbSpline
 70
8
 71
3
 72
8
 73
4
 74
0
 40
0
 40
0
 40
0
 40
0
 40
1
 40
1
 40
1
 40
1
 10
70.526720
 20
981.614300
 30
0.0
 10
70.536720
 20
981.604300
 30
0.0
 10
70.542720
 20
981.613300
 30
0.0
 10
70.693520
 20
981.456500
 30
0.0
  0
SPLINE
  5
1a7
100
AcDbEntity
  8
Calque_1
 62
7
100
AcDbSpline
 70
8
 71
3
 72
8
 73
4
 74
0
 40
0
 40
0
 40
0
 40
0
 40
1
 40
1
 40
1
 40
1
 10
70.693520
 20
981.456500
 30
0.0
 10
70.802120
 20
981.343500
 30
0.0
 10
70.979720
 20
981.068100
 30
0.0
 10
71.078920
 20
980.905100
 30
0.0
  0
SPLINE
  5
1a8
100
AcDbEntity
  8
Calque_1
 62
7
100
AcDbSpline
 70
8
 71
3
 72
8
 73
4
 74
0
 40
0
 40
0
 40
0
 40
0
 40
1
 40
1
 40
1
 40
1
 10
71.078920
 20
980.905100
 30
0.0
 10
71.024920
 20
981.006500
 30
0.0
 10
70.956020
 20
981.129800
 30
0.0
 10
70.933220
 20
981.161700
 30
0.0
  0
SPLINE
  5
1a9
100
AcDbEntity
  8
Calque_1
 62
7
100
AcDbSpline
 70
8
 71
3
 72
8
 73
4
 74
0
 40
0
 40
0
 40
0
 40
0
 40
1
 40
1
 40
1
 40
1
 10
70.933220
 20
981.161700
 30
0.0
 10
70.889220
 20
981.222700
 30
0.0
 10
70.887220
 20
981.221700
 30
0.0
 10
70.909220
 20
981.193700
 30
0.0
  0
SPLINE
  5
1aa
100
AcDbEntity
  8
Calque_1
 62
7
100
AcDbSpline
 70
8
 71
3
 72
8
 73
4
 74
0
 40
0
 40
0
 40
0
 40
0
 40
1
 40
1
 40
1
 40
1
 10
70.909220
 20
981.193700
 30
0.0
 10
70.954220
 20
981.138700
 30
0.0
 10
71.103420
 20
980.964300
 30
0.0
 10
71.404720
 20
980.626400
 30
0.0
  0
SPLINE
  5
1ab
100
AcDbEntity
  8
Calque_1
 62
7
100
AcDbSpline
 70
8
 71
3
 72
8
 73
4
 74
0
 40
0
 40
0
 40
0
 40
0
 40
1
 40
1
 40
1
 40
1
 10
71.404720
 20
980.626400
 30
0.0
 10
72.141520
 20
979.800200
 30
0.0
 10
72.824520
 20
979.011900
 30
0.0
 10
73.509520
 20
978.316500
 30
0.0
  0
SPLINE
  5
1ac
100
AcDbEntity
  8
Calque_1
 62
7
100
AcDbSpline
 70
8
 71
3
 72
8
 73
4
 74
0
 40
0
 40
0
 40
0
 40
0
 40
1
 40
1
 40
1
 40
1
 10
73.509520
 20
978.316500
 30
0.0
 10
74.049620
 20
977.768100
 30
0.0
 10
75.329720
 20
976.663600
 30
0.0
 10
76.002220
 20
976.107200
 30
0.0
  0
SPLINE
  5
1ad
100
AcDbEntity
  8
Calque_1
 62
7
100
AcDbSpline
 70
8
 71
3
 72
8
 73
4
 74
0
 40
0
 40
0
 40
0
 40
0
 40
1
 40
1
 40
1
 40
1
 10
76.002220
 20
976.107200
 30
0.0
 10
76.398720
 20
975.779200
 30
0.0
 10
76.639920
 20
975.608300
 30
0.0
 10
76.840720
 20
975.472500
 30
0.0
  0
SPLINE
  5
1ae
100
AcDbEntity
  8
Calque_1
 62
7
100
AcDbSpline
 70
8
 71
3
 72
8
 73
4
 74
0
 40
0
 40
0
 40
0
 40
0
 40
1
 40
1
 40
1
 40
1
 10
76.840720
 20
975.472500
 30
0.0
 10
76.857720
 20
975.512500
 30
0.0
 10
76.855720
 20
975.472100
 30
0.0
 10
76.883720
 20
975.543500
 30
0.0
  0
SPLINE
  5
1af
100
AcDbEntity
  8
Calque_1
 62
7
100
AcDbSpline
 70
8
 71
3
 72
8
 73
4
 74
0
 40
0
 40
0
 40
0
 40
0
 40
1
 40
1
 40
1
 40
1
 10
76.883720
 20
975.543500
 30
0.0
 10
77.005520
 20
975.863300
 30
0.0
 10
77.119020
 20
976.466200
 30
0.0
 10
77.265520
 20
977.211800
 30
0.0
  0
SPLINE
  5
1b0
100
AcDbEntity
  8
Calque_1
 62
7
100
AcDbSpline
 70
8
 71
3
 72
8
 73
4
 74
0
 40
0
 40
0
 40
0
 40
0
 40
1
 40
1
 40
1
 40
1
 10
77.265520
 20
977.211800
 30
0.0
 10
77.621520
 20
979.023000
 30
0.0
 10
77.813720
 20
980.532200
 30
0.0
 10
77.554520
 20
981.964700
 30
0.0
  0
SPLINE
  5
1b1
100
AcDbEntity
  8
Calque_1
 62
7
100
AcDbSpline
 70
8
 71
3
 72
8
 73
4
 74
0
 40
0
 40
0
 40
0
 40
0
 40
1
 40
1
 40
1
 40
1
 10
77.554520
 20
981.964700
 30
0.0
 10
77.325320
 20
983.231100
 30
0.0
 10
76.622420
 20
984.458900
 30
0.0
 10
75.695720
 20
986.038700
 30
0.0
  0
SPLINE
  5
1b2
100
AcDbEntity
  8
Calque_1
 62
7
100
AcDbSpline
 70
8
 71
3
 72
8
 73
4
 74
0
 40
0
 40
0
 40
0
 40
0
 40
1
 40
1
 40
1
 40
1
 10
75.695720
 20
986.038700
 30
0.0
 10
74.770020
 20
987.616700
 30
0.0
 10
75.007320
 20
987.274100
 30
0.0
 10
73.866220
 20
988.802700
 30
0.0
  0
SPLINE
  5
1b3
100
AcDbEntity
  8
Calque_1
 62
7
100
AcDbSpline
 70
8
 71
3
 72
8
 73
4
 74
0
 40
0
 40
0
 40
0
 40
0
 40
1
 40
1
 40
1
 40
1
 10
73.866220
 20
988.802700
 30
0.0
 10
72.659720
 20
990.419000
 30
0.0
 10
72.855920
 20
990.133800
 30
0.0
 10
71.388420
 20
991.754200
 30
0.0
  0
SPLINE
  5
1b4
100
AcDbEntity
  8
Calque_1
 62
7
100
AcDbSpline
 70
8
 71
3
 72
8
 73
4
 74
0
 40
0
 40
0
 40
0
 40
0
 40
1
 40
1
 40
1
 40
1
 10
71.388420
 20
991.754200
 30
0.0
 10
71.426420
 20
991.712200
 30
0.0
 10
71.151320
 20
991.998600
 30
0.0
 10
70.902720
 20
992.268800
 30
0.0
  0
SPLINE
  5
1b5
100
AcDbEntity
  8
Calque_1
 62
7
100
AcDbSpline
 70
8
 71
3
 72
8
 73
4
 74
0
 40
0
 40
0
 40
0
 40
0
 40
1
 40
1
 40
1
 40
1
 10
70.902720
 20
992.268800
 30
0.0
 10
70.654020
 20
992.538900
 30
0.0
 10
70.407620
 20
992.771100
 30
0.0
 10
70.079320
 20
993.297700
 30
0.0
  0
SPLINE
  5
1b6
100
AcDbEntity
  8
Calque_1
 62
7
100
AcDbSpline
 70
8
 71
3
 72
8
 73
4
 74
0
 40
0
 40
0
 40
0
 40
0
 40
1
 40
1
 40
1
 40
1
 10
70.079320
 20
993.297700
 30
0.0
 10
70.001320
 20
993.422400
 30
0.0
 10
69.898620
 20
993.586100
 30
0.0
 10
69.803920
 20
993.913800
 30
0.0
  0
SPLINE
  5
1b7
100
AcDbEntity
  8
Calque_1
 62
7
100
AcDbSpline
 70
8
 71
3
 72
8
 73
4
 74
0
 40
0
 40
0
 40
0
 40
0
 40
1
 40
1
 40
1
 40
1
 10
69.803920
 20
993.913800
 30
0.0
 10
69.708920
 20
994.241400
 30
0.0
 10
69.601120
 20
994.834700
 30
0.0
 10
69.905320
 20
995.540000
 30
0.0
  0
SPLINE
  5
1b8
100
AcDbEntity
  8
Calque_1
 62
7
100
AcDbSpline
 70
8
 71
3
 72
8
 73
4
 74
0
 40
0
 40
0
 40
0
 40
0
 40
1
 40
1
 40
1
 40
1
 10
69.905320
 20
995.540000
 30
0.0
 10
70.209520
 20
996.245400
 30
0.0
 10
70.924920
 20
996.731700
 30
0.0
 10
71.376720
 20
996.877800
 30
0.0
  0
SPLINE
  5
1b9
100
AcDbEntity
  8
Calque_1
 62
7
100
AcDbSpline
 70
8
 71
3
 72
8
 73
4
 74
0
 40
0
 40
0
 40
0
 40
0
 40
1
 40
1
 40
1
 40
1
 10
71.376720
 20
996.877800
 30
0.0
 10
71.828620
 20
997.023800
 30
0.0
 10
72.093920
 20
997.001800
 30
0.0
 10
72.282420
 20
996.989500
 30
0.0
  0
SPLINE
  5
1ba
100
AcDbEntity
  8
Calque_1
 62
7
100
AcDbSpline
 70
8
 71
3
 72
8
 73
4
 74
0
 40
0
 40
0
 40
0
 40
0
 40
1
 40
1
 40
1
 40
1
 10
72.282420
 20
996.989500
 30
0.0
 10
73.036220
 20
996.940500
 30
0.0
 10
73.011120
 20
996.833800
 30
0.0
 10
73.123120
 20
996.787500
 30
0.0
  0
SPLINE
  5
1bb
100
AcDbEntity
  8
Calque_1
 62
7
100
AcDbSpline
 70
8
 71
3
 72
8
 73
4
 74
0
 40
0
 40
0
 40
0
 40
0
 40
1
 40
1
 40
1
 40
1
 10
73.123120
 20
996.787500
 30
0.0
 10
73.347220
 20
996.694500
 30
0.0
 10
73.483120
 20
996.624300
 30
0.0
 10
73.389920
 20
996.666100
 30
0.0
  0
SPLINE
  5
1bc
100
AcDbEntity
  8
Calque_1
 62
7
100
AcDbSpline
 70
8
 71
3
 72
8
 73
4
 74
0
 40
0
 40
0
 40
0
 40
0
 40
1
 40
1
 40
1
 40
1
 10
73.389920
 20
996.666100
 30
0.0
 10
73.892320
 20
996.440200
 30
0.0
 10
74.350820
 20
996.227200
 30
0.0
 10
74.774920
 20
996.051700
 30
0.0
  0
SPLINE
  5
1bd
100
AcDbEntity
  8
Calque_1
 62
7
100
AcDbSpline
 70
8
 71
3
 72
8
 73
4
 74
0
 40
0
 40
0
 40
0
 40
0
 40
1
 40
1
 40
1
 40
1
 10
74.774920
 20
996.051700
 30
0.0
 10
75.351220
 20
995.813200
 30
0.0
 10
76.526220
 20
995.371300
 30
0.0
 10
77.259720
 20
995.087500
 30
0.0
  0
SPLINE
  5
1be
100
AcDbEntity
  8
Calque_1
 62
7
100
AcDbSpline
 70
8
 71
3
 72
8
 73
4
 74
0
 40
0
 40
0
 40
0
 40
0
 40
1
 40
1
 40
1
 40
1
 10
77.259720
 20
995.087500
 30
0.0
 10
77.934720
 20
994.826300
 30
0.0
 10
78.761220
 20
994.493500
 30
0.0
 10
79.219920
 20
994.352600
 30
0.0
  0
SPLINE
  5
1bf
100
AcDbEntity
  8
Calque_1
 62
7
100
AcDbSpline
 70
8
 71
3
 72
8
 73
4
 74
0
 40
0
 40
0
 40
0
 40
0
 40
1
 40
1
 40
1
 40
1
 10
79.219920
 20
994.352600
 30
0.0
 10
80.412220
 20
993.986400
 30
0.0
 10
81.728120
 20
993.664900
 30
0.0
 10
83.142020
 20
993.153000
 30
0.0
  0
SPLINE
  5
1c0
100
AcDbEntity
  8
Calque_1
 62
7
100
AcDbSpline
 70
8
 71
3
 72
8
 73
4
 74
0
 40
0
 40
0
 40
0
 40
0
 40
1
 40
1
 40
1
 40
1
 10
83.142020
 20
993.153000
 30
0.0
 10
83.857120
 20
992.894100
 30
0.0
 10
84.545620
 20
992.566100
 30
0.0
 10
85.185120
 20
992.354700
 30
0.0
  0
SPLINE
  5
1c1
100
AcDbEntity
  8
Calque_1
 62
7
100
AcDbSpline
 70
8
 71
3
 72
8
 73
4
 74
0
 40
0
 40
0
 40
0
 40
0
 40
1
 40
1
 40
1
 40
1
 10
85.185120
 20
992.354700
 30
0.0
 10
85.364120
 20
992.295700
 30
0.0
 10
85.464820
 20
992.298700
 30
0.0
 10
85.603320
 20
992.282700
 30
0.0
  0
SPLINE
  5
1c2
100
AcDbEntity
  8
Calque_1
 62
7
100
AcDbSpline
 70
8
 71
3
 72
8
 73
4
 74
0
 40
0
 40
0
 40
0
 40
0
 40
1
 40
1
 40
1
 40
1
 10
85.603320
 20
992.282700
 30
0.0
 10
85.650320
 20
992.383000
 30
0.0
 10
85.703620
 20
992.474900
 30
0.0
 10
85.737920
 20
992.558700
 30
0.0
  0
SPLINE
  5
1c3
100
AcDbEntity
  8
Calque_1
 62
7
100
AcDbSpline
 70
8
 71
3
 72
8
 73
4
 74
0
 40
0
 40
0
 40
0
 40
0
 40
1
 40
1
 40
1
 40
1
 10
85.737920
 20
992.558700
 30
0.0
 10
85.912020
 20
992.984300
 30
0.0
 10
85.598520
 20
995.158900
 30
0.0
 10
85.027520
 20
996.165100
 30
0.0
  0
SPLINE
  5
1c4
100
AcDbEntity
  8
Calque_1
 62
7
100
AcDbSpline
 70
8
 71
3
 72
8
 73
4
 74
0
 40
0
 40
0
 40
0
 40
0
 40
1
 40
1
 40
1
 40
1
 10
85.027520
 20
996.165100
 30
0.0
 10
84.776020
 20
996.608200
 30
0.0
 10
84.444220
 20
997.093000
 30
0.0
 10
84.070320
 20
997.639100
 30
0.0
  0
SPLINE
  5
1c5
100
AcDbEntity
  8
Calque_1
 62
7
100
AcDbSpline
 70
8
 71
3
 72
8
 73
4
 74
0
 40
0
 40
0
 40
0
 40
0
 40
1
 40
1
 40
1
 40
1
 10
84.070320
 20
997.639100
 30
0.0
 10
82.151420
 20
1000.442400
 30
0.0
 10
79.238320
 20
1002.790200
 30
0.0
 10
76.269520
 20
1005.337000
 30
0.0
  0
SPLINE
  5
1c6
100
AcDbEntity
  8
Calque_1
 62
7
100
AcDbSpline
 70
8
 71
3
 72
8
 73
4
 74
0
 40
0
 40
0
 40
0
 40
0
 40
1
 40
1
 40
1
 40
1
 10
76.269520
 20
1005.337000
 30
0.0
 10
75.304620
 20
1006.164700
 30
0.0
 10
74.363720
 20
1007.003700
 30
0.0
 10
73.435520
 20
1007.840900
 30
0.0
  0
SPLINE
  5
1c7
100
AcDbEntity
  8
Calque_1
 62
7
100
AcDbSpline
 70
8
 71
3
 72
8
 73
4
 74
0
 40
0
 40
0
 40
0
 40
0
 40
1
 40
1
 40
1
 40
1
 10
73.435520
 20
1007.840900
 30
0.0
 10
72.940920
 20
1008.287000
 30
0.0
 10
72.634820
 20
1008.616500
 30
0.0
 10
72.454320
 20
1008.759400
 30
0.0
  0
SPLINE
  5
1c8
100
AcDbEntity
  8
Calque_1
 62
7
100
AcDbSpline
 70
8
 71
3
 72
8
 73
4
 74
0
 40
0
 40
0
 40
0
 40
0
 40
1
 40
1
 40
1
 40
1
 10
72.454320
 20
1008.759400
 30
0.0
 10
72.251820
 20
1008.919700
 30
0.0
 10
71.982620
 20
1009.102500
 30
0.0
 10
71.761020
 20
1009.265000
 30
0.0
  0
SPLINE
  5
1c9
100
AcDbEntity
  8
Calque_1
 62
7
100
AcDbSpline
 70
8
 71
3
 72
8
 73
4
 74
0
 40
0
 40
0
 40
0
 40
0
 40
1
 40
1
 40
1
 40
1
 10
71.761020
 20
1009.265000
 30
0.0
 10
71.377420
 20
1009.302000
 30
0.0
 10
71.050320
 20
1009.331000
 30
0.0
 10
70.742620
 20
1009.360000
 30
0.0
  0
SPLINE
  5
1ca
100
AcDbEntity
  8
Calque_1
 62
7
100
AcDbSpline
 70
8
 71
3
 72
8
 73
4
 74
0
 40
0
 40
0
 40
0
 40
0
 40
1
 40
1
 40
1
 40
1
 10
70.742620
 20
1009.360000
 30
0.0
 10
70.647620
 20
1009.370000
 30
0.0
 10
70.481420
 20
1009.381000
 30
0.0
 10
70.394020
 20
1009.387000
 30
0.0
  0
SPLINE
  5
1cb
100
AcDbEntity
  8
Calque_1
 62
7
100
AcDbSpline
 70
8
 71
3
 72
8
 73
4
 74
0
 40
0
 40
0
 40
0
 40
0
 40
1
 40
1
 40
1
 40
1
 10
70.394020
 20
1009.387000
 30
0.0
 10
69.818420
 20
1009.422000
 30
0.0
 10
69.132920
 20
1009.418000
 30
0.0
 10
68.352720
 20
1009.457000
 30
0.0
  0
SPLINE
  5
1cc
100
AcDbEntity
  8
Calque_1
 62
7
100
AcDbSpline
 70
8
 71
3
 72
8
 73
4
 74
0
 40
0
 40
0
 40
0
 40
0
 40
1
 40
1
 40
1
 40
1
 10
68.352720
 20
1009.457000
 30
0.0
 10
68.092620
 20
1009.470000
 30
0.0
 10
67.899420
 20
1009.491000
 30
0.0
 10
67.771620
 20
1009.501000
 30
0.0
  0
SPLINE
  5
1cd
100
AcDbEntity
  8
Calque_1
 62
7
100
AcDbSpline
 70
8
 71
3
 72
8
 73
4
 74
0
 40
0
 40
0
 40
0
 40
0
 40
1
 40
1
 40
1
 40
1
 10
67.771620
 20
1009.501000
 30
0.0
 10
67.679620
 20
1009.511000
 30
0.0
 10
67.588820
 20
1009.520000
 30
0.0
 10
67.498620
 20
1009.538000
 30
0.0
  0
SPLINE
  5
1ce
100
AcDbEntity
  8
Calque_1
 62
7
100
AcDbSpline
 70
8
 71
3
 72
8
 73
4
 74
0
 40
0
 40
0
 40
0
 40
0
 40
1
 40
1
 40
1
 40
1
 10
67.498620
 20
1009.538000
 30
0.0
 10
67.236320
 20
1009.589000
 30
0.0
 10
67.261520
 20
1009.590000
 30
0.0
 10
67.207720
 20
1009.605000
 30
0.0
  0
SPLINE
  5
1cf
100
AcDbEntity
  8
Calque_1
 62
7
100
AcDbSpline
 70
8
 71
3
 72
8
 73
4
 74
0
 40
0
 40
0
 40
0
 40
0
 40
1
 40
1
 40
1
 40
1
 10
67.207720
 20
1009.605000
 30
0.0
 10
67.128720
 20
1009.595000
 30
0.0
 10
66.898720
 20
1009.595000
 30
0.0
 10
66.602420
 20
1009.615000
 30
0.0
  0
SPLINE
  5
1d0
100
AcDbEntity
  8
Calque_1
 62
7
100
AcDbSpline
 70
8
 71
3
 72
8
 73
4
 74
0
 40
0
 40
0
 40
0
 40
0
 40
1
 40
1
 40
1
 40
1
 10
66.602420
 20
1009.615000
 30
0.0
 10
66.505420
 20
1009.615000
 30
0.0
 10
66.644420
 20
1009.601000
 30
0.0
 10
66.510420
 20
1009.605000
 30
0.0
  0
SPLINE
  5
1d1
100
AcDbEntity
  8
Calque_1
 62
7
100
AcDbSpline
 70
8
 71
3
 72
8
 73
4
 74
0
 40
0
 40
0
 40
0
 40
0
 40
1
 40
1
 40
1
 40
1
 10
66.510420
 20
1009.605000
 30
0.0
 10
66.267820
 20
1009.618000
 30
0.0
 10
66.086620
 20
1009.653000
 30
0.0
 10
65.851920
 20
1009.672000
 30
0.0
  0
SPLINE
  5
1d2
100
AcDbEntity
  8
Calque_1
 62
7
100
AcDbSpline
 70
8
 71
3
 72
8
 73
4
 74
0
 40
0
 40
0
 40
0
 40
0
 40
1
 40
1
 40
1
 40
1
 10
65.851920
 20
1009.672000
 30
0.0
 10
64.979620
 20
1009.744000
 30
0.0
 10
64.164420
 20
1009.834100
 30
0.0
 10
63.408620
 20
1009.921100
 30
0.0
  0
SPLINE
  5
1d3
100
AcDbEntity
  8
Calque_1
 62
7
100
AcDbSpline
 70
8
 71
3
 72
8
 73
4
 74
0
 40
0
 40
0
 40
0
 40
0
 40
1
 40
1
 40
1
 40
1
 10
63.408620
 20
1009.921100
 30
0.0
 10
63.225020
 20
1009.942100
 30
0.0
 10
62.990120
 20
1009.964100
 30
0.0
 10
62.813920
 20
1009.982100
 30
0.0
  0
SPLINE
  5
1d4
100
AcDbEntity
  8
Calque_1
 62
7
100
AcDbSpline
 70
8
 71
3
 72
8
 73
4
 74
0
 40
0
 40
0
 40
0
 40
0
 40
1
 40
1
 40
1
 40
1
 10
62.813920
 20
1009.982100
 30
0.0
 10
62.727920
 20
1009.992100
 30
0.0
 10
62.693320
 20
1010.015100
 30
0.0
 10
62.610320
 20
1010.026100
 30
0.0
  0
SPLINE
  5
1d5
100
AcDbEntity
  8
Calque_1
 62
7
100
AcDbSpline
 70
8
 71
3
 72
8
 73
4
 74
0
 40
0
 40
0
 40
0
 40
0
 40
1
 40
1
 40
1
 40
1
 10
62.610320
 20
1010.026100
 30
0.0
 10
61.679320
 20
1010.139800
 30
0.0
 10
60.947920
 20
1010.350700
 30
0.0
 10
60.334120
 20
1010.512800
 30
0.0
  0
SPLINE
  5
1d6
100
AcDbEntity
  8
Calque_1
 62
7
100
AcDbSpline
 70
8
 71
3
 72
8
 73
4
 74
0
 40
0
 40
0
 40
0
 40
0
 40
1
 40
1
 40
1
 40
1
 10
60.334120
 20
1010.512800
 30
0.0
 10
60.292120
 20
1010.523800
 30
0.0
 10
60.218320
 20
1010.535800
 30
0.0
 10
60.177020
 20
1010.546800
 30
0.0
  0
SPLINE
  5
1d7
100
AcDbEntity
  8
Calque_1
 62
7
100
AcDbSpline
 70
8
 71
3
 72
8
 73
4
 74
0
 40
0
 40
0
 40
0
 40
0
 40
1
 40
1
 40
1
 40
1
 10
60.177020
 20
1010.546800
 30
0.0
 10
59.463520
 20
1010.727000
 30
0.0
 10
58.516520
 20
1010.835900
 30
0.0
 10
57.454920
 20
1011.019200
 30
0.0
  0
SPLINE
  5
1d8
100
AcDbEntity
  8
Calque_1
 62
7
100
AcDbSpline
 70
8
 71
3
 72
8
 73
4
 74
0
 40
0
 40
0
 40
0
 40
0
 40
1
 40
1
 40
1
 40
1
 10
57.454920
 20
1011.019200
 30
0.0
 10
57.283520
 20
1011.049200
 30
0.0
 10
57.250020
 20
1011.055200
 30
0.0
 10
57.162720
 20
1011.070200
 30
0.0
  0
SPLINE
  5
1d9
100
AcDbEntity
  8
Calque_1
 62
7
100
AcDbSpline
 70
8
 71
3
 72
8
 73
4
 74
0
 40
0
 40
0
 40
0
 40
0
 40
1
 40
1
 40
1
 40
1
 10
57.162720
 20
1011.070200
 30
0.0
 10
56.956620
 20
1011.070200
 30
0.0
 10
56.791620
 20
1011.069200
 30
0.0
 10
56.519420
 20
1011.086200
 30
0.0
  0
SPLINE
  5
1da
100
AcDbEntity
  8
Calque_1
 62
7
100
AcDbSpline
 70
8
 71
3
 72
8
 73
4
 74
0
 40
0
 40
0
 40
0
 40
0
 40
1
 40
1
 40
1
 40
1
 10
56.519420
 20
1011.086200
 30
0.0
 10
55.869920
 20
1011.127200
 30
0.0
 10
55.657220
 20
1011.137200
 30
0.0
 10
55.382420
 20
1011.167200
 30
0.0
  0
SPLINE
  5
1db
100
AcDbEntity
  8
Calque_1
 62
7
100
AcDbSpline
 70
8
 71
3
 72
8
 73
4
 74
0
 40
0
 40
0
 40
0
 40
0
 40
1
 40
1
 40
1
 40
1
 10
55.382420
 20
1011.167200
 30
0.0
 10
55.348420
 20
1011.167200
 30
0.0
 10
55.311420
 20
1011.177200
 30
0.0
 10
55.238320
 20
1011.186200
 30
0.0
  0
SPLINE
  5
1dc
100
AcDbEntity
  8
Calque_1
 62
7
100
AcDbSpline
 70
8
 71
3
 72
8
 73
4
 74
0
 40
0
 40
0
 40
0
 40
0
 40
1
 40
1
 40
1
 40
1
 10
55.238320
 20
1011.186200
 30
0.0
 10
55.178320
 20
1011.196200
 30
0.0
 10
55.125520
 20
1011.169200
 30
0.0
 10
54.782220
 20
1011.309400
 30
0.0
  0
SPLINE
  5
1dd
100
AcDbEntity
  8
Calque_1
 62
7
100
AcDbSpline
 70
8
 71
3
 72
8
 73
4
 74
0
 40
0
 40
0
 40
0
 40
0
 40
1
 40
1
 40
1
 40
1
 10
54.782220
 20
1011.309400
 30
0.0
 10
54.329320
 20
1011.345400
 30
0.0
 10
53.818620
 20
1011.364400
 30
0.0
 10
53.183020
 20
1011.425000
 30
0.0
  0
SPLINE
  5
1de
100
AcDbEntity
  8
Calque_1
 62
7
100
AcDbSpline
 70
8
 71
3
 72
8
 73
4
 74
0
 40
0
 40
0
 40
0
 40
0
 40
1
 40
1
 40
1
 40
1
 10
53.183020
 20
1011.425000
 30
0.0
 10
52.965520
 20
1011.446000
 30
0.0
 10
52.503020
 20
1011.442000
 30
0.0
 10
52.273820
 20
1011.415000
 30
0.0
  0
SPLINE
  5
1df
100
AcDbEntity
  8
Calque_1
 62
7
100
AcDbSpline
 70
8
 71
3
 72
8
 73
4
 74
0
 40
0
 40
0
 40
0
 40
0
 40
1
 40
1
 40
1
 40
1
 10
52.273820
 20
1011.415000
 30
0.0
 10
52.296820
 20
1011.415000
 30
0.0
 10
51.439620
 20
1011.207000
 30
0.0
 10
50.573620
 20
1011.009200
 30
0.0
  0
SPLINE
  5
1e0
100
AcDbEntity
  8
Calque_1
 62
7
100
AcDbSpline
 70
8
 71
3
 72
8
 73
4
 74
0
 40
0
 40
0
 40
0
 40
0
 40
1
 40
1
 40
1
 40
1
 10
50.573620
 20
1011.009200
 30
0.0
 10
50.520620
 20
1010.997200
 30
0.0
 10
50.451920
 20
1010.984200
 30
0.0
 10
50.398220
 20
1010.970200
 30
0.0
  0
SPLINE
  5
1e1
100
AcDbEntity
  8
Calque_1
 62
7
100
AcDbSpline
 70
8
 71
3
 72
8
 73
4
 74
0
 40
0
 40
0
 40
0
 40
0
 40
1
 40
1
 40
1
 40
1
 10
50.398220
 20
1010.970200
 30
0.0
 10
50.078620
 20
1010.886200
 30
0.0
 10
49.737520
 20
1010.794000
 30
0.0
 10
49.356920
 20
1010.735100
 30
0.0
  0
SPLINE
  5
1e2
100
AcDbEntity
  8
Calque_1
 62
7
100
AcDbSpline
 70
8
 71
3
 72
8
 73
4
 74
0
 40
0
 40
0
 40
0
 40
0
 40
1
 40
1
 40
1
 40
1
 10
49.356920
 20
1010.735100
 30
0.0
 10
48.759220
 20
1010.640100
 30
0.0
 10
48.071320
 20
1010.650100
 30
0.0
 10
47.112420
 20
1011.094700
 30
0.0
  0
LWPOLYLINE
  5
1e3
100
AcDbEntity
  8
Calque_1
 62
7
100
AcDbPolyline
 90
1
 70
1
 10
69.616720
 20
982.494700
 30
0.0
  0
SPLINE
  5
1e4
100
AcDbEntity
  8
Calque_1
 62
7
100
AcDbSpline
 70
8
 71
3
 72
8
 73
4
 74
0
 40
0
 40
0
 40
0
 40
0
 40
1
 40
1
 40
1
 40
1
 10
47.102420
 20
1011.094700
 30
0.0
 10
45.234320
 20
1010.992500
 30
0.0
 10
43.371620
 20
1010.896600
 30
0.0
 10
41.525520
 20
1010.782400
 30
0.0
  0
SPLINE
  5
1e5
100
AcDbEntity
  8
Calque_1
 62
7
100
AcDbSpline
 70
8
 71
3
 72
8
 73
4
 74
0
 40
0
 40
0
 40
0
 40
0
 40
1
 40
1
 40
1
 40
1
 10
41.525520
 20
1010.782400
 30
0.0
 10
40.788320
 20
1010.736400
 30
0.0
 10
39.780920
 20
1010.445600
 30
0.0
 10
38.460120
 20
1010.245300
 30
0.0
  0
SPLINE
  5
1e6
100
AcDbEntity
  8
Calque_1
 62
7
100
AcDbSpline
 70
8
 71
3
 72
8
 73
4
 74
0
 40
0
 40
0
 40
0
 40
0
 40
1
 40
1
 40
1
 40
1
 10
38.460120
 20
1010.245300
 30
0.0
 10
37.722320
 20
1010.133500
 30
0.0
 10
37.235520
 20
1010.154300
 30
0.0
 10
37.020320
 20
1010.129300
 30
0.0
  0
LWPOLYLINE
  5
1e7
100
AcDbEntity
  8
Calque_1
 62
7
100
AcDbPolyline
 90
2
 70
0
 10
47.112420
 20
1011.094700
 30
0.0
 10
47.102420
 20
1011.094700
 30
0.0
  0
SPLINE
  5
1e8
100
AcDbEntity
  8
Calque_1
 62
7
100
AcDbSpline
 70
8
 71
3
 72
8
 73
4
 74
0
 40
0
 40
0
 40
0
 40
0
 40
1
 40
1
 40
1
 40
1
 10
36.914920
 20
1010.113300
 30
0.0
 10
36.710520
 20
1010.071300
 30
0.0
 10
36.238120
 20
1009.951400
 30
0.0
 10
35.501420
 20
1009.893400
 30
0.0
  0
SPLINE
  5
1e9
100
AcDbEntity
  8
Calque_1
 62
7
100
AcDbSpline
 70
8
 71
3
 72
8
 73
4
 74
0
 40
0
 40
0
 40
0
 40
0
 40
1
 40
1
 40
1
 40
1
 10
35.501420
 20
1009.893400
 30
0.0
 10
35.388720
 20
1009.883400
 30
0.0
 10
35.404420
 20
1009.864400
 30
0.0
 10
35.278720
 20
1009.858400
 30
0.0
  0
SPLINE
  5
1ea
100
AcDbEntity
  8
Calque_1
 62
7
100
AcDbSpline
 70
8
 71
3
 72
8
 73
4
 74
0
 40
0
 40
0
 40
0
 40
0
 40
1
 40
1
 40
1
 40
1
 10
35.278720
 20
1009.858400
 30
0.0
 10
35.096820
 20
1009.848400
 30
0.0
 10
35.077520
 20
1009.858400
 30
0.0
 10
34.969720
 20
1009.848400
 30
0.0
  0
SPLINE
  5
1eb
100
AcDbEntity
  8
Calque_1
 62
7
100
AcDbSpline
 70
8
 71
3
 72
8
 73
4
 74
0
 40
0
 40
0
 40
0
 40
0
 40
1
 40
1
 40
1
 40
1
 10
34.969720
 20
1009.848400
 30
0.0
 10
34.872720
 20
1009.824400
 30
0.0
 10
34.868020
 20
1009.820400
 30
0.0
 10
34.713920
 20
1009.783400
 30
0.0
  0
SPLINE
  5
1ec
100
AcDbEntity
  8
Calque_1
 62
7
100
AcDbSpline
 70
8
 71
3
 72
8
 73
4
 74
0
 40
0
 40
0
 40
0
 40
0
 40
1
 40
1
 40
1
 40
1
 10
34.713920
 20
1009.783400
 30
0.0
 10
34.656920
 20
1009.769400
 30
0.0
 10
34.621920
 20
1009.773400
 30
0.0
 10
34.565420
 20
1009.765400
 30
0.0
  0
SPLINE
  5
1ed
100
AcDbEntity
  8
Calque_1
 62
7
100
AcDbSpline
 70
8
 71
3
 72
8
 73
4
 74
0
 40
0
 40
0
 40
0
 40
0
 40
1
 40
1
 40
1
 40
1
 10
34.565420
 20
1009.765400
 30
0.0
 10
33.846020
 20
1009.605800
 30
0.0
 10
33.202320
 20
1009.560700
 30
0.0
 10
32.662220
 20
1009.539100
 30
0.0
  0
SPLINE
  5
1ee
100
AcDbEntity
  8
Calque_1
 62
7
100
AcDbSpline
 70
8
 71
3
 72
8
 73
4
 74
0
 40
0
 40
0
 40
0
 40
0
 40
1
 40
1
 40
1
 40
1
 10
32.662220
 20
1009.539100
 30
0.0
 10
32.625220
 20
1009.539100
 30
0.0
 10
32.568220
 20
1009.525100
 30
0.0
 10
32.533020
 20
1009.524100
 30
0.0
  0
SPLINE
  5
1ef
100
AcDbEntity
  8
Calque_1
 62
7
100
AcDbSpline
 70
8
 71
3
 72
8
 73
4
 74
0
 40
0
 40
0
 40
0
 40
0
 40
1
 40
1
 40
1
 40
1
 10
32.533020
 20
1009.524100
 30
0.0
 10
32.118820
 20
1009.508100
 30
0.0
 10
31.763920
 20
1009.514100
 30
0.0
 10
31.460820
 20
1009.524700
 30
0.0
  0
LWPOLYLINE
  5
1f0
100
AcDbEntity
  8
Calque_1
 62
7
100
AcDbPolyline
 90
2
 70
0
 10
37.020320
 20
1010.129300
 30
0.0
 10
36.914920
 20
1010.113300
 30
0.0
  0
SPLINE
  5
1f1
100
AcDbEntity
  8
Calque_1
 62
7
100
AcDbSpline
 70
8
 71
3
 72
8
 73
4
 74
0
 40
0
 40
0
 40
0
 40
0
 40
1
 40
1
 40
1
 40
1
 10
31.410820
 20
1009.524700
 30
0.0
 10
31.388820
 20
1009.505700
 30
0.0
 10
30.952120
 20
1009.412000
 30
0.0
 10
30.133520
 20
1009.415300
 30
0.0
  0
SPLINE
  5
1f2
100
AcDbEntity
  8
Calque_1
 62
7
100
AcDbSpline
 70
8
 71
3
 72
8
 73
4
 74
0
 40
0
 40
0
 40
0
 40
0
 40
1
 40
1
 40
1
 40
1
 10
30.133520
 20
1009.415300
 30
0.0
 10
30.024820
 20
1009.414300
 30
0.0
 10
30.078520
 20
1009.397300
 30
0.0
 10
29.955420
 20
1009.400300
 30
0.0
  0
SPLINE
  5
1f3
100
AcDbEntity
  8
Calque_1
 62
7
100
AcDbSpline
 70
8
 71
3
 72
8
 73
4
 74
0
 40
0
 40
0
 40
0
 40
0
 40
1
 40
1
 40
1
 40
1
 10
29.955420
 20
1009.400300
 30
0.0
 10
29.598020
 20
1009.410300
 30
0.0
 10
29.368220
 20
1009.418300
 30
0.0
 10
29.022220
 20
1009.485300
 30
0.0
  0
LWPOLYLINE
  5
1f4
100
AcDbEntity
  8
Calque_1
 62
7
100
AcDbPolyline
 90
2
 70
0
 10
31.460820
 20
1009.524700
 30
0.0
 10
31.410820
 20
1009.524700
 30
0.0
  0
SPLINE
  5
1f5
100
AcDbEntity
  8
Calque_1
 62
7
100
AcDbSpline
 70
8
 71
3
 72
8
 73
4
 74
0
 40
0
 40
0
 40
0
 40
0
 40
1
 40
1
 40
1
 40
1
 10
29.006220
 20
1009.495300
 30
0.0
 10
28.953220
 20
1009.495300
 30
0.0
 10
28.989220
 20
1009.495300
 30
0.0
 10
28.917220
 20
1009.485300
 30
0.0
  0
SPLINE
  5
1f6
100
AcDbEntity
  8
Calque_1
 62
7
100
AcDbSpline
 70
8
 71
3
 72
8
 73
4
 74
0
 40
0
 40
0
 40
0
 40
0
 40
1
 40
1
 40
1
 40
1
 10
28.917220
 20
1009.485300
 30
0.0
 10
28.379120
 20
1009.435300
 30
0.0
 10
27.698520
 20
1009.313900
 30
0.0
 10
26.830720
 20
1009.282800
 30
0.0
  0
SPLINE
  5
1f7
100
AcDbEntity
  8
Calque_1
 62
7
100
AcDbSpline
 70
8
 71
3
 72
8
 73
4
 74
0
 40
0
 40
0
 40
0
 40
0
 40
1
 40
1
 40
1
 40
1
 10
26.830720
 20
1009.282800
 30
0.0
 10
25.784220
 20
1009.244800
 30
0.0
 10
24.911520
 20
1009.270800
 30
0.0
 10
24.362420
 20
1009.184800
 30
0.0
  0
SPLINE
  5
1f8
100
AcDbEntity
  8
Calque_1
 62
7
100
AcDbSpline
 70
8
 71
3
 72
8
 73
4
 74
0
 40
0
 40
0
 40
0
 40
0
 40
1
 40
1
 40
1
 40
1
 10
24.362420
 20
1009.184800
 30
0.0
 10
24.450420
 20
1009.198800
 30
0.0
 10
24.190620
 20
1009.094800
 30
0.0
 10
23.558520
 20
1008.973300
 30
0.0
  0
SPLINE
  5
1f9
100
AcDbEntity
  8
Calque_1
 62
7
100
AcDbSpline
 70
8
 71
3
 72
8
 73
4
 74
0
 40
0
 40
0
 40
0
 40
0
 40
1
 40
1
 40
1
 40
1
 10
23.558520
 20
1008.973300
 30
0.0
 10
23.295120
 20
1008.922300
 30
0.0
 10
23.207520
 20
1008.936300
 30
0.0
 10
22.970120
 20
1008.904300
 30
0.0
  0
SPLINE
  5
1fa
100
AcDbEntity
  8
Calque_1
 62
7
100
AcDbSpline
 70
8
 71
3
 72
8
 73
4
 74
0
 40
0
 40
0
 40
0
 40
0
 40
1
 40
1
 40
1
 40
1
 10
22.970120
 20
1008.904300
 30
0.0
 10
22.198420
 20
1008.795900
 30
0.0
 10
21.568920
 20
1008.735000
 30
0.0
 10
21.087320
 20
1008.684300
 30
0.0
  0
SPLINE
  5
1fb
100
AcDbEntity
  8
Calque_1
 62
7
100
AcDbSpline
 70
8
 71
3
 72
8
 73
4
 74
0
 40
0
 40
0
 40
0
 40
0
 40
1
 40
1
 40
1
 40
1
 10
21.087320
 20
1008.684300
 30
0.0
 10
20.982820
 20
1008.672300
 30
0.0
 10
20.755220
 20
1008.651300
 30
0.0
 10
20.666620
 20
1008.635300
 30
0.0
  0
SPLINE
  5
1fc
100
AcDbEntity
  8
Calque_1
 62
7
100
AcDbSpline
 70
8
 71
3
 72
8
 73
4
 74
0
 40
0
 40
0
 40
0
 40
0
 40
1
 40
1
 40
1
 40
1
 10
20.666620
 20
1008.635300
 30
0.0
 10
20.575620
 20
1008.618300
 30
0.0
 10
20.406020
 20
1008.577300
 30
0.0
 10
20.308820
 20
1008.556300
 30
0.0
  0
SPLINE
  5
1fd
100
AcDbEntity
  8
Calque_1
 62
7
100
AcDbSpline
 70
8
 71
3
 72
8
 73
4
 74
0
 40
0
 40
0
 40
0
 40
0
 40
1
 40
1
 40
1
 40
1
 10
20.308820
 20
1008.556300
 30
0.0
 10
19.644920
 20
1008.404400
 30
0.0
 10
18.841320
 20
1008.193000
 30
0.0
 10
17.884220
 20
1008.018600
 30
0.0
  0
SPLINE
  5
1fe
100
AcDbEntity
  8
Calque_1
 62
7
100
AcDbSpline
 70
8
 71
3
 72
8
 73
4
 74
0
 40
0
 40
0
 40
0
 40
0
 40
1
 40
1
 40
1
 40
1
 10
17.884220
 20
1008.018600
 30
0.0
 10
17.707020
 20
1007.985600
 30
0.0
 10
17.620720
 20
1007.945600
 30
0.0
 10
17.432420
 20
1007.918500
 30
0.0
  0
SPLINE
  5
1ff
100
AcDbEntity
  8
Calque_1
 62
7
100
AcDbSpline
 70
8
 71
3
 72
8
 73
4
 74
0
 40
0
 40
0
 40
0
 40
0
 40
1
 40
1
 40
1
 40
1
 10
17.432420
 20
1007.918500
 30
0.0
 10
17.295820
 20
1007.898500
 30
0.0
 10
17.449420
 20
1007.928500
 30
0.0
 10
17.352420
 20
1007.918500
 30
0.0
  0
SPLINE
  5
200
100
AcDbEntity
  8
Calque_1
 62
7
100
AcDbSpline
 70
8
 71
3
 72
8
 73
4
 74
0
 40
0
 40
0
 40
0
 40
0
 40
1
 40
1
 40
1
 40
1
 10
17.352420
 20
1007.918500
 30
0.0
 10
16.982920
 20
1007.867500
 30
0.0
 10
16.821820
 20
1007.856500
 30
0.0
 10
16.811420
 20
1007.869500
 30
0.0
  0
SPLINE
  5
201
100
AcDbEntity
  8
Calque_1
 62
7
100
AcDbSpline
 70
8
 71
3
 72
8
 73
4
 74
0
 40
0
 40
0
 40
0
 40
0
 40
1
 40
1
 40
1
 40
1
 10
16.811420
 20
1007.869500
 30
0.0
 10
16.626920
 20
1007.826500
 30
0.0
 10
16.396620
 20
1007.774500
 30
0.0
 10
16.055320
 20
1007.707700
 30
0.0
  0
SPLINE
  5
202
100
AcDbEntity
  8
Calque_1
 62
7
100
AcDbSpline
 70
8
 71
3
 72
8
 73
4
 74
0
 40
0
 40
0
 40
0
 40
0
 40
1
 40
1
 40
1
 40
1
 10
16.055320
 20
1007.707700
 30
0.0
 10
15.725820
 20
1007.643700
 30
0.0
 10
15.322520
 20
1007.594500
 30
0.0
 10
14.843820
 20
1007.588300
 30
0.0
  0
SPLINE
  5
203
100
AcDbEntity
  8
Calque_1
 62
7
100
AcDbSpline
 70
8
 71
3
 72
8
 73
4
 74
0
 40
0
 40
0
 40
0
 40
0
 40
1
 40
1
 40
1
 40
1
 10
14.843820
 20
1007.588300
 30
0.0
 10
14.784820
 20
1007.588300
 30
0.0
 10
14.754820
 20
1007.573300
 30
0.0
 10
14.693520
 20
1007.573300
 30
0.0
  0
SPLINE
  5
204
100
AcDbEntity
  8
Calque_1
 62
7
100
AcDbSpline
 70
8
 71
3
 72
8
 73
4
 74
0
 40
0
 40
0
 40
0
 40
0
 40
1
 40
1
 40
1
 40
1
 10
14.693520
 20
1007.573300
 30
0.0
 10
14.336920
 20
1007.573300
 30
0.0
 10
14.254520
 20
1007.563300
 30
0.0
 10
13.903120
 20
1007.600300
 30
0.0
  0
SPLINE
  5
205
100
AcDbEntity
  8
Calque_1
 62
7
100
AcDbSpline
 70
8
 71
3
 72
8
 73
4
 74
0
 40
0
 40
0
 40
0
 40
0
 40
1
 40
1
 40
1
 40
1
 10
13.903120
 20
1007.600300
 30
0.0
 10
13.838120
 20
1007.610300
 30
0.0
 10
13.681720
 20
1007.640300
 30
0.0
 10
13.500820
 20
1007.686300
 30
0.0
  0
SPLINE
  5
206
100
AcDbEntity
  8
Calque_1
 62
7
100
AcDbSpline
 70
8
 71
3
 72
8
 73
4
 74
0
 40
0
 40
0
 40
0
 40
0
 40
1
 40
1
 40
1
 40
1
 10
13.500820
 20
1007.686300
 30
0.0
 10
13.372520
 20
1007.686300
 30
0.0
 10
13.278920
 20
1007.686300
 30
0.0
 10
13.006220
 20
1007.708300
 30
0.0
  0
SPLINE
  5
207
100
AcDbEntity
  8
Calque_1
 62
7
100
AcDbSpline
 70
8
 71
3
 72
8
 73
4
 74
0
 40
0
 40
0
 40
0
 40
0
 40
1
 40
1
 40
1
 40
1
 10
13.006220
 20
1007.708300
 30
0.0
 10
12.908220
 20
1007.718300
 30
0.0
 10
12.869920
 20
1007.744300
 30
0.0
 10
12.775320
 20
1007.756300
 30
0.0
  0
SPLINE
  5
208
100
AcDbEntity
  8
Calque_1
 62
7
100
AcDbSpline
 70
8
 71
3
 72
8
 73
4
 74
0
 40
0
 40
0
 40
0
 40
0
 40
1
 40
1
 40
1
 40
1
 10
12.775320
 20
1007.756300
 30
0.0
 10
11.688820
 20
1007.887000
 30
0.0
 10
10.813220
 20
1008.143200
 30
0.0
 10
10.134320
 20
1008.305600
 30
0.0
  0
SPLINE
  5
209
100
AcDbEntity
  8
Calque_1
 62
7
100
AcDbSpline
 70
8
 71
3
 72
8
 73
4
 74
0
 40
0
 40
0
 40
0
 40
0
 40
1
 40
1
 40
1
 40
1
 10
10.134320
 20
1008.305600
 30
0.0
 10
10.088320
 20
1008.316600
 30
0.0
 10
9.999120
 20
1008.333600
 30
0.0
 10
9.955120
 20
1008.342600
 30
0.0
  0
SPLINE
  5
20a
100
AcDbEntity
  8
Calque_1
 62
7
100
AcDbSpline
 70
8
 71
3
 72
8
 73
4
 74
0
 40
0
 40
0
 40
0
 40
0
 40
1
 40
1
 40
1
 40
1
 10
9.955120
 20
1008.342600
 30
0.0
 10
9.431820
 20
1008.457800
 30
0.0
 10
8.741720
 20
1008.540900
 30
0.0
 10
8.075820
 20
1008.595700
 30
0.0
  0
SPLINE
  5
20b
100
AcDbEntity
  8
Calque_1
 62
7
100
AcDbSpline
 70
8
 71
3
 72
8
 73
4
 74
0
 40
0
 40
0
 40
0
 40
0
 40
1
 40
1
 40
1
 40
1
 10
8.075820
 20
1008.595700
 30
0.0
 10
7.637120
 20
1008.631700
 30
0.0
 10
7.259120
 20
1008.666700
 30
0.0
 10
6.936020
 20
1008.679700
 30
0.0
  0
SPLINE
  5
20c
100
AcDbEntity
  8
Calque_1
 62
7
100
AcDbSpline
 70
8
 71
3
 72
8
 73
4
 74
0
 40
0
 40
0
 40
0
 40
0
 40
1
 40
1
 40
1
 40
1
 10
6.936020
 20
1008.679700
 30
0.0
 10
6.947020
 20
1008.679700
 30
0.0
 10
6.806720
 20
1008.669700
 30
0.0
 10
6.654120
 20
1008.656700
 30
0.0
  0
SPLINE
  5
20d
100
AcDbEntity
  8
Calque_1
 62
7
100
AcDbSpline
 70
8
 71
3
 72
8
 73
4
 74
0
 40
0
 40
0
 40
0
 40
0
 40
1
 40
1
 40
1
 40
1
 10
6.654120
 20
1008.656700
 30
0.0
 10
6.636120
 20
1008.656700
 30
0.0
 10
6.589120
 20
1008.656500
 30
0.0
 10
6.571120
 20
1008.656700
 30
0.0
  0
SPLINE
  5
20e
100
AcDbEntity
  8
Calque_1
 62
7
100
AcDbSpline
 70
8
 71
3
 72
8
 73
4
 74
0
 40
0
 40
0
 40
0
 40
0
 40
1
 40
1
 40
1
 40
1
 10
6.571120
 20
1008.656700
 30
0.0
 10
6.406820
 20
1008.634700
 30
0.0
 10
6.189820
 20
1008.613700
 30
0.0
 10
5.821620
 20
1008.633700
 30
0.0
  0
SPLINE
  5
20f
100
AcDbEntity
  8
Calque_1
 62
7
100
AcDbSpline
 70
8
 71
3
 72
8
 73
4
 74
0
 40
0
 40
0
 40
0
 40
0
 40
1
 40
1
 40
1
 40
1
 10
5.821620
 20
1008.633700
 30
0.0
 10
5.752620
 20
1008.633700
 30
0.0
 10
5.758620
 20
1008.621700
 30
0.0
 10
5.675620
 20
1008.633700
 30
0.0
  0
SPLINE
  5
210
100
AcDbEntity
  8
Calque_1
 62
7
100
AcDbSpline
 70
8
 71
3
 72
8
 73
4
 74
0
 40
0
 40
0
 40
0
 40
0
 40
1
 40
1
 40
1
 40
1
 10
5.675620
 20
1008.633700
 30
0.0
 10
5.511320
 20
1008.648700
 30
0.0
 10
5.535120
 20
1008.664700
 30
0.0
 10
5.395220
 20
1008.684700
 30
0.0
  0
SPLINE
  5
211
100
AcDbEntity
  8
Calque_1
 62
7
100
AcDbSpline
 70
8
 71
3
 72
8
 73
4
 74
0
 40
0
 40
0
 40
0
 40
0
 40
1
 40
1
 40
1
 40
1
 10
5.395220
 20
1008.684700
 30
0.0
 10
4.759620
 20
1008.766700
 30
0.0
 10
4.353920
 20
1008.866000
 30
0.0
 10
4.179620
 20
1008.907500
 30
0.0
  0
LWPOLYLINE
  5
212
100
AcDbEntity
  8
Calque_1
 62
7
100
AcDbPolyline
 90
2
 70
0
 10
29.022220
 20
1009.485300
 30
0.0
 10
29.006220
 20
1009.495300
 30
0.0
  0
SPLINE
  5
213
100
AcDbEntity
  8
Calque_1
 62
7
100
AcDbSpline
 70
8
 71
3
 72
8
 73
4
 74
0
 40
0
 40
0
 40
0
 40
0
 40
1
 40
1
 40
1
 40
1
 10
4.051820
 20
1008.930500
 30
0.0
 10
4.029820
 20
1008.930500
 30
0.0
 10
3.686320
 20
1008.918500
 30
0.0
 10
3.530620
 20
1008.909500
 30
0.0
  0
SPLINE
  5
214
100
AcDbEntity
  8
Calque_1
 62
7
100
AcDbSpline
 70
8
 71
3
 72
8
 73
4
 74
0
 40
0
 40
0
 40
0
 40
0
 40
1
 40
1
 40
1
 40
1
 10
3.530620
 20
1008.909500
 30
0.0
 10
3.595620
 20
1008.697900
 30
0.0
 10
3.654920
 20
1008.514900
 30
0.0
 10
3.719720
 20
1008.283000
 30
0.0
  0
SPLINE
  5
215
100
AcDbEntity
  8
Calque_1
 62
7
100
AcDbSpline
 70
8
 71
3
 72
8
 73
4
 74
0
 40
0
 40
0
 40
0
 40
0
 40
1
 40
1
 40
1
 40
1
 10
3.719720
 20
1008.283000
 30
0.0
 10
3.836320
 20
1007.866200
 30
0.0
 10
3.945620
 20
1007.582400
 30
0.0
 10
4.137020
 20
1007.043300
 30
0.0
  0
SPLINE
  5
216
100
AcDbEntity
  8
Calque_1
 62
7
100
AcDbSpline
 70
8
 71
3
 72
8
 73
4
 74
0
 40
0
 40
0
 40
0
 40
0
 40
1
 40
1
 40
1
 40
1
 10
4.137020
 20
1007.043300
 30
0.0
 10
4.153020
 20
1006.999300
 30
0.0
 10
4.167020
 20
1006.955300
 30
0.0
 10
4.179020
 20
1006.911000
 30
0.0
  0
SPLINE
  5
217
100
AcDbEntity
  8
Calque_1
 62
7
100
AcDbSpline
 70
8
 71
3
 72
8
 73
4
 74
0
 40
0
 40
0
 40
0
 40
0
 40
1
 40
1
 40
1
 40
1
 10
4.179020
 20
1006.911000
 30
0.0
 10
4.467820
 20
1005.918800
 30
0.0
 10
4.672620
 20
1005.048600
 30
0.0
 10
4.927520
 20
1004.357800
 30
0.0
  0
SPLINE
  5
218
100
AcDbEntity
  8
Calque_1
 62
7
100
AcDbSpline
 70
8
 71
3
 72
8
 73
4
 74
0
 40
0
 40
0
 40
0
 40
0
 40
1
 40
1
 40
1
 40
1
 10
4.927520
 20
1004.357800
 30
0.0
 10
5.540820
 20
1002.695500
 30
0.0
 10
6.681420
 20
1000.955400
 30
0.0
 10
7.890020
 20
999.187000
 30
0.0
  0
SPLINE
  5
219
100
AcDbEntity
  8
Calque_1
 62
7
100
AcDbSpline
 70
8
 71
3
 72
8
 73
4
 74
0
 40
0
 40
0
 40
0
 40
0
 40
1
 40
1
 40
1
 40
1
 10
7.890020
 20
999.187000
 30
0.0
 10
8.551220
 20
998.219400
 30
0.0
 10
9.018220
 20
997.719900
 30
0.0
 10
9.338520
 20
997.461700
 30
0.0
  0
SPLINE
  5
21a
100
AcDbEntity
  8
Calque_1
 62
7
100
AcDbSpline
 70
8
 71
3
 72
8
 73
4
 74
0
 40
0
 40
0
 40
0
 40
0
 40
1
 40
1
 40
1
 40
1
 10
9.338520
 20
997.461700
 30
0.0
 10
9.469720
 20
997.687500
 30
0.0
 10
9.631820
 20
998.017900
 30
0.0
 10
9.963720
 20
998.686500
 30
0.0
  0
SPLINE
  5
21b
100
AcDbEntity
  8
Calque_1
 62
7
100
AcDbSpline
 70
8
 71
3
 72
8
 73
4
 74
0
 40
0
 40
0
 40
0
 40
0
 40
1
 40
1
 40
1
 40
1
 10
9.963720
 20
998.686500
 30
0.0
 10
9.993720
 20
998.746500
 30
0.0
 10
10.211120
 20
1000.066200
 30
0.0
 10
11.939820
 20
1000.637400
 30
0.0
  0
LWPOLYLINE
  5
21c
100
AcDbEntity
  8
Calque_1
 62
7
100
AcDbPolyline
 90
2
 70
0
 10
4.179620
 20
1008.907500
 30
0.0
 10
4.051820
 20
1008.930500
 30
0.0
  0
SPLINE
  5
21d
100
AcDbEntity
  8
Calque_1
 62
7
100
AcDbSpline
 70
8
 71
3
 72
8
 73
4
 74
0
 40
0
 40
0
 40
0
 40
0
 40
1
 40
1
 40
1
 40
1
 10
13.965520
 20
1000.394300
 30
0.0
 10
13.965520
 20
1000.394300
 30
0.0
 10
14.140420
 20
1000.275300
 30
0.0
 10
14.202120
 20
1000.225500
 30
0.0
  0
SPLINE
  5
21e
100
AcDbEntity
  8
Calque_1
 62
7
100
AcDbSpline
 70
8
 71
3
 72
8
 73
4
 74
0
 40
0
 40
0
 40
0
 40
0
 40
1
 40
1
 40
1
 40
1
 10
14.202120
 20
1000.225500
 30
0.0
 10
14.448520
 20
1000.026300
 30
0.0
 10
14.516820
 20
999.923000
 30
0.0
 10
14.578520
 20
999.845000
 30
0.0
  0
SPLINE
  5
21f
100
AcDbEntity
  8
Calque_1
 62
7
100
AcDbSpline
 70
8
 71
3
 72
8
 73
4
 74
0
 40
0
 40
0
 40
0
 40
0
 40
1
 40
1
 40
1
 40
1
 10
14.578520
 20
999.845000
 30
0.0
 10
14.701720
 20
999.688700
 30
0.0
 10
14.729420
 20
999.634500
 30
0.0
 10
14.756920
 20
999.586100
 30
0.0
  0
SPLINE
  5
220
100
AcDbEntity
  8
Calque_1
 62
7
100
AcDbSpline
 70
8
 71
3
 72
8
 73
4
 74
0
 40
0
 40
0
 40
0
 40
0
 40
1
 40
1
 40
1
 40
1
 10
14.756920
 20
999.586100
 30
0.0
 10
14.813920
 20
999.491100
 30
0.0
 10
14.828920
 20
999.459200
 30
0.0
 10
14.843920
 20
999.426400
 30
0.0
  0
SPLINE
  5
221
100
AcDbEntity
  8
Calque_1
 62
7
100
AcDbSpline
 70
8
 71
3
 72
8
 73
4
 74
0
 40
0
 40
0
 40
0
 40
0
 40
1
 40
1
 40
1
 40
1
 10
14.843920
 20
999.426400
 30
0.0
 10
14.876920
 20
999.362400
 30
0.0
 10
14.893920
 20
999.327400
 30
0.0
 10
14.910920
 20
999.287600
 30
0.0
  0
SPLINE
  5
222
100
AcDbEntity
  8
Calque_1
 62
7
100
AcDbSpline
 70
8
 71
3
 72
8
 73
4
 74
0
 40
0
 40
0
 40
0
 40
0
 40
1
 40
1
 40
1
 40
1
 10
14.910920
 20
999.287600
 30
0.0
 10
14.947920
 20
999.208600
 30
0.0
 10
14.982920
 20
999.131200
 30
0.0
 10
15.017620
 20
999.052300
 30
0.0
  0
SPLINE
  5
223
100
AcDbEntity
  8
Calque_1
 62
7
100
AcDbSpline
 70
8
 71
3
 72
8
 73
4
 74
0
 40
0
 40
0
 40
0
 40
0
 40
1
 40
1
 40
1
 40
1
 10
15.017620
 20
999.052300
 30
0.0
 10
15.052620
 20
998.973300
 30
0.0
 10
15.085620
 20
998.896800
 30
0.0
 10
15.111620
 20
998.835500
 30
0.0
  0
SPLINE
  5
224
100
AcDbEntity
  8
Calque_1
 62
7
100
AcDbSpline
 70
8
 71
3
 72
8
 73
4
 74
0
 40
0
 40
0
 40
0
 40
0
 40
1
 40
1
 40
1
 40
1
 10
15.111620
 20
998.835500
 30
0.0
 10
15.125620
 20
998.805500
 30
0.0
 10
15.136620
 20
998.778500
 30
0.0
 10
15.147620
 20
998.754500
 30
0.0
  0
SPLINE
  5
225
100
AcDbEntity
  8
Calque_1
 62
7
100
AcDbSpline
 70
8
 71
3
 72
8
 73
4
 74
0
 40
0
 40
0
 40
0
 40
0
 40
1
 40
1
 40
1
 40
1
 10
15.147620
 20
998.754500
 30
0.0
 10
15.147620
 20
998.741500
 30
0.0
 10
15.157620
 20
998.731500
 30
0.0
 10
15.165620
 20
998.713500
 30
0.0
  0
SPLINE
  5
226
100
AcDbEntity
  8
Calque_1
 62
7
100
AcDbSpline
 70
8
 71
3
 72
8
 73
4
 74
0
 40
0
 40
0
 40
0
 40
0
 40
1
 40
1
 40
1
 40
1
 10
15.165620
 20
998.713500
 30
0.0
 10
15.165620
 20
998.703500
 30
0.0
 10
15.175620
 20
998.695500
 30
0.0
 10
15.181620
 20
998.672500
 30
0.0
  0
SPLINE
  5
227
100
AcDbEntity
  8
Calque_1
 62
7
100
AcDbSpline
 70
8
 71
3
 72
8
 73
4
 74
0
 40
0
 40
0
 40
0
 40
0
 40
1
 40
1
 40
1
 40
1
 10
15.181620
 20
998.672500
 30
0.0
 10
15.181620
 20
998.660500
 30
0.0
 10
15.191620
 20
998.647500
 30
0.0
 10
15.202620
 20
998.617500
 30
0.0
  0
LWPOLYLINE
  5
228
100
AcDbEntity
  8
Calque_1
 62
7
100
AcDbPolyline
 90
4
 70
0
 10
11.939820
 20
1000.637400
 30
0.0
 10
12.902120
 20
1000.749800
 30
0.0
 10
13.570420
 20
1000.593100
 30
0.0
 10
13.965520
 20
1000.394300
 30
0.0
  0
SPLINE
  5
229
100
AcDbEntity
  8
Calque_1
 62
7
100
AcDbSpline
 70
8
 71
3
 72
8
 73
4
 74
0
 40
0
 40
0
 40
0
 40
0
 40
1
 40
1
 40
1
 40
1
 10
15.216620
 20
998.573500
 30
0.0
 10
15.794320
 20
996.955100
 30
0.0
 10
15.594320
 20
995.685600
 30
0.0
 10
15.649920
 20
995.092100
 30
0.0
  0
SPLINE
  5
22a
100
AcDbEntity
  8
Calque_1
 62
7
100
AcDbSpline
 70
8
 71
3
 72
8
 73
4
 74
0
 40
0
 40
0
 40
0
 40
0
 40
1
 40
1
 40
1
 40
1
 10
15.649920
 20
995.092100
 30
0.0
 10
15.659920
 20
995.004100
 30
0.0
 10
16.098820
 20
992.314000
 30
0.0
 10
16.098720
 20
992.319400
 30
0.0
  0
SPLINE
  5
22b
100
AcDbEntity
  8
Calque_1
 62
7
100
AcDbSpline
 70
8
 71
3
 72
8
 73
4
 74
0
 40
0
 40
0
 40
0
 40
0
 40
1
 40
1
 40
1
 40
1
 10
16.098720
 20
992.319400
 30
0.0
 10
16.527720
 20
990.295100
 30
0.0
 10
17.126420
 20
989.024100
 30
0.0
 10
18.354620
 20
987.251400
 30
0.0
  0
SPLINE
  5
22c
100
AcDbEntity
  8
Calque_1
 62
7
100
AcDbSpline
 70
8
 71
3
 72
8
 73
4
 74
0
 40
0
 40
0
 40
0
 40
0
 40
1
 40
1
 40
1
 40
1
 10
18.354620
 20
987.251400
 30
0.0
 10
18.678220
 20
986.784300
 30
0.0
 10
18.895020
 20
986.458200
 30
0.0
 10
19.035420
 20
986.302000
 30
0.0
  0
SPLINE
  5
22d
100
AcDbEntity
  8
Calque_1
 62
7
100
AcDbSpline
 70
8
 71
3
 72
8
 73
4
 74
0
 40
0
 40
0
 40
0
 40
0
 40
1
 40
1
 40
1
 40
1
 10
19.035420
 20
986.302000
 30
0.0
 10
19.346120
 20
985.956800
 30
0.0
 10
19.820720
 20
985.549000
 30
0.0
 10
20.388320
 20
985.009200
 30
0.0
  0
SPLINE
  5
22e
100
AcDbEntity
  8
Calque_1
 62
7
100
AcDbSpline
 70
8
 71
3
 72
8
 73
4
 74
0
 40
0
 40
0
 40
0
 40
0
 40
1
 40
1
 40
1
 40
1
 10
20.388320
 20
985.009200
 30
0.0
 10
21.359820
 20
984.085200
 30
0.0
 10
21.171820
 20
984.117300
 30
0.0
 10
22.087120
 20
983.659600
 30
0.0
  0
SPLINE
  5
22f
100
AcDbEntity
  8
Calque_1
 62
7
100
AcDbSpline
 70
8
 71
3
 72
8
 73
4
 74
0
 40
0
 40
0
 40
0
 40
0
 40
1
 40
1
 40
1
 40
1
 10
22.087120
 20
983.659600
 30
0.0
 10
22.626520
 20
983.389900
 30
0.0
 10
23.330920
 20
983.114400
 30
0.0
 10
23.850920
 20
983.019400
 30
0.0
  0
SPLINE
  5
230
100
AcDbEntity
  8
Calque_1
 62
7
100
AcDbSpline
 70
8
 71
3
 72
8
 73
4
 74
0
 40
0
 40
0
 40
0
 40
0
 40
1
 40
1
 40
1
 40
1
 10
23.850920
 20
983.019400
 30
0.0
 10
24.307120
 20
982.936400
 30
0.0
 10
24.408020
 20
982.997400
 30
0.0
 10
24.422520
 20
982.997400
 30
0.0
  0
SPLINE
  5
231
100
AcDbEntity
  8
Calque_1
 62
7
100
AcDbSpline
 70
8
 71
3
 72
8
 73
4
 74
0
 40
0
 40
0
 40
0
 40
0
 40
1
 40
1
 40
1
 40
1
 10
24.422520
 20
982.997400
 30
0.0
 10
24.404520
 20
983.148300
 30
0.0
 10
24.899420
 20
984.005500
 30
0.0
 10
24.985920
 20
984.562600
 30
0.0
  0
SPLINE
  5
232
100
AcDbEntity
  8
Calque_1
 62
7
100
AcDbSpline
 70
8
 71
3
 72
8
 73
4
 74
0
 40
0
 40
0
 40
0
 40
0
 40
1
 40
1
 40
1
 40
1
 10
24.985920
 20
984.562600
 30
0.0
 10
24.995920
 20
984.605600
 30
0.0
 10
24.966920
 20
984.992000
 30
0.0
 10
24.995920
 20
985.718600
 30
0.0
  0
SPLINE
  5
233
100
AcDbEntity
  8
Calque_1
 62
7
100
AcDbSpline
 70
8
 71
3
 72
8
 73
4
 74
0
 40
0
 40
0
 40
0
 40
0
 40
1
 40
1
 40
1
 40
1
 10
24.995920
 20
985.718600
 30
0.0
 10
25.005920
 20
985.919100
 30
0.0
 10
24.995920
 20
985.772600
 30
0.0
 10
25.005920
 20
985.820700
 30
0.0
  0
SPLINE
  5
234
100
AcDbEntity
  8
Calque_1
 62
7
100
AcDbSpline
 70
8
 71
3
 72
8
 73
4
 74
0
 40
0
 40
0
 40
0
 40
0
 40
1
 40
1
 40
1
 40
1
 10
25.005920
 20
985.820700
 30
0.0
 10
25.005920
 20
985.869700
 30
0.0
 10
25.015920
 20
985.937300
 30
0.0
 10
25.015920
 20
986.019600
 30
0.0
  0
SPLINE
  5
235
100
AcDbEntity
  8
Calque_1
 62
7
100
AcDbSpline
 70
8
 71
3
 72
8
 73
4
 74
0
 40
0
 40
0
 40
0
 40
0
 40
1
 40
1
 40
1
 40
1
 10
25.015920
 20
986.019600
 30
0.0
 10
25.025920
 20
986.183900
 30
0.0
 10
25.036920
 20
986.404300
 30
0.0
 10
25.050920
 20
986.635800
 30
0.0
  0
SPLINE
  5
236
100
AcDbEntity
  8
Calque_1
 62
7
100
AcDbSpline
 70
8
 71
3
 72
8
 73
4
 74
0
 40
0
 40
0
 40
0
 40
0
 40
1
 40
1
 40
1
 40
1
 10
25.050920
 20
986.635800
 30
0.0
 10
25.050920
 20
986.673800
 30
0.0
 10
25.060920
 20
986.708800
 30
0.0
 10
25.060920
 20
986.744300
 30
0.0
  0
SPLINE
  5
237
100
AcDbEntity
  8
Calque_1
 62
7
100
AcDbSpline
 70
8
 71
3
 72
8
 73
4
 74
0
 40
0
 40
0
 40
0
 40
0
 40
1
 40
1
 40
1
 40
1
 10
25.060920
 20
986.744300
 30
0.0
 10
24.984920
 20
986.939400
 30
0.0
 10
24.911020
 20
987.178500
 30
0.0
 10
24.862020
 20
987.613100
 30
0.0
  0
SPLINE
  5
238
100
AcDbEntity
  8
Calque_1
 62
7
100
AcDbSpline
 70
8
 71
3
 72
8
 73
4
 74
0
 40
0
 40
0
 40
0
 40
0
 40
1
 40
1
 40
1
 40
1
 10
24.862020
 20
987.613100
 30
0.0
 10
24.836020
 20
987.842100
 30
0.0
 10
24.807020
 20
988.025900
 30
0.0
 10
24.906020
 20
988.472800
 30
0.0
  0
SPLINE
  5
239
100
AcDbEntity
  8
Calque_1
 62
7
100
AcDbSpline
 70
8
 71
3
 72
8
 73
4
 74
0
 40
0
 40
0
 40
0
 40
0
 40
1
 40
1
 40
1
 40
1
 10
24.906020
 20
988.472800
 30
0.0
 10
24.955020
 20
988.696200
 30
0.0
 10
25.029320
 20
989.006900
 30
0.0
 10
25.339320
 20
989.422200
 30
0.0
  0
SPLINE
  5
23a
100
AcDbEntity
  8
Calque_1
 62
7
100
AcDbSpline
 70
8
 71
3
 72
8
 73
4
 74
0
 40
0
 40
0
 40
0
 40
0
 40
1
 40
1
 40
1
 40
1
 10
25.339320
 20
989.422200
 30
0.0
 10
25.649220
 20
989.837700
 30
0.0
 10
26.358020
 20
990.324900
 30
0.0
 10
27.063220
 20
990.391400
 30
0.0
  0
SPLINE
  5
23b
100
AcDbEntity
  8
Calque_1
 62
7
100
AcDbSpline
 70
8
 71
3
 72
8
 73
4
 74
0
 40
0
 40
0
 40
0
 40
0
 40
1
 40
1
 40
1
 40
1
 10
27.063220
 20
990.391400
 30
0.0
 10
27.690720
 20
990.450400
 30
0.0
 10
28.106920
 20
990.278600
 30
0.0
 10
28.416220
 20
990.098100
 30
0.0
  0
SPLINE
  5
23c
100
AcDbEntity
  8
Calque_1
 62
7
100
AcDbSpline
 70
8
 71
3
 72
8
 73
4
 74
0
 40
0
 40
0
 40
0
 40
0
 40
1
 40
1
 40
1
 40
1
 10
28.416220
 20
990.098100
 30
0.0
 10
28.460220
 20
990.077100
 30
0.0
 10
28.503220
 20
990.057100
 30
0.0
 10
28.554220
 20
990.031100
 30
0.0
  0
LWPOLYLINE
  5
23d
100
AcDbEntity
  8
Calque_1
 62
7
100
AcDbPolyline
 90
2
 70
0
 10
15.202620
 20
998.617500
 30
0.0
 10
15.216620
 20
998.573500
 30
0.0
  0
SPLINE
  5
23e
100
AcDbEntity
  8
Calque_1
 62
7
100
AcDbSpline
 70
8
 71
3
 72
8
 73
4
 74
0
 40
0
 40
0
 40
0
 40
0
 40
1
 40
1
 40
1
 40
1
 10
28.511220
 20
990.041100
 30
0.0
 10
28.540220
 20
990.029100
 30
0.0
 10
28.556220
 20
990.023100
 30
0.0
 10
28.584220
 20
990.011100
 30
0.0
  0
SPLINE
  5
23f
100
AcDbEntity
  8
Calque_1
 62
7
100
AcDbSpline
 70
8
 71
3
 72
8
 73
4
 74
0
 40
0
 40
0
 40
0
 40
0
 40
1
 40
1
 40
1
 40
1
 10
28.584220
 20
990.011100
 30
0.0
 10
28.706720
 20
989.930100
 30
0.0
 10
28.878820
 20
989.833400
 30
0.0
 10
28.925920
 20
989.793200
 30
0.0
  0
SPLINE
  5
240
100
AcDbEntity
  8
Calque_1
 62
7
100
AcDbSpline
 70
8
 71
3
 72
8
 73
4
 74
0
 40
0
 40
0
 40
0
 40
0
 40
1
 40
1
 40
1
 40
1
 10
28.925920
 20
989.793200
 30
0.0
 10
29.079820
 20
989.662500
 30
0.0
 10
28.978920
 20
989.793200
 30
0.0
 10
28.597220
 20
990.006000
 30
0.0
  0
SPLINE
  5
241
100
AcDbEntity
  8
Calque_1
 62
7
100
AcDbSpline
 70
8
 71
3
 72
8
 73
4
 74
0
 40
0
 40
0
 40
0
 40
0
 40
1
 40
1
 40
1
 40
1
 10
28.597220
 20
990.006000
 30
0.0
 10
28.700620
 20
989.962000
 30
0.0
 10
28.727220
 20
989.982000
 30
0.0
 10
28.865420
 20
989.896700
 30
0.0
  0
SPLINE
  5
242
100
AcDbEntity
  8
Calque_1
 62
7
100
AcDbSpline
 70
8
 71
3
 72
8
 73
4
 74
0
 40
0
 40
0
 40
0
 40
0
 40
1
 40
1
 40
1
 40
1
 10
28.865420
 20
989.896700
 30
0.0
 10
29.267420
 20
989.647600
 30
0.0
 10
29.808120
 20
989.026700
 30
0.0
 10
29.962120
 20
988.374700
 30
0.0
  0
SPLINE
  5
243
100
AcDbEntity
  8
Calque_1
 62
7
100
AcDbSpline
 70
8
 71
3
 72
8
 73
4
 74
0
 40
0
 40
0
 40
0
 40
0
 40
1
 40
1
 40
1
 40
1
 10
29.962120
 20
988.374700
 30
0.0
 10
30.047120
 20
988.012400
 30
0.0
 10
30.033120
 20
987.708300
 30
0.0
 10
29.992120
 20
987.434600
 30
0.0
  0
SPLINE
  5
244
100
AcDbEntity
  8
Calque_1
 62
7
100
AcDbSpline
 70
8
 71
3
 72
8
 73
4
 74
0
 40
0
 40
0
 40
0
 40
0
 40
1
 40
1
 40
1
 40
1
 10
29.992120
 20
987.434600
 30
0.0
 10
30.614020
 20
986.049500
 30
0.0
 10
31.252220
 20
984.688700
 30
0.0
 10
31.952620
 20
983.454500
 30
0.0
  0
SPLINE
  5
245
100
AcDbEntity
  8
Calque_1
 62
7
100
AcDbSpline
 70
8
 71
3
 72
8
 73
4
 74
0
 40
0
 40
0
 40
0
 40
0
 40
1
 40
1
 40
1
 40
1
 10
31.952620
 20
983.454500
 30
0.0
 10
32.196820
 20
983.024400
 30
0.0
 10
33.676620
 20
980.631700
 30
0.0
 10
34.158120
 20
979.868900
 30
0.0
  0
SPLINE
  5
246
100
AcDbEntity
  8
Calque_1
 62
7
100
AcDbSpline
 70
8
 71
3
 72
8
 73
4
 74
0
 40
0
 40
0
 40
0
 40
0
 40
1
 40
1
 40
1
 40
1
 10
34.158120
 20
979.868900
 30
0.0
 10
34.519120
 20
979.297100
 30
0.0
 10
34.801320
 20
978.810800
 30
0.0
 10
35.060420
 20
978.448700
 30
0.0
  0
SPLINE
  5
247
100
AcDbEntity
  8
Calque_1
 62
7
100
AcDbSpline
 70
8
 71
3
 72
8
 73
4
 74
0
 40
0
 40
0
 40
0
 40
0
 40
1
 40
1
 40
1
 40
1
 10
35.060420
 20
978.448700
 30
0.0
 10
35.549020
 20
977.766100
 30
0.0
 10
36.881320
 20
976.106900
 30
0.0
 10
37.571920
 20
975.300600
 30
0.0
  0
SPLINE
  5
248
100
AcDbEntity
  8
Calque_1
 62
7
100
AcDbSpline
 70
8
 71
3
 72
8
 73
4
 74
0
 40
0
 40
0
 40
0
 40
0
 40
1
 40
1
 40
1
 40
1
 10
37.571920
 20
975.300600
 30
0.0
 10
38.310520
 20
974.438300
 30
0.0
 10
39.019720
 20
973.558200
 30
0.0
 10
39.631320
 20
973.052800
 30
0.0
  0
SPLINE
  5
249
100
AcDbEntity
  8
Calque_1
 62
7
100
AcDbSpline
 70
8
 71
3
 72
8
 73
4
 74
0
 40
0
 40
0
 40
0
 40
0
 40
1
 40
1
 40
1
 40
1
 10
39.631320
 20
973.052800
 30
0.0
 10
40.172720
 20
972.605500
 30
0.0
 10
40.412920
 20
972.530700
 30
0.0
 10
40.685720
 20
972.556100
 30
0.0
  0
SPLINE
  5
24a
100
AcDbEntity
  8
Calque_1
 62
7
100
AcDbSpline
 70
8
 71
3
 72
8
 73
4
 74
0
 40
0
 40
0
 40
0
 40
0
 40
1
 40
1
 40
1
 40
1
 10
40.685720
 20
972.556100
 30
0.0
 10
40.699720
 20
972.566100
 30
0.0
 10
40.695720
 20
972.557000
 30
0.0
 10
40.709720
 20
972.566100
 30
0.0
  0
SPLINE
  5
24b
100
AcDbEntity
  8
Calque_1
 62
7
100
AcDbSpline
 70
8
 71
3
 72
8
 73
4
 74
0
 40
0
 40
0
 40
0
 40
0
 40
1
 40
1
 40
1
 40
1
 10
40.709720
 20
972.566100
 30
0.0
 10
41.203720
 20
972.853300
 30
0.0
 10
41.693320
 20
973.808700
 30
0.0
 10
41.762620
 20
974.889200
 30
0.0
  0
SPLINE
  5
24c
100
AcDbEntity
  8
Calque_1
 62
7
100
AcDbSpline
 70
8
 71
3
 72
8
 73
4
 74
0
 40
0
 40
0
 40
0
 40
0
 40
1
 40
1
 40
1
 40
1
 10
41.762620
 20
974.889200
 30
0.0
 10
41.772620
 20
974.977200
 30
0.0
 10
41.762620
 20
975.263300
 30
0.0
 10
41.751620
 20
975.555600
 30
0.0
  0
SPLINE
  5
24d
100
AcDbEntity
  8
Calque_1
 62
7
100
AcDbSpline
 70
8
 71
3
 72
8
 73
4
 74
0
 40
0
 40
0
 40
0
 40
0
 40
1
 40
1
 40
1
 40
1
 10
41.751620
 20
975.555600
 30
0.0
 10
41.751620
 20
975.584600
 30
0.0
 10
41.751620
 20
975.606600
 30
0.0
 10
41.737620
 20
975.709200
 30
0.0
  0
SPLINE
  5
24e
100
AcDbEntity
  8
Calque_1
 62
7
100
AcDbSpline
 70
8
 71
3
 72
8
 73
4
 74
0
 40
0
 40
0
 40
0
 40
0
 40
1
 40
1
 40
1
 40
1
 10
41.737620
 20
975.709200
 30
0.0
 10
41.702620
 20
975.996100
 30
0.0
 10
41.633420
 20
976.818700
 30
0.0
 10
42.214820
 20
977.614600
 30
0.0
  0
SPLINE
  5
24f
100
AcDbEntity
  8
Calque_1
 62
7
100
AcDbSpline
 70
8
 71
3
 72
8
 73
4
 74
0
 40
0
 40
0
 40
0
 40
0
 40
1
 40
1
 40
1
 40
1
 10
42.214820
 20
977.614600
 30
0.0
 10
42.431120
 20
977.910600
 30
0.0
 10
42.960320
 20
978.534800
 30
0.0
 10
44.007320
 20
978.606300
 30
0.0
  0
SPLINE
  5
250
100
AcDbEntity
  8
Calque_1
 62
7
100
AcDbSpline
 70
8
 71
3
 72
8
 73
4
 74
0
 40
0
 40
0
 40
0
 40
0
 40
1
 40
1
 40
1
 40
1
 10
44.007320
 20
978.606300
 30
0.0
 10
45.054420
 20
978.678300
 30
0.0
 10
45.785520
 20
978.038900
 30
0.0
 10
46.045020
 20
977.721200
 30
0.0
  0
SPLINE
  5
251
100
AcDbEntity
  8
Calque_1
 62
7
100
AcDbSpline
 70
8
 71
3
 72
8
 73
4
 74
0
 40
0
 40
0
 40
0
 40
0
 40
1
 40
1
 40
1
 40
1
 10
46.045020
 20
977.721200
 30
0.0
 10
46.564120
 20
977.085800
 30
0.0
 10
46.475620
 20
976.952400
 30
0.0
 10
46.512920
 20
976.828700
 30
0.0
  0
SPLINE
  5
252
100
AcDbEntity
  8
Calque_1
 62
7
100
AcDbSpline
 70
8
 71
3
 72
8
 73
4
 74
0
 40
0
 40
0
 40
0
 40
0
 40
1
 40
1
 40
1
 40
1
 10
46.512920
 20
976.828700
 30
0.0
 10
46.545920
 20
976.715600
 30
0.0
 10
46.579920
 20
976.633300
 30
0.0
 10
46.591920
 20
976.606400
 30
0.0
  0
SPLINE
  5
253
100
AcDbEntity
  8
Calque_1
 62
7
100
AcDbSpline
 70
8
 71
3
 72
8
 73
4
 74
0
 40
0
 40
0
 40
0
 40
0
 40
1
 40
1
 40
1
 40
1
 10
46.591920
 20
976.606400
 30
0.0
 10
46.614920
 20
976.547400
 30
0.0
 10
46.661920
 20
976.430900
 30
0.0
 10
46.671920
 20
976.407200
 30
0.0
  0
SPLINE
  5
254
100
AcDbEntity
  8
Calque_1
 62
7
100
AcDbSpline
 70
8
 71
3
 72
8
 73
4
 74
0
 40
0
 40
0
 40
0
 40
0
 40
1
 40
1
 40
1
 40
1
 10
46.671920
 20
976.407200
 30
0.0
 10
47.400220
 20
974.777600
 30
0.0
 10
48.103920
 20
973.184500
 30
0.0
 10
48.875720
 20
971.701200
 30
0.0
  0
SPLINE
  5
255
100
AcDbEntity
  8
Calque_1
 62
7
100
AcDbSpline
 70
8
 71
3
 72
8
 73
4
 74
0
 40
0
 40
0
 40
0
 40
0
 40
1
 40
1
 40
1
 40
1
 10
48.875720
 20
971.701200
 30
0.0
 10
50.451920
 20
968.672200
 30
0.0
 10
52.118620
 20
965.794700
 30
0.0
 10
54.293120
 20
963.627600
 30
0.0
  0
SPLINE
  5
256
100
AcDbEntity
  8
Calque_1
 62
7
100
AcDbSpline
 70
8
 71
3
 72
8
 73
4
 74
0
 40
0
 40
0
 40
0
 40
0
 40
1
 40
1
 40
1
 40
1
 10
54.293120
 20
963.627600
 30
0.0
 10
55.322520
 20
962.601800
 30
0.0
 10
56.047520
 20
962.016700
 30
0.0
 10
57.074820
 20
961.644100
 30
0.0
  0
SPLINE
  5
257
100
AcDbEntity
  8
Calque_1
 62
7
100
AcDbSpline
 70
8
 71
3
 72
8
 73
4
 74
0
 40
0
 40
0
 40
0
 40
0
 40
1
 40
1
 40
1
 40
1
 10
57.074820
 20
961.644100
 30
0.0
 10
57.266720
 20
961.574100
 30
0.0
 10
57.377920
 20
961.542800
 30
0.0
 10
57.432120
 20
961.525500
 30
0.0
  0
SPLINE
  5
258
100
AcDbEntity
  8
Calque_1
 62
7
100
AcDbSpline
 70
8
 71
3
 72
8
 73
4
 74
0
 40
0
 40
0
 40
0
 40
0
 40
1
 40
1
 40
1
 40
1
 10
57.432120
 20
961.525500
 30
0.0
 10
57.501120
 20
961.525500
 30
0.0
 10
57.668720
 20
961.537500
 30
0.0
 10
58.048820
 20
961.595500
 30
0.0
  0
SPLINE
  5
259
100
AcDbEntity
  8
Calque_1
 62
7
100
AcDbSpline
 70
8
 71
3
 72
8
 73
4
 74
0
 40
0
 40
0
 40
0
 40
0
 40
1
 40
1
 40
1
 40
1
 10
58.048820
 20
961.595500
 30
0.0
 10
59.332020
 20
961.792600
 30
0.0
 10
59.547220
 20
962.104600
 30
0.0
 10
59.820120
 20
962.723200
 30
0.0
  0
SPLINE
  5
25a
100
AcDbEntity
  8
Calque_1
 62
7
100
AcDbSpline
 70
8
 71
3
 72
8
 73
4
 74
0
 40
0
 40
0
 40
0
 40
0
 40
1
 40
1
 40
1
 40
1
 10
59.820120
 20
962.723200
 30
0.0
 10
60.092920
 20
963.341700
 30
0.0
 10
60.184620
 20
964.524400
 30
0.0
 10
59.929220
 20
965.889700
 30
0.0
  0
SPLINE
  5
25b
100
AcDbEntity
  8
Calque_1
 62
7
100
AcDbSpline
 70
8
 71
3
 72
8
 73
4
 74
0
 40
0
 40
0
 40
0
 40
0
 40
1
 40
1
 40
1
 40
1
 10
59.929220
 20
965.889700
 30
0.0
 10
59.839220
 20
966.370600
 30
0.0
 10
59.705120
 20
966.917000
 30
0.0
 10
59.571320
 20
967.528600
 30
0.0
  0
SPLINE
  5
25c
100
AcDbEntity
  8
Calque_1
 62
7
100
AcDbSpline
 70
8
 71
3
 72
8
 73
4
 74
0
 40
0
 40
0
 40
0
 40
0
 40
1
 40
1
 40
1
 40
1
 10
59.571320
 20
967.528600
 30
0.0
 10
59.504320
 20
967.818000
 30
0.0
 10
59.402520
 20
968.188500
 30
0.0
 10
59.312820
 20
968.649900
 30
0.0
  0
SPLINE
  5
25d
100
AcDbEntity
  8
Calque_1
 62
7
100
AcDbSpline
 70
8
 71
3
 72
8
 73
4
 74
0
 40
0
 40
0
 40
0
 40
0
 40
1
 40
1
 40
1
 40
1
 10
59.312820
 20
968.649900
 30
0.0
 10
59.254820
 20
968.945900
 30
0.0
 10
59.235820
 20
969.098200
 30
0.0
 10
59.229820
 20
969.440400
 30
0.0
  0
SPLINE
  5
25e
100
AcDbEntity
  8
Calque_1
 62
7
100
AcDbSpline
 70
8
 71
3
 72
8
 73
4
 74
0
 40
0
 40
0
 40
0
 40
0
 40
1
 40
1
 40
1
 40
1
 10
59.229820
 20
969.440400
 30
0.0
 10
59.229820
 20
969.611700
 30
0.0
 10
59.114020
 20
969.683600
 30
0.0
 10
59.379320
 20
970.433200
 30
0.0
  0
SPLINE
  5
25f
100
AcDbEntity
  8
Calque_1
 62
7
100
AcDbSpline
 70
8
 71
3
 72
8
 73
4
 74
0
 40
0
 40
0
 40
0
 40
0
 40
1
 40
1
 40
1
 40
1
 10
59.379320
 20
970.433200
 30
0.0
 10
59.445320
 20
970.620600
 30
0.0
 10
59.539920
 20
970.880200
 30
0.0
 10
59.840620
 20
971.225600
 30
0.0
  0
SPLINE
  5
260
100
AcDbEntity
  8
Calque_1
 62
7
100
AcDbSpline
 70
8
 71
3
 72
8
 73
4
 74
0
 40
0
 40
0
 40
0
 40
0
 40
1
 40
1
 40
1
 40
1
 10
59.840620
 20
971.225600
 30
0.0
 10
60.141320
 20
971.571000
 30
0.0
 10
60.787320
 20
972.002000
 30
0.0
 10
61.498820
 20
972.050800
 30
0.0
  0
SPLINE
  5
261
100
AcDbEntity
  8
Calque_1
 62
7
100
AcDbSpline
 70
8
 71
3
 72
8
 73
4
 74
0
 40
0
 40
0
 40
0
 40
0
 40
1
 40
1
 40
1
 40
1
 10
61.498820
 20
972.050800
 30
0.0
 10
62.921820
 20
972.148800
 30
0.0
 10
63.368220
 20
971.386500
 30
0.0
 10
63.572920
 20
971.129900
 30
0.0
  0
SPLINE
  5
262
100
AcDbEntity
  8
Calque_1
 62
7
100
AcDbSpline
 70
8
 71
3
 72
8
 73
4
 74
0
 40
0
 40
0
 40
0
 40
0
 40
1
 40
1
 40
1
 40
1
 10
63.572920
 20
971.129900
 30
0.0
 10
64.790620
 20
969.604600
 30
0.0
 10
65.899920
 20
968.008000
 30
0.0
 10
66.937720
 20
966.437500
 30
0.0
  0
SPLINE
  5
263
100
AcDbEntity
  8
Calque_1
 62
7
100
AcDbSpline
 70
8
 71
3
 72
8
 73
4
 74
0
 40
0
 40
0
 40
0
 40
0
 40
1
 40
1
 40
1
 40
1
 10
66.937720
 20
966.437500
 30
0.0
 10
68.487120
 20
964.092700
 30
0.0
 10
69.501220
 20
962.414600
 30
0.0
 10
71.333320
 20
961.116200
 30
0.0
  0
SPLINE
  5
264
100
AcDbEntity
  8
Calque_1
 62
7
100
AcDbSpline
 70
8
 71
3
 72
8
 73
4
 74
0
 40
0
 40
0
 40
0
 40
0
 40
1
 40
1
 40
1
 40
1
 10
71.333320
 20
961.116200
 30
0.0
 10
72.568820
 20
960.240400
 30
0.0
 10
72.845520
 20
960.103400
 30
0.0
 10
73.998320
 20
960.311900
 30
0.0
  0
LWPOLYLINE
  5
265
100
AcDbEntity
  8
Calque_1
 62
7
100
AcDbPolyline
 90
2
 70
0
 10
28.554220
 20
990.031100
 30
0.0
 10
28.511220
 20
990.041100
 30
0.0
  0
SPLINE
  5
266
100
AcDbEntity
  8
Calque_1
 62
7
100
AcDbSpline
 70
8
 71
3
 72
8
 73
4
 74
0
 40
0
 40
0
 40
0
 40
0
 40
1
 40
1
 40
1
 40
1
 10
127.795920
 20
984.887800
 30
0.0
 10
127.699920
 20
985.387400
 30
0.0
 10
127.200420
 20
985.869900
 30
0.0
 10
126.041020
 20
986.580700
 30
0.0
  0
SPLINE
  5
267
100
AcDbEntity
  8
Calque_1
 62
7
100
AcDbSpline
 70
8
 71
3
 72
8
 73
4
 74
0
 40
0
 40
0
 40
0
 40
0
 40
1
 40
1
 40
1
 40
1
 10
126.041020
 20
986.580700
 30
0.0
 10
126.270320
 20
986.440100
 30
0.0
 10
124.748520
 20
987.176700
 30
0.0
 10
124.889220
 20
987.149700
 30
0.0
  0
SPLINE
  5
268
100
AcDbEntity
  8
Calque_1
 62
7
100
AcDbSpline
 70
8
 71
3
 72
8
 73
4
 74
0
 40
0
 40
0
 40
0
 40
0
 40
1
 40
1
 40
1
 40
1
 10
124.889220
 20
987.149700
 30
0.0
 10
124.711520
 20
987.207700
 30
0.0
 10
124.394920
 20
987.286400
 30
0.0
 10
123.936720
 20
987.433900
 30
0.0
  0
SPLINE
  5
269
100
AcDbEntity
  8
Calque_1
 62
7
100
AcDbSpline
 70
8
 71
3
 72
8
 73
4
 74
0
 40
0
 40
0
 40
0
 40
0
 40
1
 40
1
 40
1
 40
1
 10
123.936720
 20
987.433900
 30
0.0
 10
122.552220
 20
987.879600
 30
0.0
 10
121.407520
 20
988.362800
 30
0.0
 10
120.439320
 20
988.577000
 30
0.0
  0
SPLINE
  5
26a
100
AcDbEntity
  8
Calque_1
 62
7
100
AcDbSpline
 70
8
 71
3
 72
8
 73
4
 74
0
 40
0
 40
0
 40
0
 40
0
 40
1
 40
1
 40
1
 40
1
 10
120.439320
 20
988.577000
 30
0.0
 10
119.833920
 20
988.710900
 30
0.0
 10
119.347620
 20
988.758800
 30
0.0
 10
118.634820
 20
988.782100
 30
0.0
  0
SPLINE
  5
26b
100
AcDbEntity
  8
Calque_1
 62
7
100
AcDbSpline
 70
8
 71
3
 72
8
 73
4
 74
0
 40
0
 40
0
 40
0
 40
0
 40
1
 40
1
 40
1
 40
1
 10
118.634820
 20
988.782100
 30
0.0
 10
118.030920
 20
988.802100
 30
0.0
 10
117.332820
 20
988.748100
 30
0.0
 10
116.648820
 20
988.682100
 30
0.0
  0
SPLINE
  5
26c
100
AcDbEntity
  8
Calque_1
 62
7
100
AcDbSpline
 70
8
 71
3
 72
8
 73
4
 74
0
 40
0
 40
0
 40
0
 40
0
 40
1
 40
1
 40
1
 40
1
 10
116.648820
 20
988.682100
 30
0.0
 10
116.429920
 20
988.614100
 30
0.0
 10
116.187720
 20
988.517600
 30
0.0
 10
115.983220
 20
988.459900
 30
0.0
  0
SPLINE
  5
26d
100
AcDbEntity
  8
Calque_1
 62
7
100
AcDbSpline
 70
8
 71
3
 72
8
 73
4
 74
0
 40
0
 40
0
 40
0
 40
0
 40
1
 40
1
 40
1
 40
1
 10
115.983220
 20
988.459900
 30
0.0
 10
115.496920
 20
988.322900
 30
0.0
 10
115.152220
 20
988.268500
 30
0.0
 10
114.981720
 20
988.224800
 30
0.0
  0
SPLINE
  5
26e
100
AcDbEntity
  8
Calque_1
 62
7
100
AcDbSpline
 70
8
 71
3
 72
8
 73
4
 74
0
 40
0
 40
0
 40
0
 40
0
 40
1
 40
1
 40
1
 40
1
 10
114.981720
 20
988.224800
 30
0.0
 10
114.819220
 20
988.182800
 30
0.0
 10
114.599420
 20
988.132800
 30
0.0
 10
114.241220
 20
988.153800
 30
0.0
  0
SPLINE
  5
26f
100
AcDbEntity
  8
Calque_1
 62
7
100
AcDbSpline
 70
8
 71
3
 72
8
 73
4
 74
0
 40
0
 40
0
 40
0
 40
0
 40
1
 40
1
 40
1
 40
1
 10
114.241220
 20
988.153800
 30
0.0
 10
114.062120
 20
988.164800
 30
0.0
 10
113.845620
 20
988.196800
 30
0.0
 10
113.599920
 20
988.280900
 30
0.0
  0
SPLINE
  5
270
100
AcDbEntity
  8
Calque_1
 62
7
100
AcDbSpline
 70
8
 71
3
 72
8
 73
4
 74
0
 40
0
 40
0
 40
0
 40
0
 40
1
 40
1
 40
1
 40
1
 10
113.599920
 20
988.280900
 30
0.0
 10
113.477120
 20
988.322900
 30
0.0
 10
113.347720
 20
988.378900
 30
0.0
 10
113.217520
 20
988.451500
 30
0.0
  0
SPLINE
  5
271
100
AcDbEntity
  8
Calque_1
 62
7
100
AcDbSpline
 70
8
 71
3
 72
8
 73
4
 74
0
 40
0
 40
0
 40
0
 40
0
 40
1
 40
1
 40
1
 40
1
 10
113.217520
 20
988.451500
 30
0.0
 10
113.087220
 20
988.523500
 30
0.0
 10
112.833720
 20
988.715900
 30
0.0
 10
112.833520
 20
988.716000
 30
0.0
  0
LWPOLYLINE
  5
272
100
AcDbEntity
  8
Calque_1
 62
7
100
AcDbPolyline
 90
2
 70
0
 10
73.998320
 20
960.311900
 30
0.0
 10
74.001020
 20
960.306000
 30
0.0
  0
SPLINE
  5
273
100
AcDbEntity
  8
Calque_1
 62
7
100
AcDbSpline
 70
8
 71
3
 72
8
 73
4
 74
0
 40
0
 40
0
 40
0
 40
0
 40
1
 40
1
 40
1
 40
1
 10
112.497120
 20
989.063300
 30
0.0
 10
112.497020
 20
989.063400
 30
0.0
 10
112.314220
 20
989.321400
 30
0.0
 10
112.246520
 20
989.452900
 30
0.0
  0
SPLINE
  5
274
100
AcDbEntity
  8
Calque_1
 62
7
100
AcDbSpline
 70
8
 71
3
 72
8
 73
4
 74
0
 40
0
 40
0
 40
0
 40
0
 40
1
 40
1
 40
1
 40
1
 10
112.246520
 20
989.452900
 30
0.0
 10
112.111220
 20
989.715900
 30
0.0
 10
112.042020
 20
989.969300
 30
0.0
 10
112.008820
 20
990.182100
 30
0.0
  0
SPLINE
  5
275
100
AcDbEntity
  8
Calque_1
 62
7
100
AcDbSpline
 70
8
 71
3
 72
8
 73
4
 74
0
 40
0
 40
0
 40
0
 40
0
 40
1
 40
1
 40
1
 40
1
 10
112.008820
 20
990.182100
 30
0.0
 10
111.942820
 20
990.607700
 30
0.0
 10
111.993820
 20
990.878700
 30
0.0
 10
112.036820
 20
991.072500
 30
0.0
  0
SPLINE
  5
276
100
AcDbEntity
  8
Calque_1
 62
7
100
AcDbSpline
 70
8
 71
3
 72
8
 73
4
 74
0
 40
0
 40
0
 40
0
 40
0
 40
1
 40
1
 40
1
 40
1
 10
112.036820
 20
991.072500
 30
0.0
 10
112.207920
 20
991.847500
 30
0.0
 10
112.341820
 20
991.831000
 30
0.0
 10
112.418720
 20
991.941700
 30
0.0
  0
SPLINE
  5
277
100
AcDbEntity
  8
Calque_1
 62
7
100
AcDbSpline
 70
8
 71
3
 72
8
 73
4
 74
0
 40
0
 40
0
 40
0
 40
0
 40
1
 40
1
 40
1
 40
1
 10
112.418720
 20
991.941700
 30
0.0
 10
112.572520
 20
992.163100
 30
0.0
 10
112.543420
 20
992.162000
 30
0.0
 10
112.867220
 20
992.437800
 30
0.0
  0
SPLINE
  5
278
100
AcDbEntity
  8
Calque_1
 62
7
100
AcDbSpline
 70
8
 71
3
 72
8
 73
4
 74
0
 40
0
 40
0
 40
0
 40
0
 40
1
 40
1
 40
1
 40
1
 10
112.867220
 20
992.437800
 30
0.0
 10
112.944220
 20
992.503800
 30
0.0
 10
113.178120
 20
992.745600
 30
0.0
 10
113.691020
 20
992.973700
 30
0.0
  0
SPLINE
  5
279
100
AcDbEntity
  8
Calque_1
 62
7
100
AcDbSpline
 70
8
 71
3
 72
8
 73
4
 74
0
 40
0
 40
0
 40
0
 40
0
 40
1
 40
1
 40
1
 40
1
 10
113.691020
 20
992.973700
 30
0.0
 10
114.698520
 20
993.421300
 30
0.0
 10
115.270620
 20
993.399900
 30
0.0
 10
115.650520
 20
993.425300
 30
0.0
  0
SPLINE
  5
27a
100
AcDbEntity
  8
Calque_1
 62
7
100
AcDbSpline
 70
8
 71
3
 72
8
 73
4
 74
0
 40
0
 40
0
 40
0
 40
0
 40
1
 40
1
 40
1
 40
1
 10
115.650520
 20
993.425300
 30
0.0
 10
116.247120
 20
993.653800
 30
0.0
 10
116.820820
 20
993.900100
 30
0.0
 10
117.061820
 20
994.064600
 30
0.0
  0
SPLINE
  5
27b
100
AcDbEntity
  8
Calque_1
 62
7
100
AcDbSpline
 70
8
 71
3
 72
8
 73
4
 74
0
 40
0
 40
0
 40
0
 40
0
 40
1
 40
1
 40
1
 40
1
 10
117.061820
 20
994.064600
 30
0.0
 10
116.860420
 20
993.927100
 30
0.0
 10
117.418720
 20
994.535900
 30
0.0
 10
117.932120
 20
995.235500
 30
0.0
  0
SPLINE
  5
27c
100
AcDbEntity
  8
Calque_1
 62
7
100
AcDbSpline
 70
8
 71
3
 72
8
 73
4
 74
0
 40
0
 40
0
 40
0
 40
0
 40
1
 40
1
 40
1
 40
1
 10
117.932120
 20
995.235500
 30
0.0
 10
118.398020
 20
995.870700
 30
0.0
 10
117.958120
 20
995.191500
 30
0.0
 10
118.395120
 20
996.032900
 30
0.0
  0
SPLINE
  5
27d
100
AcDbEntity
  8
Calque_1
 62
7
100
AcDbSpline
 70
8
 71
3
 72
8
 73
4
 74
0
 40
0
 40
0
 40
0
 40
0
 40
1
 40
1
 40
1
 40
1
 10
118.395120
 20
996.032900
 30
0.0
 10
118.608620
 20
996.444300
 30
0.0
 10
118.738620
 20
996.709900
 30
0.0
 10
118.806420
 20
996.833400
 30
0.0
  0
SPLINE
  5
27e
100
AcDbEntity
  8
Calque_1
 62
7
100
AcDbSpline
 70
8
 71
3
 72
8
 73
4
 74
0
 40
0
 40
0
 40
0
 40
0
 40
1
 40
1
 40
1
 40
1
 10
118.806420
 20
996.833400
 30
0.0
 10
118.789420
 20
996.935400
 30
0.0
 10
118.759420
 20
997.145900
 30
0.0
 10
118.681320
 20
997.443700
 30
0.0
  0
SPLINE
  5
27f
100
AcDbEntity
  8
Calque_1
 62
7
100
AcDbSpline
 70
8
 71
3
 72
8
 73
4
 74
0
 40
0
 40
0
 40
0
 40
0
 40
1
 40
1
 40
1
 40
1
 10
118.681320
 20
997.443700
 30
0.0
 10
118.577220
 20
997.840500
 30
0.0
 10
118.467820
 20
998.113500
 30
0.0
 10
118.428720
 20
998.196100
 30
0.0
  0
SPLINE
  5
280
100
AcDbEntity
  8
Calque_1
 62
7
100
AcDbSpline
 70
8
 71
3
 72
8
 73
4
 74
0
 40
0
 40
0
 40
0
 40
0
 40
1
 40
1
 40
1
 40
1
 10
118.428720
 20
998.196100
 30
0.0
 10
118.386720
 20
998.227100
 30
0.0
 10
118.219820
 20
998.415200
 30
0.0
 10
118.001320
 20
998.568200
 30
0.0
  0
SPLINE
  5
281
100
AcDbEntity
  8
Calque_1
 62
7
100
AcDbSpline
 70
8
 71
3
 72
8
 73
4
 74
0
 40
0
 40
0
 40
0
 40
0
 40
1
 40
1
 40
1
 40
1
 10
118.001320
 20
998.568200
 30
0.0
 10
117.686420
 20
998.788500
 30
0.0
 10
117.268720
 20
999.008900
 30
0.0
 10
117.115620
 20
999.072500
 30
0.0
  0
SPLINE
  5
282
100
AcDbEntity
  8
Calque_1
 62
7
100
AcDbSpline
 70
8
 71
3
 72
8
 73
4
 74
0
 40
0
 40
0
 40
0
 40
0
 40
1
 40
1
 40
1
 40
1
 10
117.115620
 20
999.072500
 30
0.0
 10
116.452220
 20
999.348400
 30
0.0
 10
115.505120
 20
999.523300
 30
0.0
 10
114.365920
 20
999.760300
 30
0.0
  0
SPLINE
  5
283
100
AcDbEntity
  8
Calque_1
 62
7
100
AcDbSpline
 70
8
 71
3
 72
8
 73
4
 74
0
 40
0
 40
0
 40
0
 40
0
 40
1
 40
1
 40
1
 40
1
 10
114.365920
 20
999.760300
 30
0.0
 10
113.286220
 20
999.985000
 30
0.0
 10
112.926820
 20
1000.075400
 30
0.0
 10
111.909220
 20
1000.158800
 30
0.0
  0
SPLINE
  5
284
100
AcDbEntity
  8
Calque_1
 62
7
100
AcDbSpline
 70
8
 71
3
 72
8
 73
4
 74
0
 40
0
 40
0
 40
0
 40
0
 40
1
 40
1
 40
1
 40
1
 10
111.909220
 20
1000.158800
 30
0.0
 10
111.467320
 20
1000.194800
 30
0.0
 10
111.106220
 20
1000.158800
 30
0.0
 10
110.371820
 20
1000.105800
 30
0.0
  0
SPLINE
  5
285
100
AcDbEntity
  8
Calque_1
 62
7
100
AcDbSpline
 70
8
 71
3
 72
8
 73
4
 74
0
 40
0
 40
0
 40
0
 40
0
 40
1
 40
1
 40
1
 40
1
 10
110.371820
 20
1000.105800
 30
0.0
 10
109.586020
 20
1000.052800
 30
0.0
 10
109.239520
 20
1000.023800
 30
0.0
 10
108.668020
 20
999.878900
 30
0.0
  0
SPLINE
  5
286
100
AcDbEntity
  8
Calque_1
 62
7
100
AcDbSpline
 70
8
 71
3
 72
8
 73
4
 74
0
 40
0
 40
0
 40
0
 40
0
 40
1
 40
1
 40
1
 40
1
 10
108.668020
 20
999.878900
 30
0.0
 10
108.655020
 20
999.868900
 30
0.0
 10
108.467820
 20
999.817900
 30
0.0
 10
108.300620
 20
999.770900
 30
0.0
  0
SPLINE
  5
287
100
AcDbEntity
  8
Calque_1
 62
7
100
AcDbSpline
 70
8
 71
3
 72
8
 73
4
 74
0
 40
0
 40
0
 40
0
 40
0
 40
1
 40
1
 40
1
 40
1
 10
108.300620
 20
999.770900
 30
0.0
 10
108.226620
 20
999.749900
 30
0.0
 10
108.108720
 20
999.725900
 30
0.0
 10
108.000320
 20
999.701900
 30
0.0
  0
SPLINE
  5
288
100
AcDbEntity
  8
Calque_1
 62
7
100
AcDbSpline
 70
8
 71
3
 72
8
 73
4
 74
0
 40
0
 40
0
 40
0
 40
0
 40
1
 40
1
 40
1
 40
1
 10
108.000320
 20
999.701900
 30
0.0
 10
107.426620
 20
999.532000
 30
0.0
 10
107.115620
 20
999.579900
 30
0.0
 10
106.894520
 20
999.662900
 30
0.0
  0
SPLINE
  5
289
100
AcDbEntity
  8
Calque_1
 62
7
100
AcDbSpline
 70
8
 71
3
 72
8
 73
4
 74
0
 40
0
 40
0
 40
0
 40
0
 40
1
 40
1
 40
1
 40
1
 10
106.894520
 20
999.662900
 30
0.0
 10
106.564720
 20
999.687900
 30
0.0
 10
106.148420
 20
999.793200
 30
0.0
 10
105.573120
 20
1000.430800
 30
0.0
  0
SPLINE
  5
28a
100
AcDbEntity
  8
Calque_1
 62
7
100
AcDbSpline
 70
8
 71
3
 72
8
 73
4
 74
0
 40
0
 40
0
 40
0
 40
0
 40
1
 40
1
 40
1
 40
1
 10
105.573120
 20
1000.430800
 30
0.0
 10
105.534120
 20
1000.474800
 30
0.0
 10
105.483120
 20
1000.519800
 30
0.0
 10
105.361220
 20
1000.701000
 30
0.0
  0
SPLINE
  5
28b
100
AcDbEntity
  8
Calque_1
 62
7
100
AcDbSpline
 70
8
 71
3
 72
8
 73
4
 74
0
 40
0
 40
0
 40
0
 40
0
 40
1
 40
1
 40
1
 40
1
 10
105.361220
 20
1000.701000
 30
0.0
 10
105.300220
 20
1000.792000
 30
0.0
 10
105.100420
 20
1001.210400
 30
0.0
 10
105.100320
 20
1001.210600
 30
0.0
  0
LWPOLYLINE
  5
28c
100
AcDbEntity
  8
Calque_1
 62
7
100
AcDbPolyline
 90
2
 70
0
 10
112.833520
 20
988.716000
 30
0.0
 10
112.497120
 20
989.063300
 30
0.0
  0
SPLINE
  5
28d
100
AcDbEntity
  8
Calque_1
 62
7
100
AcDbSpline
 70
8
 71
3
 72
8
 73
4
 74
0
 40
0
 40
0
 40
0
 40
0
 40
1
 40
1
 40
1
 40
1
 10
106.420520
 20
1004.254300
 30
0.0
 10
106.420520
 20
1004.254300
 30
0.0
 10
106.502520
 20
1004.271300
 30
0.0
 10
106.522820
 20
1004.275300
 30
0.0
  0
SPLINE
  5
28e
100
AcDbEntity
  8
Calque_1
 62
7
100
AcDbSpline
 70
8
 71
3
 72
8
 73
4
 74
0
 40
0
 40
0
 40
0
 40
0
 40
1
 40
1
 40
1
 40
1
 10
106.522820
 20
1004.275300
 30
0.0
 10
106.506820
 20
1004.265300
 30
0.0
 10
106.603820
 20
1004.317300
 30
0.0
 10
106.570820
 20
1004.298300
 30
0.0
  0
SPLINE
  5
28f
100
AcDbEntity
  8
Calque_1
 62
7
100
AcDbSpline
 70
8
 71
3
 72
8
 73
4
 74
0
 40
0
 40
0
 40
0
 40
0
 40
1
 40
1
 40
1
 40
1
 10
106.570820
 20
1004.298300
 30
0.0
 10
106.588820
 20
1004.308300
 30
0.0
 10
106.585820
 20
1004.308300
 30
0.0
 10
106.582820
 20
1004.308300
 30
0.0
  0
SPLINE
  5
290
100
AcDbEntity
  8
Calque_1
 62
7
100
AcDbSpline
 70
8
 71
3
 72
8
 73
4
 74
0
 40
0
 40
0
 40
0
 40
0
 40
1
 40
1
 40
1
 40
1
 10
106.582820
 20
1004.308300
 30
0.0
 10
106.628820
 20
1004.347300
 30
0.0
 10
106.770620
 20
1004.466000
 30
0.0
 10
106.976020
 20
1004.611700
 30
0.0
  0
SPLINE
  5
291
100
AcDbEntity
  8
Calque_1
 62
7
100
AcDbSpline
 70
8
 71
3
 72
8
 73
4
 74
0
 40
0
 40
0
 40
0
 40
0
 40
1
 40
1
 40
1
 40
1
 10
106.976020
 20
1004.611700
 30
0.0
 10
107.260220
 20
1004.813100
 30
0.0
 10
107.345020
 20
1004.867600
 30
0.0
 10
107.479920
 20
1004.960500
 30
0.0
  0
SPLINE
  5
292
100
AcDbEntity
  8
Calque_1
 62
7
100
AcDbSpline
 70
8
 71
3
 72
8
 73
4
 74
0
 40
0
 40
0
 40
0
 40
0
 40
1
 40
1
 40
1
 40
1
 10
107.479920
 20
1004.960500
 30
0.0
 10
107.489920
 20
1004.970500
 30
0.0
 10
107.510920
 20
1004.988500
 30
0.0
 10
107.523920
 20
1004.999500
 30
0.0
  0
SPLINE
  5
293
100
AcDbEntity
  8
Calque_1
 62
7
100
AcDbSpline
 70
8
 71
3
 72
8
 73
4
 74
0
 40
0
 40
0
 40
0
 40
0
 40
1
 40
1
 40
1
 40
1
 10
107.523920
 20
1004.999500
 30
0.0
 10
107.631220
 20
1005.085500
 30
0.0
 10
107.774520
 20
1005.198900
 30
0.0
 10
107.978620
 20
1005.358100
 30
0.0
  0
SPLINE
  5
294
100
AcDbEntity
  8
Calque_1
 62
7
100
AcDbSpline
 70
8
 71
3
 72
8
 73
4
 74
0
 40
0
 40
0
 40
0
 40
0
 40
1
 40
1
 40
1
 40
1
 10
107.978620
 20
1005.358100
 30
0.0
 10
108.362220
 20
1005.657200
 30
0.0
 10
108.511120
 20
1005.749700
 30
0.0
 10
108.410120
 20
1005.659900
 30
0.0
  0
SPLINE
  5
295
100
AcDbEntity
  8
Calque_1
 62
7
100
AcDbSpline
 70
8
 71
3
 72
8
 73
4
 74
0
 40
0
 40
0
 40
0
 40
0
 40
1
 40
1
 40
1
 40
1
 10
108.410120
 20
1005.659900
 30
0.0
 10
108.858420
 20
1006.058300
 30
0.0
 10
108.703920
 20
1005.857500
 30
0.0
 10
108.908320
 20
1006.245900
 30
0.0
  0
SPLINE
  5
296
100
AcDbEntity
  8
Calque_1
 62
7
100
AcDbSpline
 70
8
 71
3
 72
8
 73
4
 74
0
 40
0
 40
0
 40
0
 40
0
 40
1
 40
1
 40
1
 40
1
 10
108.908320
 20
1006.245900
 30
0.0
 10
109.045120
 20
1006.505800
 30
0.0
 10
109.206320
 20
1007.126800
 30
0.0
 10
109.489120
 20
1007.995100
 30
0.0
  0
SPLINE
  5
297
100
AcDbEntity
  8
Calque_1
 62
7
100
AcDbSpline
 70
8
 71
3
 72
8
 73
4
 74
0
 40
0
 40
0
 40
0
 40
0
 40
1
 40
1
 40
1
 40
1
 10
109.489120
 20
1007.995100
 30
0.0
 10
109.561120
 20
1008.216600
 30
0.0
 10
109.580120
 20
1008.291100
 30
0.0
 10
109.623020
 20
1008.438500
 30
0.0
  0
SPLINE
  5
298
100
AcDbEntity
  8
Calque_1
 62
7
100
AcDbSpline
 70
8
 71
3
 72
8
 73
4
 74
0
 40
0
 40
0
 40
0
 40
0
 40
1
 40
1
 40
1
 40
1
 10
109.623020
 20
1008.438500
 30
0.0
 10
109.334320
 20
1008.528500
 30
0.0
 10
108.989220
 20
1008.592400
 30
0.0
 10
108.472620
 20
1008.609600
 30
0.0
  0
SPLINE
  5
299
100
AcDbEntity
  8
Calque_1
 62
7
100
AcDbSpline
 70
8
 71
3
 72
8
 73
4
 74
0
 40
0
 40
0
 40
0
 40
0
 40
1
 40
1
 40
1
 40
1
 10
108.472620
 20
1008.609600
 30
0.0
 10
107.550220
 20
1008.640600
 30
0.0
 10
106.314020
 20
1008.294700
 30
0.0
 10
104.950420
 20
1007.826700
 30
0.0
  0
SPLINE
  5
29a
100
AcDbEntity
  8
Calque_1
 62
7
100
AcDbSpline
 70
8
 71
3
 72
8
 73
4
 74
0
 40
0
 40
0
 40
0
 40
0
 40
1
 40
1
 40
1
 40
1
 10
104.950420
 20
1007.826700
 30
0.0
 10
104.068920
 20
1007.524100
 30
0.0
 10
103.220020
 20
1007.067900
 30
0.0
 10
102.367620
 20
1006.507900
 30
0.0
  0
SPLINE
  5
29b
100
AcDbEntity
  8
Calque_1
 62
7
100
AcDbSpline
 70
8
 71
3
 72
8
 73
4
 74
0
 40
0
 40
0
 40
0
 40
0
 40
1
 40
1
 40
1
 40
1
 10
102.367620
 20
1006.507900
 30
0.0
 10
102.382620
 20
1005.500000
 30
0.0
 10
102.427620
 20
1004.446700
 30
0.0
 10
102.342620
 20
1003.271900
 30
0.0
  0
SPLINE
  5
29c
100
AcDbEntity
  8
Calque_1
 62
7
100
AcDbSpline
 70
8
 71
3
 72
8
 73
4
 74
0
 40
0
 40
0
 40
0
 40
0
 40
1
 40
1
 40
1
 40
1
 10
102.342620
 20
1003.271900
 30
0.0
 10
102.377620
 20
1003.756000
 30
0.0
 10
102.463220
 20
1003.548000
 30
0.0
 10
102.691920
 20
1002.341200
 30
0.0
  0
SPLINE
  5
29d
100
AcDbEntity
  8
Calque_1
 62
7
100
AcDbSpline
 70
8
 71
3
 72
8
 73
4
 74
0
 40
0
 40
0
 40
0
 40
0
 40
1
 40
1
 40
1
 40
1
 10
102.691920
 20
1002.341200
 30
0.0
 10
102.928720
 20
1001.089900
 30
0.0
 10
102.705920
 20
1000.380100
 30
0.0
 10
102.707920
 20
1000.312400
 30
0.0
  0
SPLINE
  5
29e
100
AcDbEntity
  8
Calque_1
 62
7
100
AcDbSpline
 70
8
 71
3
 72
8
 73
4
 74
0
 40
0
 40
0
 40
0
 40
0
 40
1
 40
1
 40
1
 40
1
 10
102.707920
 20
1000.312400
 30
0.0
 10
102.727920
 20
999.662900
 30
0.0
 10
102.885920
 20
998.796600
 30
0.0
 10
102.966820
 20
997.718300
 30
0.0
  0
SPLINE
  5
29f
100
AcDbEntity
  8
Calque_1
 62
7
100
AcDbSpline
 70
8
 71
3
 72
8
 73
4
 74
0
 40
0
 40
0
 40
0
 40
0
 40
1
 40
1
 40
1
 40
1
 10
102.966820
 20
997.718300
 30
0.0
 10
102.997820
 20
997.295300
 30
0.0
 10
102.992820
 20
996.909200
 30
0.0
 10
102.966820
 20
996.561700
 30
0.0
  0
LWPOLYLINE
  5
2a0
100
AcDbEntity
  8
Calque_1
 62
7
100
AcDbPolyline
 90
6
 70
0
 10
105.100320
 20
1001.210600
 30
0.0
 10
104.956120
 20
1001.895800
 30
0.0
 10
104.992120
 20
1002.481300
 30
0.0
 10
105.254120
 20
1003.208400
 30
0.0
 10
105.791520
 20
1003.865700
 30
0.0
 10
106.420520
 20
1004.254300
 30
0.0
  0
SPLINE
  5
2a1
100
AcDbEntity
  8
Calque_1
 62
7
100
AcDbSpline
 70
8
 71
3
 72
8
 73
4
 74
0
 40
0
 40
0
 40
0
 40
0
 40
1
 40
1
 40
1
 40
1
 10
102.966820
 20
996.551700
 30
0.0
 10
102.889820
 20
995.509300
 30
0.0
 10
102.625720
 20
994.815200
 30
0.0
 10
102.607720
 20
994.522400
 30
0.0
  0
SPLINE
  5
2a2
100
AcDbEntity
  8
Calque_1
 62
7
100
AcDbSpline
 70
8
 71
3
 72
8
 73
4
 74
0
 40
0
 40
0
 40
0
 40
0
 40
1
 40
1
 40
1
 40
1
 10
102.607720
 20
994.522400
 30
0.0
 10
102.435220
 20
991.712200
 30
0.0
 10
102.067220
 20
989.092300
 30
0.0
 10
102.351920
 20
986.877900
 30
0.0
  0
SPLINE
  5
2a3
100
AcDbEntity
  8
Calque_1
 62
7
100
AcDbSpline
 70
8
 71
3
 72
8
 73
4
 74
0
 40
0
 40
0
 40
0
 40
0
 40
1
 40
1
 40
1
 40
1
 10
102.351920
 20
986.877900
 30
0.0
 10
102.402920
 20
986.479400
 30
0.0
 10
102.968820
 20
985.326200
 30
0.0
 10
102.676420
 20
983.539100
 30
0.0
  0
SPLINE
  5
2a4
100
AcDbEntity
  8
Calque_1
 62
7
100
AcDbSpline
 70
8
 71
3
 72
8
 73
4
 74
0
 40
0
 40
0
 40
0
 40
0
 40
1
 40
1
 40
1
 40
1
 10
102.676420
 20
983.539100
 30
0.0
 10
102.489020
 20
982.393200
 30
0.0
 10
102.194920
 20
982.002200
 30
0.0
 10
102.229920
 20
982.180000
 30
0.0
  0
SPLINE
  5
2a5
100
AcDbEntity
  8
Calque_1
 62
7
100
AcDbSpline
 70
8
 71
3
 72
8
 73
4
 74
0
 40
0
 40
0
 40
0
 40
0
 40
1
 40
1
 40
1
 40
1
 10
102.229920
 20
982.180000
 30
0.0
 10
102.173920
 20
981.895500
 30
0.0
 10
102.216920
 20
981.353200
 30
0.0
 10
102.118820
 20
980.373900
 30
0.0
  0
SPLINE
  5
2a6
100
AcDbEntity
  8
Calque_1
 62
7
100
AcDbSpline
 70
8
 71
3
 72
8
 73
4
 74
0
 40
0
 40
0
 40
0
 40
0
 40
1
 40
1
 40
1
 40
1
 10
102.118820
 20
980.373900
 30
0.0
 10
102.059820
 20
979.787900
 30
0.0
 10
101.985020
 20
979.454400
 30
0.0
 10
101.952420
 20
979.338800
 30
0.0
  0
SPLINE
  5
2a7
100
AcDbEntity
  8
Calque_1
 62
7
100
AcDbSpline
 70
8
 71
3
 72
8
 73
4
 74
0
 40
0
 40
0
 40
0
 40
0
 40
1
 40
1
 40
1
 40
1
 10
101.952420
 20
979.338800
 30
0.0
 10
101.968420
 20
979.292800
 30
0.0
 10
101.980420
 20
979.033900
 30
0.0
 10
101.917420
 20
978.560600
 30
0.0
  0
SPLINE
  5
2a8
100
AcDbEntity
  8
Calque_1
 62
7
100
AcDbSpline
 70
8
 71
3
 72
8
 73
4
 74
0
 40
0
 40
0
 40
0
 40
0
 40
1
 40
1
 40
1
 40
1
 10
101.917420
 20
978.560600
 30
0.0
 10
101.799120
 20
977.666700
 30
0.0
 10
101.649320
 20
977.273300
 30
0.0
 10
101.645120
 20
977.203600
 30
0.0
  0
SPLINE
  5
2a9
100
AcDbEntity
  8
Calque_1
 62
7
100
AcDbSpline
 70
8
 71
3
 72
8
 73
4
 74
0
 40
0
 40
0
 40
0
 40
0
 40
1
 40
1
 40
1
 40
1
 10
101.645120
 20
977.203600
 30
0.0
 10
101.633120
 20
977.015200
 30
0.0
 10
101.698120
 20
976.546900
 30
0.0
 10
101.698120
 20
975.775800
 30
0.0
  0
SPLINE
  5
2aa
100
AcDbEntity
  8
Calque_1
 62
7
100
AcDbSpline
 70
8
 71
3
 72
8
 73
4
 74
0
 40
0
 40
0
 40
0
 40
0
 40
1
 40
1
 40
1
 40
1
 10
101.698120
 20
975.775800
 30
0.0
 10
101.698120
 20
974.772900
 30
0.0
 10
101.553420
 20
974.142800
 30
0.0
 10
101.553420
 20
973.851300
 30
0.0
  0
SPLINE
  5
2ab
100
AcDbEntity
  8
Calque_1
 62
7
100
AcDbSpline
 70
8
 71
3
 72
8
 73
4
 74
0
 40
0
 40
0
 40
0
 40
0
 40
1
 40
1
 40
1
 40
1
 10
101.553420
 20
973.851300
 30
0.0
 10
101.553420
 20
973.693000
 30
0.0
 10
101.616420
 20
973.421100
 30
0.0
 10
101.732220
 20
972.780100
 30
0.0
  0
SPLINE
  5
2ac
100
AcDbEntity
  8
Calque_1
 62
7
100
AcDbSpline
 70
8
 71
3
 72
8
 73
4
 74
0
 40
0
 40
0
 40
0
 40
0
 40
1
 40
1
 40
1
 40
1
 10
101.732220
 20
972.780100
 30
0.0
 10
101.928420
 20
971.690100
 30
0.0
 10
101.755220
 20
971.002800
 30
0.0
 10
101.743220
 20
970.746100
 30
0.0
  0
LWPOLYLINE
  5
2ad
100
AcDbEntity
  8
Calque_1
 62
7
100
AcDbPolyline
 90
2
 70
0
 10
102.966820
 20
996.561700
 30
0.0
 10
102.966820
 20
996.551700
 30
0.0
  0
SPLINE
  5
2ae
100
AcDbEntity
  8
Calque_1
 62
7
100
AcDbSpline
 70
8
 71
3
 72
8
 73
4
 74
0
 40
0
 40
0
 40
0
 40
0
 40
1
 40
1
 40
1
 40
1
 10
101.743220
 20
970.746100
 30
0.0
 10
101.692220
 20
969.676200
 30
0.0
 10
101.490520
 20
969.054300
 30
0.0
 10
101.478620
 20
968.816000
 30
0.0
  0
SPLINE
  5
2af
100
AcDbEntity
  8
Calque_1
 62
7
100
AcDbSpline
 70
8
 71
3
 72
8
 73
4
 74
0
 40
0
 40
0
 40
0
 40
0
 40
1
 40
1
 40
1
 40
1
 10
101.478620
 20
968.816000
 30
0.0
 10
101.428620
 20
967.814100
 30
0.0
 10
101.416620
 20
966.738200
 30
0.0
 10
101.301920
 20
965.552100
 30
0.0
  0
SPLINE
  5
2b0
100
AcDbEntity
  8
Calque_1
 62
7
100
AcDbSpline
 70
8
 71
3
 72
8
 73
4
 74
0
 40
0
 40
0
 40
0
 40
0
 40
1
 40
1
 40
1
 40
1
 10
101.301920
 20
965.552100
 30
0.0
 10
101.219920
 20
964.696400
 30
0.0
 10
101.015520
 20
964.187300
 30
0.0
 10
100.976320
 20
963.995100
 30
0.0
  0
SPLINE
  5
2b1
100
AcDbEntity
  8
Calque_1
 62
7
100
AcDbSpline
 70
8
 71
3
 72
8
 73
4
 74
0
 40
0
 40
0
 40
0
 40
0
 40
1
 40
1
 40
1
 40
1
 10
100.976320
 20
963.995100
 30
0.0
 10
100.924320
 20
963.739000
 30
0.0
 10
100.891320
 20
963.390500
 30
0.0
 10
100.844520
 20
962.924800
 30
0.0
  0
SPLINE
  5
2b2
100
AcDbEntity
  8
Calque_1
 62
7
100
AcDbSpline
 70
8
 71
3
 72
8
 73
4
 74
0
 40
0
 40
0
 40
0
 40
0
 40
1
 40
1
 40
1
 40
1
 10
100.844520
 20
962.924800
 30
0.0
 10
100.800520
 20
962.480000
 30
0.0
 10
100.779520
 20
962.560300
 30
0.0
 10
100.736020
 20
962.395200
 30
0.0
  0
SPLINE
  5
2b3
100
AcDbEntity
  8
Calque_1
 62
7
100
AcDbSpline
 70
8
 71
3
 72
8
 73
4
 74
0
 40
0
 40
0
 40
0
 40
0
 40
1
 40
1
 40
1
 40
1
 10
100.736020
 20
962.395200
 30
0.0
 10
100.837820
 20
962.382200
 30
0.0
 10
100.944820
 20
962.369200
 30
0.0
 10
100.996020
 20
962.366200
 30
0.0
  0
SPLINE
  5
2b4
100
AcDbEntity
  8
Calque_1
 62
7
100
AcDbSpline
 70
8
 71
3
 72
8
 73
4
 74
0
 40
0
 40
0
 40
0
 40
0
 40
1
 40
1
 40
1
 40
1
 10
100.996020
 20
962.366200
 30
0.0
 10
101.075020
 20
962.377200
 30
0.0
 10
101.130220
 20
962.385200
 30
0.0
 10
101.325720
 20
962.407200
 30
0.0
  0
SPLINE
  5
2b5
100
AcDbEntity
  8
Calque_1
 62
7
100
AcDbSpline
 70
8
 71
3
 72
8
 73
4
 74
0
 40
0
 40
0
 40
0
 40
0
 40
1
 40
1
 40
1
 40
1
 10
101.325720
 20
962.407200
 30
0.0
 10
101.512820
 20
962.428200
 30
0.0
 10
101.579720
 20
962.431200
 30
0.0
 10
101.657920
 20
962.435200
 30
0.0
  0
SPLINE
  5
2b6
100
AcDbEntity
  8
Calque_1
 62
7
100
AcDbSpline
 70
8
 71
3
 72
8
 73
4
 74
0
 40
0
 40
0
 40
0
 40
0
 40
1
 40
1
 40
1
 40
1
 10
101.657920
 20
962.435200
 30
0.0
 10
101.671920
 20
962.469200
 30
0.0
 10
102.427320
 20
962.974200
 30
0.0
 10
102.717320
 20
963.199400
 30
0.0
  0
SPLINE
  5
2b7
100
AcDbEntity
  8
Calque_1
 62
7
100
AcDbSpline
 70
8
 71
3
 72
8
 73
4
 74
0
 40
0
 40
0
 40
0
 40
0
 40
1
 40
1
 40
1
 40
1
 10
102.717320
 20
963.199400
 30
0.0
 10
102.615320
 20
963.297400
 30
0.0
 10
102.507520
 20
963.442600
 30
0.0
 10
102.393820
 20
963.627900
 30
0.0
  0
SPLINE
  5
2b8
100
AcDbEntity
  8
Calque_1
 62
7
100
AcDbSpline
 70
8
 71
3
 72
8
 73
4
 74
0
 40
0
 40
0
 40
0
 40
0
 40
1
 40
1
 40
1
 40
1
 10
102.393820
 20
963.627900
 30
0.0
 10
102.403820
 20
963.613900
 30
0.0
 10
102.439820
 20
963.582900
 30
0.0
 10
102.450820
 20
963.566900
 30
0.0
  0
SPLINE
  5
2b9
100
AcDbEntity
  8
Calque_1
 62
7
100
AcDbSpline
 70
8
 71
3
 72
8
 73
4
 74
0
 40
0
 40
0
 40
0
 40
0
 40
1
 40
1
 40
1
 40
1
 10
102.450820
 20
963.566900
 30
0.0
 10
102.422820
 20
963.603900
 30
0.0
 10
102.384820
 20
963.647900
 30
0.0
 10
102.364820
 20
963.676900
 30
0.0
  0
SPLINE
  5
2ba
100
AcDbEntity
  8
Calque_1
 62
7
100
AcDbSpline
 70
8
 71
3
 72
8
 73
4
 74
0
 40
0
 40
0
 40
0
 40
0
 40
1
 40
1
 40
1
 40
1
 10
102.364820
 20
963.676900
 30
0.0
 10
102.345820
 20
963.708900
 30
0.0
 10
102.326820
 20
963.738900
 30
0.0
 10
102.307820
 20
963.774900
 30
0.0
  0
SPLINE
  5
2bb
100
AcDbEntity
  8
Calque_1
 62
7
100
AcDbSpline
 70
8
 71
3
 72
8
 73
4
 74
0
 40
0
 40
0
 40
0
 40
0
 40
1
 40
1
 40
1
 40
1
 10
102.307820
 20
963.774900
 30
0.0
 10
102.317820
 20
963.756900
 30
0.0
 10
102.318820
 20
963.744900
 30
0.0
 10
102.329820
 20
963.722900
 30
0.0
  0
SPLINE
  5
2bc
100
AcDbEntity
  8
Calque_1
 62
7
100
AcDbSpline
 70
8
 71
3
 72
8
 73
4
 74
0
 40
0
 40
0
 40
0
 40
0
 40
1
 40
1
 40
1
 40
1
 10
102.329820
 20
963.722900
 30
0.0
 10
102.235820
 20
963.873900
 30
0.0
 10
102.195420
 20
963.935300
 30
0.0
 10
102.239820
 20
963.893500
 30
0.0
  0
SPLINE
  5
2bd
100
AcDbEntity
  8
Calque_1
 62
7
100
AcDbSpline
 70
8
 71
3
 72
8
 73
4
 74
0
 40
0
 40
0
 40
0
 40
0
 40
1
 40
1
 40
1
 40
1
 10
102.239820
 20
963.893500
 30
0.0
 10
102.226820
 20
963.920500
 30
0.0
 10
102.214820
 20
963.931500
 30
0.0
 10
102.201820
 20
963.959500
 30
0.0
  0
SPLINE
  5
2be
100
AcDbEntity
  8
Calque_1
 62
7
100
AcDbSpline
 70
8
 71
3
 72
8
 73
4
 74
0
 40
0
 40
0
 40
0
 40
0
 40
1
 40
1
 40
1
 40
1
 10
102.201820
 20
963.959500
 30
0.0
 10
101.981920
 20
964.431100
 30
0.0
 10
101.928120
 20
965.155700
 30
0.0
 10
102.074120
 20
965.652900
 30
0.0
  0
SPLINE
  5
2bf
100
AcDbEntity
  8
Calque_1
 62
7
100
AcDbSpline
 70
8
 71
3
 72
8
 73
4
 74
0
 40
0
 40
0
 40
0
 40
0
 40
1
 40
1
 40
1
 40
1
 10
102.074120
 20
965.652900
 30
0.0
 10
102.220220
 20
966.150100
 30
0.0
 10
102.446020
 20
966.419500
 30
0.0
 10
102.595120
 20
966.585100
 30
0.0
  0
LWPOLYLINE
  5
2c0
100
AcDbEntity
  8
Calque_1
 62
7
100
AcDbPolyline
 90
1
 70
1
 10
101.743220
 20
970.746100
 30
0.0
  0
SPLINE
  5
2c1
100
AcDbEntity
  8
Calque_1
 62
7
100
AcDbSpline
 70
8
 71
3
 72
8
 73
4
 74
0
 40
0
 40
0
 40
0
 40
0
 40
1
 40
1
 40
1
 40
1
 10
102.595120
 20
966.595100
 30
0.0
 10
102.862020
 20
966.890100
 30
0.0
 10
103.453720
 20
967.340400
 30
0.0
 10
104.245120
 20
967.385800
 30
0.0
  0
SPLINE
  5
2c2
100
AcDbEntity
  8
Calque_1
 62
7
100
AcDbSpline
 70
8
 71
3
 72
8
 73
4
 74
0
 40
0
 40
0
 40
0
 40
0
 40
1
 40
1
 40
1
 40
1
 10
104.245120
 20
967.385800
 30
0.0
 10
105.036420
 20
967.430800
 30
0.0
 10
105.657420
 20
967.060400
 30
0.0
 10
105.948320
 20
966.812200
 30
0.0
  0
SPLINE
  5
2c3
100
AcDbEntity
  8
Calque_1
 62
7
100
AcDbSpline
 70
8
 71
3
 72
8
 73
4
 74
0
 40
0
 40
0
 40
0
 40
0
 40
1
 40
1
 40
1
 40
1
 10
105.948320
 20
966.812200
 30
0.0
 10
106.072820
 20
966.705900
 30
0.0
 10
106.087720
 20
966.661500
 30
0.0
 10
106.163320
 20
966.581700
 30
0.0
  0
SPLINE
  5
2c4
100
AcDbEntity
  8
Calque_1
 62
7
100
AcDbSpline
 70
8
 71
3
 72
8
 73
4
 74
0
 40
0
 40
0
 40
0
 40
0
 40
1
 40
1
 40
1
 40
1
 10
106.163320
 20
966.581700
 30
0.0
 10
106.093320
 20
966.662700
 30
0.0
 10
106.085320
 20
966.681700
 30
0.0
 10
106.089320
 20
966.691800
 30
0.0
  0
SPLINE
  5
2c5
100
AcDbEntity
  8
Calque_1
 62
7
100
AcDbSpline
 70
8
 71
3
 72
8
 73
4
 74
0
 40
0
 40
0
 40
0
 40
0
 40
1
 40
1
 40
1
 40
1
 10
106.089320
 20
966.691800
 30
0.0
 10
106.041320
 20
966.741800
 30
0.0
 10
105.991320
 20
966.805700
 30
0.0
 10
105.947720
 20
966.841600
 30
0.0
  0
LWPOLYLINE
  5
2c6
100
AcDbEntity
  8
Calque_1
 62
7
100
AcDbPolyline
 90
2
 70
0
 10
102.595120
 20
966.585100
 30
0.0
 10
102.595120
 20
966.595100
 30
0.0
  0
SPLINE
  5
2c7
100
AcDbEntity
  8
Calque_1
 62
7
100
AcDbSpline
 70
8
 71
3
 72
8
 73
4
 74
0
 40
0
 40
0
 40
0
 40
0
 40
1
 40
1
 40
1
 40
1
 10
105.974720
 20
966.825600
 30
0.0
 10
106.126920
 20
966.723400
 30
0.0
 10
106.261720
 20
966.614200
 30
0.0
 10
106.339520
 20
966.550200
 30
0.0
  0
SPLINE
  5
2c8
100
AcDbEntity
  8
Calque_1
 62
7
100
AcDbSpline
 70
8
 71
3
 72
8
 73
4
 74
0
 40
0
 40
0
 40
0
 40
0
 40
1
 40
1
 40
1
 40
1
 10
106.339520
 20
966.550200
 30
0.0
 10
106.679420
 20
966.342300
 30
0.0
 10
107.141020
 20
966.136900
 30
0.0
 10
107.437720
 20
966.055100
 30
0.0
  0
SPLINE
  5
2c9
100
AcDbEntity
  8
Calque_1
 62
7
100
AcDbSpline
 70
8
 71
3
 72
8
 73
4
 74
0
 40
0
 40
0
 40
0
 40
0
 40
1
 40
1
 40
1
 40
1
 10
107.437720
 20
966.055100
 30
0.0
 10
107.747320
 20
965.970100
 30
0.0
 10
107.805020
 20
966.000100
 30
0.0
 10
108.435020
 20
965.875800
 30
0.0
  0
SPLINE
  5
2ca
100
AcDbEntity
  8
Calque_1
 62
7
100
AcDbSpline
 70
8
 71
3
 72
8
 73
4
 74
0
 40
0
 40
0
 40
0
 40
0
 40
1
 40
1
 40
1
 40
1
 10
108.435020
 20
965.875800
 30
0.0
 10
108.820120
 20
965.799800
 30
0.0
 10
108.958020
 20
965.759700
 30
0.0
 10
108.854120
 20
965.775100
 30
0.0
  0
SPLINE
  5
2cb
100
AcDbEntity
  8
Calque_1
 62
7
100
AcDbSpline
 70
8
 71
3
 72
8
 73
4
 74
0
 40
0
 40
0
 40
0
 40
0
 40
1
 40
1
 40
1
 40
1
 10
108.854120
 20
965.775100
 30
0.0
 10
109.574120
 20
965.668800
 30
0.0
 10
110.430020
 20
965.718100
 30
0.0
 10
111.375420
 20
965.863100
 30
0.0
  0
SPLINE
  5
2cc
100
AcDbEntity
  8
Calque_1
 62
7
100
AcDbSpline
 70
8
 71
3
 72
8
 73
4
 74
0
 40
0
 40
0
 40
0
 40
0
 40
1
 40
1
 40
1
 40
1
 10
111.375420
 20
965.863100
 30
0.0
 10
112.086420
 20
965.972500
 30
0.0
 10
111.897420
 20
965.906100
 30
0.0
 10
112.490120
 20
966.077000
 30
0.0
  0
SPLINE
  5
2cd
100
AcDbEntity
  8
Calque_1
 62
7
100
AcDbSpline
 70
8
 71
3
 72
8
 73
4
 74
0
 40
0
 40
0
 40
0
 40
0
 40
1
 40
1
 40
1
 40
1
 10
112.490120
 20
966.077000
 30
0.0
 10
112.708720
 20
966.140000
 30
0.0
 10
113.039520
 20
966.274000
 30
0.0
 10
113.494120
 20
966.442300
 30
0.0
  0
SPLINE
  5
2ce
100
AcDbEntity
  8
Calque_1
 62
7
100
AcDbSpline
 70
8
 71
3
 72
8
 73
4
 74
0
 40
0
 40
0
 40
0
 40
0
 40
1
 40
1
 40
1
 40
1
 10
113.494120
 20
966.442300
 30
0.0
 10
114.427320
 20
966.788000
 30
0.0
 10
114.917820
 20
967.032000
 30
0.0
 10
114.973120
 20
967.029400
 30
0.0
  0
SPLINE
  5
2cf
100
AcDbEntity
  8
Calque_1
 62
7
100
AcDbSpline
 70
8
 71
3
 72
8
 73
4
 74
0
 40
0
 40
0
 40
0
 40
0
 40
1
 40
1
 40
1
 40
1
 10
114.973120
 20
967.029400
 30
0.0
 10
114.951120
 20
967.130500
 30
0.0
 10
114.948120
 20
967.663300
 30
0.0
 10
114.819620
 20
967.902700
 30
0.0
  0
SPLINE
  5
2d0
100
AcDbEntity
  8
Calque_1
 62
7
100
AcDbSpline
 70
8
 71
3
 72
8
 73
4
 74
0
 40
0
 40
0
 40
0
 40
0
 40
1
 40
1
 40
1
 40
1
 10
114.819620
 20
967.902700
 30
0.0
 10
114.766620
 20
968.001700
 30
0.0
 10
114.749620
 20
968.024700
 30
0.0
 10
114.424820
 20
968.345600
 30
0.0
  0
SPLINE
  5
2d1
100
AcDbEntity
  8
Calque_1
 62
7
100
AcDbSpline
 70
8
 71
3
 72
8
 73
4
 74
0
 40
0
 40
0
 40
0
 40
0
 40
1
 40
1
 40
1
 40
1
 10
114.424820
 20
968.345600
 30
0.0
 10
114.232420
 20
968.535900
 30
0.0
 10
114.318920
 20
968.447200
 30
0.0
 10
114.160820
 20
968.529000
 30
0.0
  0
SPLINE
  5
2d2
100
AcDbEntity
  8
Calque_1
 62
7
100
AcDbSpline
 70
8
 71
3
 72
8
 73
4
 74
0
 40
0
 40
0
 40
0
 40
0
 40
1
 40
1
 40
1
 40
1
 10
114.160820
 20
968.529000
 30
0.0
 10
114.160820
 20
968.529000
 30
0.0
 10
114.178820
 20
968.514000
 30
0.0
 10
114.004220
 20
968.586000
 30
0.0
  0
LWPOLYLINE
  5
2d3
100
AcDbEntity
  8
Calque_1
 62
7
100
AcDbPolyline
 90
2
 70
0
 10
105.947720
 20
966.841600
 30
0.0
 10
105.974720
 20
966.825600
 30
0.0
  0
SPLINE
  5
2d4
100
AcDbEntity
  8
Calque_1
 62
7
100
AcDbSpline
 70
8
 71
3
 72
8
 73
4
 74
0
 40
0
 40
0
 40
0
 40
0
 40
1
 40
1
 40
1
 40
1
 10
113.984220
 20
968.597000
 30
0.0
 10
113.921220
 20
968.624000
 30
0.0
 10
113.910220
 20
968.613000
 30
0.0
 10
113.833820
 20
968.650000
 30
0.0
  0
SPLINE
  5
2d5
100
AcDbEntity
  8
Calque_1
 62
7
100
AcDbSpline
 70
8
 71
3
 72
8
 73
4
 74
0
 40
0
 40
0
 40
0
 40
0
 40
1
 40
1
 40
1
 40
1
 10
113.833820
 20
968.650000
 30
0.0
 10
113.773820
 20
968.678000
 30
0.0
 10
113.681420
 20
968.766500
 30
0.0
 10
113.608020
 20
968.811800
 30
0.0
  0
SPLINE
  5
2d6
100
AcDbEntity
  8
Calque_1
 62
7
100
AcDbSpline
 70
8
 71
3
 72
8
 73
4
 74
0
 40
0
 40
0
 40
0
 40
0
 40
1
 40
1
 40
1
 40
1
 10
113.608020
 20
968.811800
 30
0.0
 10
113.217020
 20
969.036900
 30
0.0
 10
113.067820
 20
969.184300
 30
0.0
 10
113.138220
 20
969.163700
 30
0.0
  0
SPLINE
  5
2d7
100
AcDbEntity
  8
Calque_1
 62
7
100
AcDbSpline
 70
8
 71
3
 72
8
 73
4
 74
0
 40
0
 40
0
 40
0
 40
0
 40
1
 40
1
 40
1
 40
1
 10
113.138220
 20
969.163700
 30
0.0
 10
112.910520
 20
969.398100
 30
0.0
 10
112.694920
 20
969.703800
 30
0.0
 10
112.568820
 20
970.101600
 30
0.0
  0
SPLINE
  5
2d8
100
AcDbEntity
  8
Calque_1
 62
7
100
AcDbSpline
 70
8
 71
3
 72
8
 73
4
 74
0
 40
0
 40
0
 40
0
 40
0
 40
1
 40
1
 40
1
 40
1
 10
112.568820
 20
970.101600
 30
0.0
 10
112.305020
 20
970.933700
 30
0.0
 10
112.568820
 20
971.667100
 30
0.0
 10
112.762020
 20
972.009500
 30
0.0
  0
SPLINE
  5
2d9
100
AcDbEntity
  8
Calque_1
 62
7
100
AcDbSpline
 70
8
 71
3
 72
8
 73
4
 74
0
 40
0
 40
0
 40
0
 40
0
 40
1
 40
1
 40
1
 40
1
 10
112.762020
 20
972.009500
 30
0.0
 10
112.957820
 20
972.361900
 30
0.0
 10
113.427320
 20
972.905800
 30
0.0
 10
114.127320
 20
973.132000
 30
0.0
  0
SPLINE
  5
2da
100
AcDbEntity
  8
Calque_1
 62
7
100
AcDbSpline
 70
8
 71
3
 72
8
 73
4
 74
0
 40
0
 40
0
 40
0
 40
0
 40
1
 40
1
 40
1
 40
1
 10
114.127320
 20
973.132000
 30
0.0
 10
114.450720
 20
973.236400
 30
0.0
 10
114.755120
 20
973.245300
 30
0.0
 10
115.030120
 20
973.225000
 30
0.0
  0
SPLINE
  5
2db
100
AcDbEntity
  8
Calque_1
 62
7
100
AcDbSpline
 70
8
 71
3
 72
8
 73
4
 74
0
 40
0
 40
0
 40
0
 40
0
 40
1
 40
1
 40
1
 40
1
 10
115.030120
 20
973.225000
 30
0.0
 10
114.986120
 20
973.266000
 30
0.0
 10
115.198220
 20
973.265000
 30
0.0
 10
115.717420
 20
973.079700
 30
0.0
  0
SPLINE
  5
2dc
100
AcDbEntity
  8
Calque_1
 62
7
100
AcDbSpline
 70
8
 71
3
 72
8
 73
4
 74
0
 40
0
 40
0
 40
0
 40
0
 40
1
 40
1
 40
1
 40
1
 10
115.717420
 20
973.079700
 30
0.0
 10
115.742420
 20
973.069700
 30
0.0
 10
115.788420
 20
973.065700
 30
0.0
 10
115.810420
 20
973.056700
 30
0.0
  0
SPLINE
  5
2dd
100
AcDbEntity
  8
Calque_1
 62
7
100
AcDbSpline
 70
8
 71
3
 72
8
 73
4
 74
0
 40
0
 40
0
 40
0
 40
0
 40
1
 40
1
 40
1
 40
1
 10
115.810420
 20
973.056700
 30
0.0
 10
115.824420
 20
973.046700
 30
0.0
 10
115.822420
 20
973.046700
 30
0.0
 10
115.835420
 20
973.042700
 30
0.0
  0
SPLINE
  5
2de
100
AcDbEntity
  8
Calque_1
 62
7
100
AcDbSpline
 70
8
 71
3
 72
8
 73
4
 74
0
 40
0
 40
0
 40
0
 40
0
 40
1
 40
1
 40
1
 40
1
 10
115.835420
 20
973.042700
 30
0.0
 10
115.919420
 20
973.009700
 30
0.0
 10
115.911420
 20
973.032700
 30
0.0
 10
116.014720
 20
972.986700
 30
0.0
  0
SPLINE
  5
2df
100
AcDbEntity
  8
Calque_1
 62
7
100
AcDbSpline
 70
8
 71
3
 72
8
 73
4
 74
0
 40
0
 40
0
 40
0
 40
0
 40
1
 40
1
 40
1
 40
1
 10
116.014720
 20
972.986700
 30
0.0
 10
116.070720
 20
972.961700
 30
0.0
 10
116.061720
 20
972.958700
 30
0.0
 10
116.108720
 20
972.935700
 30
0.0
  0
SPLINE
  5
2e0
100
AcDbEntity
  8
Calque_1
 62
7
100
AcDbSpline
 70
8
 71
3
 72
8
 73
4
 74
0
 40
0
 40
0
 40
0
 40
0
 40
1
 40
1
 40
1
 40
1
 10
116.108720
 20
972.935700
 30
0.0
 10
116.274520
 20
972.861700
 30
0.0
 10
116.029720
 20
972.922700
 30
0.0
 10
116.710220
 20
972.747600
 30
0.0
  0
SPLINE
  5
2e1
100
AcDbEntity
  8
Calque_1
 62
7
100
AcDbSpline
 70
8
 71
3
 72
8
 73
4
 74
0
 40
0
 40
0
 40
0
 40
0
 40
1
 40
1
 40
1
 40
1
 10
116.710220
 20
972.747600
 30
0.0
 10
117.507620
 20
972.542400
 30
0.0
 10
118.238320
 20
972.374400
 30
0.0
 10
118.935420
 20
972.281500
 30
0.0
  0
SPLINE
  5
2e2
100
AcDbEntity
  8
Calque_1
 62
7
100
AcDbSpline
 70
8
 71
3
 72
8
 73
4
 74
0
 40
0
 40
0
 40
0
 40
0
 40
1
 40
1
 40
1
 40
1
 10
118.935420
 20
972.281500
 30
0.0
 10
120.289020
 20
972.101100
 30
0.0
 10
121.468120
 20
971.998800
 30
0.0
 10
122.525420
 20
972.133200
 30
0.0
  0
SPLINE
  5
2e3
100
AcDbEntity
  8
Calque_1
 62
7
100
AcDbSpline
 70
8
 71
3
 72
8
 73
4
 74
0
 40
0
 40
0
 40
0
 40
0
 40
1
 40
1
 40
1
 40
1
 10
122.525420
 20
972.133200
 30
0.0
 10
122.982320
 20
972.191200
 30
0.0
 10
123.610320
 20
972.385800
 30
0.0
 10
124.248320
 20
972.645800
 30
0.0
  0
SPLINE
  5
2e4
100
AcDbEntity
  8
Calque_1
 62
7
100
AcDbSpline
 70
8
 71
3
 72
8
 73
4
 74
0
 40
0
 40
0
 40
0
 40
0
 40
1
 40
1
 40
1
 40
1
 10
124.248320
 20
972.645800
 30
0.0
 10
124.424320
 20
972.717800
 30
0.0
 10
124.511720
 20
972.758100
 30
0.0
 10
124.529920
 20
972.764200
 30
0.0
  0
SPLINE
  5
2e5
100
AcDbEntity
  8
Calque_1
 62
7
100
AcDbSpline
 70
8
 71
3
 72
8
 73
4
 74
0
 40
0
 40
0
 40
0
 40
0
 40
1
 40
1
 40
1
 40
1
 10
124.529920
 20
972.764200
 30
0.0
 10
124.642820
 20
972.853200
 30
0.0
 10
124.840220
 20
973.133900
 30
0.0
 10
125.223920
 20
973.920200
 30
0.0
  0
SPLINE
  5
2e6
100
AcDbEntity
  8
Calque_1
 62
7
100
AcDbSpline
 70
8
 71
3
 72
8
 73
4
 74
0
 40
0
 40
0
 40
0
 40
0
 40
1
 40
1
 40
1
 40
1
 10
125.223920
 20
973.920200
 30
0.0
 10
125.374520
 20
974.228400
 30
0.0
 10
125.448320
 20
974.360300
 30
0.0
 10
125.467820
 20
974.398700
 30
0.0
  0
SPLINE
  5
2e7
100
AcDbEntity
  8
Calque_1
 62
7
100
AcDbSpline
 70
8
 71
3
 72
8
 73
4
 74
0
 40
0
 40
0
 40
0
 40
0
 40
1
 40
1
 40
1
 40
1
 10
125.467820
 20
974.398700
 30
0.0
 10
125.467820
 20
974.418700
 30
0.0
 10
125.457820
 20
974.410700
 30
0.0
 10
125.457820
 20
974.439700
 30
0.0
  0
SPLINE
  5
2e8
100
AcDbEntity
  8
Calque_1
 62
7
100
AcDbSpline
 70
8
 71
3
 72
8
 73
4
 74
0
 40
0
 40
0
 40
0
 40
0
 40
1
 40
1
 40
1
 40
1
 10
125.457820
 20
974.439700
 30
0.0
 10
125.457820
 20
974.486700
 30
0.0
 10
125.457820
 20
974.472700
 30
0.0
 10
125.447820
 20
974.507700
 30
0.0
  0
SPLINE
  5
2e9
100
AcDbEntity
  8
Calque_1
 62
7
100
AcDbSpline
 70
8
 71
3
 72
8
 73
4
 74
0
 40
0
 40
0
 40
0
 40
0
 40
1
 40
1
 40
1
 40
1
 10
125.447820
 20
974.507700
 30
0.0
 10
125.385820
 20
974.643200
 30
0.0
 10
125.264620
 20
974.867400
 30
0.0
 10
124.987920
 20
975.212600
 30
0.0
  0
SPLINE
  5
2ea
100
AcDbEntity
  8
Calque_1
 62
7
100
AcDbSpline
 70
8
 71
3
 72
8
 73
4
 74
0
 40
0
 40
0
 40
0
 40
0
 40
1
 40
1
 40
1
 40
1
 10
124.987920
 20
975.212600
 30
0.0
 10
124.286920
 20
976.087200
 30
0.0
 10
123.444820
 20
976.620000
 30
0.0
 10
122.354020
 20
977.079600
 30
0.0
  0
SPLINE
  5
2eb
100
AcDbEntity
  8
Calque_1
 62
7
100
AcDbSpline
 70
8
 71
3
 72
8
 73
4
 74
0
 40
0
 40
0
 40
0
 40
0
 40
1
 40
1
 40
1
 40
1
 10
122.354020
 20
977.079600
 30
0.0
 10
121.406420
 20
976.965200
 30
0.0
 10
120.310120
 20
976.919900
 30
0.0
 10
118.965520
 20
977.463100
 30
0.0
  0
SPLINE
  5
2ec
100
AcDbEntity
  8
Calque_1
 62
7
100
AcDbSpline
 70
8
 71
3
 72
8
 73
4
 74
0
 40
0
 40
0
 40
0
 40
0
 40
1
 40
1
 40
1
 40
1
 10
118.965520
 20
977.463100
 30
0.0
 10
118.673520
 20
977.581000
 30
0.0
 10
118.119020
 20
977.733100
 30
0.0
 10
117.655020
 20
978.659400
 30
0.0
  0
SPLINE
  5
2ed
100
AcDbEntity
  8
Calque_1
 62
7
100
AcDbSpline
 70
8
 71
3
 72
8
 73
4
 74
0
 40
0
 40
0
 40
0
 40
0
 40
1
 40
1
 40
1
 40
1
 10
117.655020
 20
978.659400
 30
0.0
 10
117.191120
 20
979.585700
 30
0.0
 10
117.621020
 20
980.914000
 30
0.0
 10
117.985820
 20
981.340900
 30
0.0
  0
SPLINE
  5
2ee
100
AcDbEntity
  8
Calque_1
 62
7
100
AcDbSpline
 70
8
 71
3
 72
8
 73
4
 74
0
 40
0
 40
0
 40
0
 40
0
 40
1
 40
1
 40
1
 40
1
 10
117.985820
 20
981.340900
 30
0.0
 10
118.714320
 20
982.194500
 30
0.0
 10
118.953120
 20
982.057900
 30
0.0
 10
119.191920
 20
982.142400
 30
0.0
  0
SPLINE
  5
2ef
100
AcDbEntity
  8
Calque_1
 62
7
100
AcDbSpline
 70
8
 71
3
 72
8
 73
4
 74
0
 40
0
 40
0
 40
0
 40
0
 40
1
 40
1
 40
1
 40
1
 10
119.191920
 20
982.142400
 30
0.0
 10
119.669520
 20
982.311300
 30
0.0
 10
119.895520
 20
982.379100
 30
0.0
 10
120.511720
 20
982.388900
 30
0.0
  0
SPLINE
  5
2f0
100
AcDbEntity
  8
Calque_1
 62
7
100
AcDbSpline
 70
8
 71
3
 72
8
 73
4
 74
0
 40
0
 40
0
 40
0
 40
0
 40
1
 40
1
 40
1
 40
1
 10
120.511720
 20
982.388900
 30
0.0
 10
121.432020
 20
982.402900
 30
0.0
 10
122.231920
 20
982.213300
 30
0.0
 10
122.958120
 20
981.986300
 30
0.0
  0
LWPOLYLINE
  5
2f1
100
AcDbEntity
  8
Calque_1
 62
7
100
AcDbPolyline
 90
2
 70
0
 10
114.004220
 20
968.586000
 30
0.0
 10
113.984220
 20
968.597000
 30
0.0
  0
SPLINE
  5
2f2
100
AcDbEntity
  8
Calque_1
 62
7
100
AcDbSpline
 70
8
 71
3
 72
8
 73
4
 74
0
 40
0
 40
0
 40
0
 40
0
 40
1
 40
1
 40
1
 40
1
 10
122.968120
 20
981.986300
 30
0.0
 10
124.051220
 20
982.133100
 30
0.0
 10
125.183420
 20
982.411400
 30
0.0
 10
126.015420
 20
982.820900
 30
0.0
  0
SPLINE
  5
2f3
100
AcDbEntity
  8
Calque_1
 62
7
100
AcDbSpline
 70
8
 71
3
 72
8
 73
4
 74
0
 40
0
 40
0
 40
0
 40
0
 40
1
 40
1
 40
1
 40
1
 10
126.015420
 20
982.820900
 30
0.0
 10
126.847420
 20
983.230400
 30
0.0
 10
127.324220
 20
983.678600
 30
0.0
 10
127.585920
 20
984.302500
 30
0.0
  0
SPLINE
  5
2f4
100
AcDbEntity
  8
Calque_1
 62
7
100
AcDbSpline
 70
8
 71
3
 72
8
 73
4
 74
0
 40
0
 40
0
 40
0
 40
0
 40
1
 40
1
 40
1
 40
1
 10
127.585920
 20
984.302500
 30
0.0
 10
127.761320
 20
984.720400
 30
0.0
 10
127.751420
 20
985.067700
 30
0.0
 10
127.784820
 20
984.894100
 30
0.0
  0
LWPOLYLINE
  5
2f5
100
AcDbEntity
  8
Calque_1
 62
7
100
AcDbPolyline
 90
2
 70
0
 10
122.958120
 20
981.986300
 30
0.0
 10
122.968120
 20
981.986300
 30
0.0
  0
LWPOLYLINE
  5
2f6
100
AcDbEntity
  8
Calque_1
 62
7
100
AcDbPolyline
 90
2
 70
0
 10
127.784820
 20
984.894100
 30
0.0
 10
127.795920
 20
984.887800
 30
0.0
  0
SPLINE
  5
2f7
100
AcDbEntity
  8
Calque_1
 62
7
100
AcDbSpline
 70
8
 71
3
 72
8
 73
4
 74
0
 40
0
 40
0
 40
0
 40
0
 40
1
 40
1
 40
1
 40
1
 10
62.371840
 20
1045.675800
 30
0.0
 10
61.798660
 20
1045.950800
 30
0.0
 10
61.172990
 20
1046.203700
 30
0.0
 10
60.500330
 20
1046.443500
 30
0.0
  0
SPLINE
  5
2f8
100
AcDbEntity
  8
Calque_1
 62
7
100
AcDbSpline
 70
8
 71
3
 72
8
 73
4
 74
0
 40
0
 40
0
 40
0
 40
0
 40
1
 40
1
 40
1
 40
1
 10
60.500330
 20
1046.443500
 30
0.0
 10
57.842710
 20
1047.390600
 30
0.0
 10
55.359890
 20
1048.157400
 30
0.0
 10
52.759340
 20
1048.490200
 30
0.0
  0
SPLINE
  5
2f9
100
AcDbEntity
  8
Calque_1
 62
7
100
AcDbSpline
 70
8
 71
3
 72
8
 73
4
 74
0
 40
0
 40
0
 40
0
 40
0
 40
1
 40
1
 40
1
 40
1
 10
52.759340
 20
1048.490200
 30
0.0
 10
51.970440
 20
1048.591000
 30
0.0
 10
50.439850
 20
1048.603800
 30
0.0
 10
49.387450
 20
1048.589200
 30
0.0
  0
SPLINE
  5
2fa
100
AcDbEntity
  8
Calque_1
 62
7
100
AcDbSpline
 70
8
 71
3
 72
8
 73
4
 74
0
 40
0
 40
0
 40
0
 40
0
 40
1
 40
1
 40
1
 40
1
 10
49.387450
 20
1048.589200
 30
0.0
 10
48.008210
 20
1048.569200
 30
0.0
 10
46.929080
 20
1048.563200
 30
0.0
 10
45.775220
 20
1048.394800
 30
0.0
  0
SPLINE
  5
2fb
100
AcDbEntity
  8
Calque_1
 62
7
100
AcDbSpline
 70
8
 71
3
 72
8
 73
4
 74
0
 40
0
 40
0
 40
0
 40
0
 40
1
 40
1
 40
1
 40
1
 10
45.775220
 20
1048.394800
 30
0.0
 10
45.230460
 20
1048.315800
 30
0.0
 10
44.988320
 20
1048.259700
 30
0.0
 10
44.724920
 20
1048.194700
 30
0.0
  0
SPLINE
  5
2fc
100
AcDbEntity
  8
Calque_1
 62
7
100
AcDbSpline
 70
8
 71
3
 72
8
 73
4
 74
0
 40
0
 40
0
 40
0
 40
0
 40
1
 40
1
 40
1
 40
1
 10
44.724920
 20
1048.194700
 30
0.0
 10
44.810720
 20
1048.219700
 30
0.0
 10
44.249110
 20
1048.030600
 30
0.0
 10
43.776290
 20
1047.879300
 30
0.0
  0
SPLINE
  5
2fd
100
AcDbEntity
  8
Calque_1
 62
7
100
AcDbSpline
 70
8
 71
3
 72
8
 73
4
 74
0
 40
0
 40
0
 40
0
 40
0
 40
1
 40
1
 40
1
 40
1
 10
43.776290
 20
1047.879300
 30
0.0
 10
43.529960
 20
1047.800300
 30
0.0
 10
43.281720
 20
1047.723900
 30
0.0
 10
43.028700
 20
1047.657900
 30
0.0
  0
SPLINE
  5
2fe
100
AcDbEntity
  8
Calque_1
 62
7
100
AcDbSpline
 70
8
 71
3
 72
8
 73
4
 74
0
 40
0
 40
0
 40
0
 40
0
 40
1
 40
1
 40
1
 40
1
 10
43.028700
 20
1047.657900
 30
0.0
 10
42.902190
 20
1047.624900
 30
0.0
 10
42.779970
 20
1047.593900
 30
0.0
 10
42.603870
 20
1047.564900
 30
0.0
  0
SPLINE
  5
2ff
100
AcDbEntity
  8
Calque_1
 62
7
100
AcDbSpline
 70
8
 71
3
 72
8
 73
4
 74
0
 40
0
 40
0
 40
0
 40
0
 40
1
 40
1
 40
1
 40
1
 10
42.603870
 20
1047.564900
 30
0.0
 10
42.427680
 20
1047.535900
 30
0.0
 10
42.501410
 20
1047.205000
 30
0.0
 10
41.289080
 20
1047.693200
 30
0.0
  0
SPLINE
  5
300
100
AcDbEntity
  8
Calque_1
 62
7
100
AcDbSpline
 70
8
 71
3
 72
8
 73
4
 74
0
 40
0
 40
0
 40
0
 40
0
 40
1
 40
1
 40
1
 40
1
 10
41.289080
 20
1047.693200
 30
0.0
 10
41.034270
 20
1047.796200
 30
0.0
 10
40.422760
 20
1047.868200
 30
0.0
 10
39.925900
 20
1049.080000
 30
0.0
  0
SPLINE
  5
301
100
AcDbEntity
  8
Calque_1
 62
7
100
AcDbSpline
 70
8
 71
3
 72
8
 73
4
 74
0
 40
0
 40
0
 40
0
 40
0
 40
1
 40
1
 40
1
 40
1
 10
39.925900
 20
1049.080000
 30
0.0
 10
39.677470
 20
1049.685700
 30
0.0
 10
39.689940
 20
1050.551600
 30
0.0
 10
39.883000
 20
1051.088100
 30
0.0
  0
SPLINE
  5
302
100
AcDbEntity
  8
Calque_1
 62
7
100
AcDbSpline
 70
8
 71
3
 72
8
 73
4
 74
0
 40
0
 40
0
 40
0
 40
0
 40
1
 40
1
 40
1
 40
1
 10
39.883000
 20
1051.088100
 30
0.0
 10
40.075660
 20
1051.624500
 30
0.0
 10
40.324690
 20
1051.891100
 30
0.0
 10
40.499090
 20
1052.064700
 30
0.0
  0
SPLINE
  5
303
100
AcDbEntity
  8
Calque_1
 62
7
100
AcDbSpline
 70
8
 71
3
 72
8
 73
4
 74
0
 40
0
 40
0
 40
0
 40
0
 40
1
 40
1
 40
1
 40
1
 10
40.499090
 20
1052.064700
 30
0.0
 10
41.196790
 20
1052.758900
 30
0.0
 10
41.274020
 20
1052.587700
 30
0.0
 10
41.396740
 20
1052.631600
 30
0.0
  0
SPLINE
  5
304
100
AcDbEntity
  8
Calque_1
 62
7
100
AcDbSpline
 70
8
 71
3
 72
8
 73
4
 74
0
 40
0
 40
0
 40
0
 40
0
 40
1
 40
1
 40
1
 40
1
 10
41.396740
 20
1052.631600
 30
0.0
 10
41.642170
 20
1052.719600
 30
0.0
 10
41.708420
 20
1052.724600
 30
0.0
 10
41.793730
 20
1052.743700
 30
0.0
  0
SPLINE
  5
305
100
AcDbEntity
  8
Calque_1
 62
7
100
AcDbSpline
 70
8
 71
3
 72
8
 73
4
 74
0
 40
0
 40
0
 40
0
 40
0
 40
1
 40
1
 40
1
 40
1
 10
41.793730
 20
1052.743700
 30
0.0
 10
41.862530
 20
1052.758700
 30
0.0
 10
41.910860
 20
1052.768700
 30
0.0
 10
41.953560
 20
1052.777700
 30
0.0
  0
LWPOLYLINE
  5
306
100
AcDbEntity
  8
Calque_1
 62
7
100
AcDbPolyline
 90
1
 70
1
 10
62.371840
 20
1045.675800
 30
0.0
  0
SPLINE
  5
307
100
AcDbEntity
  8
Calque_1
 62
7
100
AcDbSpline
 70
8
 71
3
 72
8
 73
4
 74
0
 40
0
 40
0
 40
0
 40
0
 40
1
 40
1
 40
1
 40
1
 10
41.994460
 20
1052.788700
 30
0.0
 10
42.012460
 20
1052.788700
 30
0.0
 10
41.937560
 20
1052.772700
 30
0.0
 10
41.952560
 20
1052.776700
 30
0.0
  0
SPLINE
  5
308
100
AcDbEntity
  8
Calque_1
 62
7
100
AcDbSpline
 70
8
 71
3
 72
8
 73
4
 74
0
 40
0
 40
0
 40
0
 40
0
 40
1
 40
1
 40
1
 40
1
 10
41.952560
 20
1052.776700
 30
0.0
 10
41.936560
 20
1052.750700
 30
0.0
 10
41.907660
 20
1052.721700
 30
0.0
 10
41.890760
 20
1052.715700
 30
0.0
  0
LWPOLYLINE
  5
309
100
AcDbEntity
  8
Calque_1
 62
7
100
AcDbPolyline
 90
4
 70
0
 10
41.953560
 20
1052.777700
 30
0.0
 10
41.953560
 20
1052.777700
 30
0.0
 10
41.978460
 20
1052.788700
 30
0.0
 10
41.994460
 20
1052.788700
 30
0.0
  0
SPLINE
  5
30a
100
AcDbEntity
  8
Calque_1
 62
7
100
AcDbSpline
 70
8
 71
3
 72
8
 73
4
 74
0
 40
0
 40
0
 40
0
 40
0
 40
1
 40
1
 40
1
 40
1
 10
41.914660
 20
1052.715700
 30
0.0
 10
41.960560
 20
1052.727700
 30
0.0
 10
42.064620
 20
1052.761700
 30
0.0
 10
42.140440
 20
1052.782700
 30
0.0
  0
LWPOLYLINE
  5
30b
100
AcDbEntity
  8
Calque_1
 62
7
100
AcDbPolyline
 90
2
 70
0
 10
41.890760
 20
1052.715700
 30
0.0
 10
41.914660
 20
1052.715700
 30
0.0
  0
SPLINE
  5
30c
100
AcDbEntity
  8
Calque_1
 62
7
100
AcDbSpline
 70
8
 71
3
 72
8
 73
4
 74
0
 40
0
 40
0
 40
0
 40
0
 40
1
 40
1
 40
1
 40
1
 10
42.060640
 20
1052.803700
 30
0.0
 10
42.617860
 20
1052.973000
 30
0.0
 10
43.067130
 20
1053.112700
 30
0.0
 10
43.503840
 20
1053.226600
 30
0.0
  0
SPLINE
  5
30d
100
AcDbEntity
  8
Calque_1
 62
7
100
AcDbSpline
 70
8
 71
3
 72
8
 73
4
 74
0
 40
0
 40
0
 40
0
 40
0
 40
1
 40
1
 40
1
 40
1
 10
43.503840
 20
1053.226600
 30
0.0
 10
45.629170
 20
1053.880400
 30
0.0
 10
47.280990
 20
1054.410900
 30
0.0
 10
48.803510
 20
1055.494200
 30
0.0
  0
SPLINE
  5
30e
100
AcDbEntity
  8
Calque_1
 62
7
100
AcDbSpline
 70
8
 71
3
 72
8
 73
4
 74
0
 40
0
 40
0
 40
0
 40
0
 40
1
 40
1
 40
1
 40
1
 10
48.803510
 20
1055.494200
 30
0.0
 10
49.161190
 20
1055.748700
 30
0.0
 10
49.404230
 20
1056.074200
 30
0.0
 10
49.473280
 20
1056.119000
 30
0.0
  0
SPLINE
  5
30f
100
AcDbEntity
  8
Calque_1
 62
7
100
AcDbSpline
 70
8
 71
3
 72
8
 73
4
 74
0
 40
0
 40
0
 40
0
 40
0
 40
1
 40
1
 40
1
 40
1
 10
49.473280
 20
1056.119000
 30
0.0
 10
49.459280
 20
1056.119500
 30
0.0
 10
49.492280
 20
1056.341200
 30
0.0
 10
49.432380
 20
1056.674200
 30
0.0
  0
LWPOLYLINE
  5
310
100
AcDbEntity
  8
Calque_1
 62
7
100
AcDbPolyline
 90
2
 70
0
 10
42.140440
 20
1052.782700
 30
0.0
 10
42.060640
 20
1052.803700
 30
0.0
  0
SPLINE
  5
311
100
AcDbEntity
  8
Calque_1
 62
7
100
AcDbSpline
 70
8
 71
3
 72
8
 73
4
 74
0
 40
0
 40
0
 40
0
 40
0
 40
1
 40
1
 40
1
 40
1
 10
49.432380
 20
1056.674800
 30
0.0
 10
49.432380
 20
1056.663800
 30
0.0
 10
49.259180
 20
1056.948300
 30
0.0
 10
49.210690
 20
1056.979000
 30
0.0
  0
SPLINE
  5
312
100
AcDbEntity
  8
Calque_1
 62
7
100
AcDbSpline
 70
8
 71
3
 72
8
 73
4
 74
0
 40
0
 40
0
 40
0
 40
0
 40
1
 40
1
 40
1
 40
1
 10
49.210690
 20
1056.979000
 30
0.0
 10
48.962160
 20
1057.136200
 30
0.0
 10
47.971520
 20
1057.342800
 30
0.0
 10
46.949760
 20
1057.380800
 30
0.0
  0
SPLINE
  5
313
100
AcDbEntity
  8
Calque_1
 62
7
100
AcDbSpline
 70
8
 71
3
 72
8
 73
4
 74
0
 40
0
 40
0
 40
0
 40
0
 40
1
 40
1
 40
1
 40
1
 10
46.949760
 20
1057.380800
 30
0.0
 10
44.914620
 20
1057.456800
 30
0.0
 10
42.840260
 20
1057.110700
 30
0.0
 10
40.649380
 20
1056.597500
 30
0.0
  0
SPLINE
  5
314
100
AcDbEntity
  8
Calque_1
 62
7
100
AcDbSpline
 70
8
 71
3
 72
8
 73
4
 74
0
 40
0
 40
0
 40
0
 40
0
 40
1
 40
1
 40
1
 40
1
 10
40.649380
 20
1056.597500
 30
0.0
 10
40.431670
 20
1056.546500
 30
0.0
 10
37.543480
 20
1055.778400
 30
0.0
 10
37.404300
 20
1055.736200
 30
0.0
  0
SPLINE
  5
315
100
AcDbEntity
  8
Calque_1
 62
7
100
AcDbSpline
 70
8
 71
3
 72
8
 73
4
 74
0
 40
0
 40
0
 40
0
 40
0
 40
1
 40
1
 40
1
 40
1
 10
37.404300
 20
1055.736200
 30
0.0
 10
36.649530
 20
1055.507700
 30
0.0
 10
34.703680
 20
1054.806600
 30
0.0
 10
33.768420
 20
1054.494700
 30
0.0
  0
LWPOLYLINE
  5
316
100
AcDbEntity
  8
Calque_1
 62
7
100
AcDbPolyline
 90
2
 70
0
 10
49.432380
 20
1056.674200
 30
0.0
 10
49.432380
 20
1056.674800
 30
0.0
  0
SPLINE
  5
317
100
AcDbEntity
  8
Calque_1
 62
7
100
AcDbSpline
 70
8
 71
3
 72
8
 73
4
 74
0
 40
0
 40
0
 40
0
 40
0
 40
1
 40
1
 40
1
 40
1
 10
33.768420
 20
1054.495200
 30
0.0
 10
32.052150
 20
1053.922800
 30
0.0
 10
30.404120
 20
1053.523200
 30
0.0
 10
28.877510
 20
1053.057500
 30
0.0
  0
SPLINE
  5
318
100
AcDbEntity
  8
Calque_1
 62
7
100
AcDbSpline
 70
8
 71
3
 72
8
 73
4
 74
0
 40
0
 40
0
 40
0
 40
0
 40
1
 40
1
 40
1
 40
1
 10
28.877510
 20
1053.057500
 30
0.0
 10
27.738420
 20
1052.710100
 30
0.0
 10
26.425620
 20
1052.114500
 30
0.0
 10
24.822990
 20
1051.720600
 30
0.0
  0
SPLINE
  5
319
100
AcDbEntity
  8
Calque_1
 62
7
100
AcDbSpline
 70
8
 71
3
 72
8
 73
4
 74
0
 40
0
 40
0
 40
0
 40
0
 40
1
 40
1
 40
1
 40
1
 10
24.822990
 20
1051.720600
 30
0.0
 10
24.379800
 20
1051.611700
 30
0.0
 10
24.155710
 20
1051.594000
 30
0.0
 10
24.138250
 20
1051.609700
 30
0.0
  0
SPLINE
  5
31a
100
AcDbEntity
  8
Calque_1
 62
7
100
AcDbSpline
 70
8
 71
3
 72
8
 73
4
 74
0
 40
0
 40
0
 40
0
 40
0
 40
1
 40
1
 40
1
 40
1
 10
24.138250
 20
1051.609700
 30
0.0
 10
24.104350
 20
1051.598700
 30
0.0
 10
24.078350
 20
1051.593700
 30
0.0
 10
24.023320
 20
1051.592700
 30
0.0
  0
SPLINE
  5
31b
100
AcDbEntity
  8
Calque_1
 62
7
100
AcDbSpline
 70
8
 71
3
 72
8
 73
4
 74
0
 40
0
 40
0
 40
0
 40
0
 40
1
 40
1
 40
1
 40
1
 10
24.023320
 20
1051.592700
 30
0.0
 10
23.912170
 20
1051.592700
 30
0.0
 10
23.786060
 20
1051.592600
 30
0.0
 10
23.644380
 20
1051.612700
 30
0.0
  0
SPLINE
  5
31c
100
AcDbEntity
  8
Calque_1
 62
7
100
AcDbSpline
 70
8
 71
3
 72
8
 73
4
 74
0
 40
0
 40
0
 40
0
 40
0
 40
1
 40
1
 40
1
 40
1
 10
23.644380
 20
1051.612700
 30
0.0
 10
23.502610
 20
1051.631700
 30
0.0
 10
23.178450
 20
1051.729700
 30
0.0
 10
23.178250
 20
1051.729800
 30
0.0
  0
LWPOLYLINE
  5
31d
100
AcDbEntity
  8
Calque_1
 62
7
100
AcDbPolyline
 90
2
 70
0
 10
33.768420
 20
1054.494700
 30
0.0
 10
33.768420
 20
1054.495200
 30
0.0
  0
SPLINE
  5
31e
100
AcDbEntity
  8
Calque_1
 62
7
100
AcDbSpline
 70
8
 71
3
 72
8
 73
4
 74
0
 40
0
 40
0
 40
0
 40
0
 40
1
 40
1
 40
1
 40
1
 10
21.861960
 20
1052.914900
 30
0.0
 10
21.861860
 20
1052.915000
 30
0.0
 10
21.712500
 20
1053.246200
 30
0.0
 10
21.668110
 20
1053.395500
 30
0.0
  0
SPLINE
  5
31f
100
AcDbEntity
  8
Calque_1
 62
7
100
AcDbSpline
 70
8
 71
3
 72
8
 73
4
 74
0
 40
0
 40
0
 40
0
 40
0
 40
1
 40
1
 40
1
 40
1
 10
21.668110
 20
1053.395500
 30
0.0
 10
21.579310
 20
1053.694200
 30
0.0
 10
21.557660
 20
1053.934400
 30
0.0
 10
21.552570
 20
1054.123400
 30
0.0
  0
SPLINE
  5
320
100
AcDbEntity
  8
Calque_1
 62
7
100
AcDbSpline
 70
8
 71
3
 72
8
 73
4
 74
0
 40
0
 40
0
 40
0
 40
0
 40
1
 40
1
 40
1
 40
1
 10
21.552570
 20
1054.123400
 30
0.0
 10
21.542570
 20
1054.501300
 30
0.0
 10
21.592470
 20
1054.698300
 30
0.0
 10
21.626370
 20
1054.845000
 30
0.0
  0
LWPOLYLINE
  5
321
100
AcDbEntity
  8
Calque_1
 62
7
100
AcDbPolyline
 90
3
 70
0
 10
23.178250
 20
1051.729800
 30
0.0
 10
22.199690
 20
1052.415600
 30
0.0
 10
21.861960
 20
1052.914900
 30
0.0
  0
SPLINE
  5
322
100
AcDbEntity
  8
Calque_1
 62
7
100
AcDbSpline
 70
8
 71
3
 72
8
 73
4
 74
0
 40
0
 40
0
 40
0
 40
0
 40
1
 40
1
 40
1
 40
1
 10
21.626370
 20
1054.845000
 30
0.0
 10
21.849460
 20
1055.787900
 30
0.0
 10
22.134810
 20
1056.034100
 30
0.0
 10
22.353910
 20
1056.329300
 30
0.0
  0
SPLINE
  5
323
100
AcDbEntity
  8
Calque_1
 62
7
100
AcDbSpline
 70
8
 71
3
 72
8
 73
4
 74
0
 40
0
 40
0
 40
0
 40
0
 40
1
 40
1
 40
1
 40
1
 10
22.353910
 20
1056.329300
 30
0.0
 10
22.573010
 20
1056.624500
 30
0.0
 10
22.764970
 20
1056.836400
 30
0.0
 10
22.924600
 20
1057.002800
 30
0.0
  0
SPLINE
  5
324
100
AcDbEntity
  8
Calque_1
 62
7
100
AcDbSpline
 70
8
 71
3
 72
8
 73
4
 74
0
 40
0
 40
0
 40
0
 40
0
 40
1
 40
1
 40
1
 40
1
 10
22.924600
 20
1057.002800
 30
0.0
 10
23.316900
 20
1057.411400
 30
0.0
 10
23.635970
 20
1057.693000
 30
0.0
 10
23.835720
 20
1057.900900
 30
0.0
  0
SPLINE
  5
325
100
AcDbEntity
  8
Calque_1
 62
7
100
AcDbSpline
 70
8
 71
3
 72
8
 73
4
 74
0
 40
0
 40
0
 40
0
 40
0
 40
1
 40
1
 40
1
 40
1
 10
23.835720
 20
1057.900900
 30
0.0
 10
23.691350
 20
1057.750500
 30
0.0
 10
23.884620
 20
1057.952900
 30
0.0
 10
23.986270
 20
1058.063900
 30
0.0
  0
SPLINE
  5
326
100
AcDbEntity
  8
Calque_1
 62
7
100
AcDbSpline
 70
8
 71
3
 72
8
 73
4
 74
0
 40
0
 40
0
 40
0
 40
0
 40
1
 40
1
 40
1
 40
1
 10
23.986270
 20
1058.063900
 30
0.0
 10
24.088440
 20
1058.174500
 30
0.0
 10
24.223530
 20
1058.320000
 30
0.0
 10
24.362110
 20
1058.469700
 30
0.0
  0
SPLINE
  5
327
100
AcDbEntity
  8
Calque_1
 62
7
100
AcDbSpline
 70
8
 71
3
 72
8
 73
4
 74
0
 40
0
 40
0
 40
0
 40
0
 40
1
 40
1
 40
1
 40
1
 10
24.362110
 20
1058.469700
 30
0.0
 10
24.639280
 20
1058.768700
 30
0.0
 10
24.786740
 20
1058.943600
 30
0.0
 10
25.072090
 20
1059.224900
 30
0.0
  0
SPLINE
  5
328
100
AcDbEntity
  8
Calque_1
 62
7
100
AcDbSpline
 70
8
 71
3
 72
8
 73
4
 74
0
 40
0
 40
0
 40
0
 40
0
 40
1
 40
1
 40
1
 40
1
 10
25.072090
 20
1059.224900
 30
0.0
 10
25.290090
 20
1059.439800
 30
0.0
 10
25.423080
 20
1059.573000
 30
0.0
 10
25.585610
 20
1059.732500
 30
0.0
  0
SPLINE
  5
329
100
AcDbEntity
  8
Calque_1
 62
7
100
AcDbSpline
 70
8
 71
3
 72
8
 73
4
 74
0
 40
0
 40
0
 40
0
 40
0
 40
1
 40
1
 40
1
 40
1
 10
25.585610
 20
1059.732500
 30
0.0
 10
24.912650
 20
1059.753500
 30
0.0
 10
24.180530
 20
1059.743500
 30
0.0
 10
23.693940
 20
1059.700500
 30
0.0
  0
SPLINE
  5
32a
100
AcDbEntity
  8
Calque_1
 62
7
100
AcDbSpline
 70
8
 71
3
 72
8
 73
4
 74
0
 40
0
 40
0
 40
0
 40
0
 40
1
 40
1
 40
1
 40
1
 10
23.693940
 20
1059.700500
 30
0.0
 10
21.651210
 20
1059.532900
 30
0.0
 10
19.671740
 20
1059.106600
 30
0.0
 10
17.915760
 20
1058.303200
 30
0.0
  0
SPLINE
  5
32b
100
AcDbEntity
  8
Calque_1
 62
7
100
AcDbSpline
 70
8
 71
3
 72
8
 73
4
 74
0
 40
0
 40
0
 40
0
 40
0
 40
1
 40
1
 40
1
 40
1
 10
17.915760
 20
1058.303200
 30
0.0
 10
17.233720
 20
1057.991200
 30
0.0
 10
16.446520
 20
1057.505600
 30
0.0
 10
15.459980
 20
1057.024100
 30
0.0
  0
SPLINE
  5
32c
100
AcDbEntity
  8
Calque_1
 62
7
100
AcDbSpline
 70
8
 71
3
 72
8
 73
4
 74
0
 40
0
 40
0
 40
0
 40
0
 40
1
 40
1
 40
1
 40
1
 10
15.459980
 20
1057.024100
 30
0.0
 10
15.017290
 20
1056.807900
 30
0.0
 10
14.687050
 20
1056.679900
 30
0.0
 10
14.492790
 20
1056.583100
 30
0.0
  0
SPLINE
  5
32d
100
AcDbEntity
  8
Calque_1
 62
7
100
AcDbSpline
 70
8
 71
3
 72
8
 73
4
 74
0
 40
0
 40
0
 40
0
 40
0
 40
1
 40
1
 40
1
 40
1
 10
14.492790
 20
1056.583100
 30
0.0
 10
13.594750
 20
1056.135600
 30
0.0
 10
12.609800
 20
1055.516900
 30
0.0
 10
11.452350
 20
1054.926800
 30
0.0
  0
SPLINE
  5
32e
100
AcDbEntity
  8
Calque_1
 62
7
100
AcDbSpline
 70
8
 71
3
 72
8
 73
4
 74
0
 40
0
 40
0
 40
0
 40
0
 40
1
 40
1
 40
1
 40
1
 10
11.452350
 20
1054.926800
 30
0.0
 10
10.072010
 20
1054.223100
 30
0.0
 10
8.680190
 20
1053.428500
 30
0.0
 10
7.222530
 20
1052.636900
 30
0.0
  0
SPLINE
  5
32f
100
AcDbEntity
  8
Calque_1
 62
7
100
AcDbSpline
 70
8
 71
3
 72
8
 73
4
 74
0
 40
0
 40
0
 40
0
 40
0
 40
1
 40
1
 40
1
 40
1
 10
7.222530
 20
1052.636900
 30
0.0
 10
6.560240
 20
1052.277300
 30
0.0
 10
5.908340
 20
1051.926600
 30
0.0
 10
5.272090
 20
1051.574000
 30
0.0
  0
SPLINE
  5
330
100
AcDbEntity
  8
Calque_1
 62
7
100
AcDbSpline
 70
8
 71
3
 72
8
 73
4
 74
0
 40
0
 40
0
 40
0
 40
0
 40
1
 40
1
 40
1
 40
1
 10
5.272090
 20
1051.574000
 30
0.0
 10
4.963300
 20
1051.402900
 30
0.0
 10
4.810150
 20
1051.307000
 30
0.0
 10
4.734820
 20
1051.267000
 30
0.0
  0
SPLINE
  5
331
100
AcDbEntity
  8
Calque_1
 62
7
100
AcDbSpline
 70
8
 71
3
 72
8
 73
4
 74
0
 40
0
 40
0
 40
0
 40
0
 40
1
 40
1
 40
1
 40
1
 10
4.734820
 20
1051.267000
 30
0.0
 10
4.680920
 20
1051.201000
 30
0.0
 10
4.538670
 20
1050.997500
 30
0.0
 10
4.471920
 20
1050.905000
 30
0.0
  0
SPLINE
  5
332
100
AcDbEntity
  8
Calque_1
 62
7
100
AcDbSpline
 70
8
 71
3
 72
8
 73
4
 74
0
 40
0
 40
0
 40
0
 40
0
 40
1
 40
1
 40
1
 40
1
 10
4.471920
 20
1050.905000
 30
0.0
 10
5.433520
 20
1049.191100
 30
0.0
 10
6.399210
 20
1047.445400
 30
0.0
 10
7.181320
 20
1045.946400
 30
0.0
  0
SPLINE
  5
333
100
AcDbEntity
  8
Calque_1
 62
7
100
AcDbSpline
 70
8
 71
3
 72
8
 73
4
 74
0
 40
0
 40
0
 40
0
 40
0
 40
1
 40
1
 40
1
 40
1
 10
7.181320
 20
1045.946400
 30
0.0
 10
8.010330
 20
1044.357300
 30
0.0
 10
8.609550
 20
1043.263800
 30
0.0
 10
8.968230
 20
1042.009100
 30
0.0
  0
SPLINE
  5
334
100
AcDbEntity
  8
Calque_1
 62
7
100
AcDbSpline
 70
8
 71
3
 72
8
 73
4
 74
0
 40
0
 40
0
 40
0
 40
0
 40
1
 40
1
 40
1
 40
1
 10
8.968230
 20
1042.009100
 30
0.0
 10
8.978230
 20
1041.979100
 30
0.0
 10
9.347870
 20
1041.458600
 30
0.0
 10
9.825170
 20
1040.305800
 30
0.0
  0
SPLINE
  5
335
100
AcDbEntity
  8
Calque_1
 62
7
100
AcDbSpline
 70
8
 71
3
 72
8
 73
4
 74
0
 40
0
 40
0
 40
0
 40
0
 40
1
 40
1
 40
1
 40
1
 10
9.825170
 20
1040.305800
 30
0.0
 10
10.000770
 20
1039.881900
 30
0.0
 10
10.096350
 20
1039.600000
 30
0.0
 10
10.131970
 20
1039.456400
 30
0.0
  0
SPLINE
  5
336
100
AcDbEntity
  8
Calque_1
 62
7
100
AcDbSpline
 70
8
 71
3
 72
8
 73
4
 74
0
 40
0
 40
0
 40
0
 40
0
 40
1
 40
1
 40
1
 40
1
 10
10.131970
 20
1039.456400
 30
0.0
 10
10.219770
 20
1039.326300
 30
0.0
 10
10.351570
 20
1039.110200
 30
0.0
 10
10.532060
 20
1038.770100
 30
0.0
  0
SPLINE
  5
337
100
AcDbEntity
  8
Calque_1
 62
7
100
AcDbSpline
 70
8
 71
3
 72
8
 73
4
 74
0
 40
0
 40
0
 40
0
 40
0
 40
1
 40
1
 40
1
 40
1
 10
10.532060
 20
1038.770100
 30
0.0
 10
11.079300
 20
1037.738400
 30
0.0
 10
11.343100
 20
1036.914500
 30
0.0
 10
11.588440
 20
1036.451500
 30
0.0
  0
LWPOLYLINE
  5
338
100
AcDbEntity
  8
Calque_1
 62
7
100
AcDbPolyline
 90
1
 70
1
 10
21.626370
 20
1054.845000
 30
0.0
  0
SPLINE
  5
339
100
AcDbEntity
  8
Calque_1
 62
7
100
AcDbSpline
 70
8
 71
3
 72
8
 73
4
 74
0
 40
0
 40
0
 40
0
 40
0
 40
1
 40
1
 40
1
 40
1
 10
11.588440
 20
1036.451500
 30
0.0
 10
11.762840
 20
1036.122700
 30
0.0
 10
12.119620
 20
1035.624600
 30
0.0
 10
12.513420
 20
1034.862000
 30
0.0
  0
LWPOLYLINE
  5
33a
100
AcDbEntity
  8
Calque_1
 62
7
100
AcDbPolyline
 90
1
 70
1
 10
11.588440
 20
1036.451500
 30
0.0
  0
SPLINE
  5
33b
100
AcDbEntity
  8
Calque_1
 62
7
100
AcDbSpline
 70
8
 71
3
 72
8
 73
4
 74
0
 40
0
 40
0
 40
0
 40
0
 40
1
 40
1
 40
1
 40
1
 10
12.513420
 20
1034.861400
 30
0.0
 10
12.757060
 20
1034.389600
 30
0.0
 10
12.822020
 20
1034.147300
 30
0.0
 10
12.887770
 20
1033.953800
 30
0.0
  0
SPLINE
  5
33c
100
AcDbEntity
  8
Calque_1
 62
7
100
AcDbSpline
 70
8
 71
3
 72
8
 73
4
 74
0
 40
0
 40
0
 40
0
 40
0
 40
1
 40
1
 40
1
 40
1
 10
12.887770
 20
1033.953800
 30
0.0
 10
13.049990
 20
1033.696900
 30
0.0
 10
13.232380
 20
1033.421600
 30
0.0
 10
13.448680
 20
1033.039300
 30
0.0
  0
SPLINE
  5
33d
100
AcDbEntity
  8
Calque_1
 62
7
100
AcDbSpline
 70
8
 71
3
 72
8
 73
4
 74
0
 40
0
 40
0
 40
0
 40
0
 40
1
 40
1
 40
1
 40
1
 10
13.448680
 20
1033.039300
 30
0.0
 10
13.815440
 20
1032.391200
 30
0.0
 10
14.023770
 20
1031.824900
 30
0.0
 10
14.229300
 20
1031.277200
 30
0.0
  0
SPLINE
  5
33e
100
AcDbEntity
  8
Calque_1
 62
7
100
AcDbSpline
 70
8
 71
3
 72
8
 73
4
 74
0
 40
0
 40
0
 40
0
 40
0
 40
1
 40
1
 40
1
 40
1
 10
14.229300
 20
1031.277200
 30
0.0
 10
15.133030
 20
1031.142700
 30
0.0
 10
15.848490
 20
1030.968000
 30
0.0
 10
16.394240
 20
1030.915300
 30
0.0
  0
SPLINE
  5
33f
100
AcDbEntity
  8
Calque_1
 62
7
100
AcDbSpline
 70
8
 71
3
 72
8
 73
4
 74
0
 40
0
 40
0
 40
0
 40
0
 40
1
 40
1
 40
1
 40
1
 10
16.394240
 20
1030.915300
 30
0.0
 10
16.778660
 20
1030.878300
 30
0.0
 10
16.954060
 20
1030.864300
 30
0.0
 10
16.907770
 20
1030.867300
 30
0.0
  0
LWPOLYLINE
  5
340
100
AcDbEntity
  8
Calque_1
 62
7
100
AcDbPolyline
 90
2
 70
0
 10
12.513420
 20
1034.862000
 30
0.0
 10
12.513420
 20
1034.861400
 30
0.0
  0
SPLINE
  5
341
100
AcDbEntity
  8
Calque_1
 62
7
100
AcDbSpline
 70
8
 71
3
 72
8
 73
4
 74
0
 40
0
 40
0
 40
0
 40
0
 40
1
 40
1
 40
1
 40
1
 10
16.970570
 20
1030.867300
 30
0.0
 10
16.982570
 20
1030.867300
 30
0.0
 10
16.776020
 20
1030.904300
 30
0.0
 10
17.119030
 20
1030.848300
 30
0.0
  0
SPLINE
  5
342
100
AcDbEntity
  8
Calque_1
 62
7
100
AcDbSpline
 70
8
 71
3
 72
8
 73
4
 74
0
 40
0
 40
0
 40
0
 40
0
 40
1
 40
1
 40
1
 40
1
 10
17.119030
 20
1030.848300
 30
0.0
 10
17.144930
 20
1030.848300
 30
0.0
 10
17.332750
 20
1030.781300
 30
0.0
 10
17.508340
 20
1030.724500
 30
0.0
  0
SPLINE
  5
343
100
AcDbEntity
  8
Calque_1
 62
7
100
AcDbSpline
 70
8
 71
3
 72
8
 73
4
 74
0
 40
0
 40
0
 40
0
 40
0
 40
1
 40
1
 40
1
 40
1
 10
17.508340
 20
1030.724500
 30
0.0
 10
18.133410
 20
1030.630500
 30
0.0
 10
18.885890
 20
1030.583900
 30
0.0
 10
19.655730
 20
1030.551900
 30
0.0
  0
SPLINE
  5
344
100
AcDbEntity
  8
Calque_1
 62
7
100
AcDbSpline
 70
8
 71
3
 72
8
 73
4
 74
0
 40
0
 40
0
 40
0
 40
0
 40
1
 40
1
 40
1
 40
1
 10
19.655730
 20
1030.551900
 30
0.0
 10
21.691470
 20
1030.466900
 30
0.0
 10
23.812420
 20
1030.567900
 30
0.0
 10
26.040720
 20
1030.581900
 30
0.0
  0
SPLINE
  5
345
100
AcDbEntity
  8
Calque_1
 62
7
100
AcDbSpline
 70
8
 71
3
 72
8
 73
4
 74
0
 40
0
 40
0
 40
0
 40
0
 40
1
 40
1
 40
1
 40
1
 10
26.040720
 20
1030.581900
 30
0.0
 10
27.326780
 20
1030.592900
 30
0.0
 10
28.054010
 20
1030.405700
 30
0.0
 10
28.453200
 20
1030.451900
 30
0.0
  0
SPLINE
  5
346
100
AcDbEntity
  8
Calque_1
 62
7
100
AcDbSpline
 70
8
 71
3
 72
8
 73
4
 74
0
 40
0
 40
0
 40
0
 40
0
 40
1
 40
1
 40
1
 40
1
 10
28.453200
 20
1030.451900
 30
0.0
 10
28.463200
 20
1030.452900
 30
0.0
 10
28.670800
 20
1030.506900
 30
0.0
 10
29.081660
 20
1030.585800
 30
0.0
  0
SPLINE
  5
347
100
AcDbEntity
  8
Calque_1
 62
7
100
AcDbSpline
 70
8
 71
3
 72
8
 73
4
 74
0
 40
0
 40
0
 40
0
 40
0
 40
1
 40
1
 40
1
 40
1
 10
29.081660
 20
1030.585800
 30
0.0
 10
30.820190
 20
1030.919700
 30
0.0
 10
32.421020
 20
1031.291800
 30
0.0
 10
33.884270
 20
1031.901900
 30
0.0
  0
SPLINE
  5
348
100
AcDbEntity
  8
Calque_1
 62
7
100
AcDbSpline
 70
8
 71
3
 72
8
 73
4
 74
0
 40
0
 40
0
 40
0
 40
0
 40
1
 40
1
 40
1
 40
1
 10
33.884270
 20
1031.901900
 30
0.0
 10
34.309600
 20
1032.079200
 30
0.0
 10
34.657010
 20
1032.284600
 30
0.0
 10
34.980470
 20
1032.511500
 30
0.0
  0
SPLINE
  5
349
100
AcDbEntity
  8
Calque_1
 62
7
100
AcDbSpline
 70
8
 71
3
 72
8
 73
4
 74
0
 40
0
 40
0
 40
0
 40
0
 40
1
 40
1
 40
1
 40
1
 10
34.980470
 20
1032.511500
 30
0.0
 10
34.965470
 20
1032.533500
 30
0.0
 10
34.933570
 20
1032.594500
 30
0.0
 10
34.920570
 20
1032.611500
 30
0.0
  0
SPLINE
  5
34a
100
AcDbEntity
  8
Calque_1
 62
7
100
AcDbSpline
 70
8
 71
3
 72
8
 73
4
 74
0
 40
0
 40
0
 40
0
 40
0
 40
1
 40
1
 40
1
 40
1
 10
34.920570
 20
1032.611500
 30
0.0
 10
34.794260
 20
1032.770700
 30
0.0
 10
33.607880
 20
1033.428800
 30
0.0
 10
32.644280
 20
1033.814000
 30
0.0
  0
SPLINE
  5
34b
100
AcDbEntity
  8
Calque_1
 62
7
100
AcDbSpline
 70
8
 71
3
 72
8
 73
4
 74
0
 40
0
 40
0
 40
0
 40
0
 40
1
 40
1
 40
1
 40
1
 10
32.644280
 20
1033.814000
 30
0.0
 10
32.336290
 20
1033.724000
 30
0.0
 10
31.377080
 20
1033.267600
 30
0.0
 10
30.031260
 20
1033.849000
 30
0.0
  0
SPLINE
  5
34c
100
AcDbEntity
  8
Calque_1
 62
7
100
AcDbSpline
 70
8
 71
3
 72
8
 73
4
 74
0
 40
0
 40
0
 40
0
 40
0
 40
1
 40
1
 40
1
 40
1
 10
30.031260
 20
1033.849000
 30
0.0
 10
29.821140
 20
1033.940000
 30
0.0
 10
29.424850
 20
1033.955200
 30
0.0
 10
28.882590
 20
1034.874900
 30
0.0
  0
SPLINE
  5
34d
100
AcDbEntity
  8
Calque_1
 62
7
100
AcDbSpline
 70
8
 71
3
 72
8
 73
4
 74
0
 40
0
 40
0
 40
0
 40
0
 40
1
 40
1
 40
1
 40
1
 10
28.882590
 20
1034.874900
 30
0.0
 10
28.611410
 20
1035.334700
 30
0.0
 10
28.422040
 20
1036.162600
 30
0.0
 10
28.557730
 20
1036.838800
 30
0.0
  0
SPLINE
  5
34e
100
AcDbEntity
  8
Calque_1
 62
7
100
AcDbSpline
 70
8
 71
3
 72
8
 73
4
 74
0
 40
0
 40
0
 40
0
 40
0
 40
1
 40
1
 40
1
 40
1
 10
28.557730
 20
1036.838800
 30
0.0
 10
28.693420
 20
1037.514900
 30
0.0
 10
29.009700
 20
1037.921100
 30
0.0
 10
29.229590
 20
1038.153700
 30
0.0
  0
SPLINE
  5
34f
100
AcDbEntity
  8
Calque_1
 62
7
100
AcDbSpline
 70
8
 71
3
 72
8
 73
4
 74
0
 40
0
 40
0
 40
0
 40
0
 40
1
 40
1
 40
1
 40
1
 10
29.229590
 20
1038.153700
 30
0.0
 10
29.933280
 20
1038.898400
 30
0.0
 10
30.099900
 20
1038.849400
 30
0.0
 10
30.218430
 20
1038.822200
 30
0.0
  0
SPLINE
  5
350
100
AcDbEntity
  8
Calque_1
 62
7
100
AcDbSpline
 70
8
 71
3
 72
8
 73
4
 74
0
 40
0
 40
0
 40
0
 40
0
 40
1
 40
1
 40
1
 40
1
 10
30.218430
 20
1038.822200
 30
0.0
 10
30.292230
 20
1038.864200
 30
0.0
 10
30.202430
 20
1038.822200
 30
0.0
 10
30.316230
 20
1038.883200
 30
0.0
  0
SPLINE
  5
351
100
AcDbEntity
  8
Calque_1
 62
7
100
AcDbSpline
 70
8
 71
3
 72
8
 73
4
 74
0
 40
0
 40
0
 40
0
 40
0
 40
1
 40
1
 40
1
 40
1
 10
30.316230
 20
1038.883200
 30
0.0
 10
30.690670
 20
1039.074600
 30
0.0
 10
31.281020
 20
1039.307700
 30
0.0
 10
31.894920
 20
1039.320800
 30
0.0
  0
SPLINE
  5
352
100
AcDbEntity
  8
Calque_1
 62
7
100
AcDbSpline
 70
8
 71
3
 72
8
 73
4
 74
0
 40
0
 40
0
 40
0
 40
0
 40
1
 40
1
 40
1
 40
1
 10
31.894920
 20
1039.320800
 30
0.0
 10
32.444960
 20
1039.332800
 30
0.0
 10
32.797150
 20
1039.229800
 30
0.0
 10
33.113230
 20
1039.141500
 30
0.0
  0
SPLINE
  5
353
100
AcDbEntity
  8
Calque_1
 62
7
100
AcDbSpline
 70
8
 71
3
 72
8
 73
4
 74
0
 40
0
 40
0
 40
0
 40
0
 40
1
 40
1
 40
1
 40
1
 10
33.113230
 20
1039.141500
 30
0.0
 10
33.294120
 20
1039.163500
 30
0.0
 10
33.500940
 20
1039.222500
 30
0.0
 10
33.673750
 20
1039.237500
 30
0.0
  0
SPLINE
  5
354
100
AcDbEntity
  8
Calque_1
 62
7
100
AcDbSpline
 70
8
 71
3
 72
8
 73
4
 74
0
 40
0
 40
0
 40
0
 40
0
 40
1
 40
1
 40
1
 40
1
 10
33.673750
 20
1039.237500
 30
0.0
 10
34.884080
 20
1039.343800
 30
0.0
 10
36.019180
 20
1039.372200
 30
0.0
 10
37.077560
 20
1039.443800
 30
0.0
  0
SPLINE
  5
355
100
AcDbEntity
  8
Calque_1
 62
7
100
AcDbSpline
 70
8
 71
3
 72
8
 73
4
 74
0
 40
0
 40
0
 40
0
 40
0
 40
1
 40
1
 40
1
 40
1
 10
37.077560
 20
1039.443800
 30
0.0
 10
37.999050
 20
1039.506800
 30
0.0
 10
38.909370
 20
1039.585500
 30
0.0
 10
39.805520
 20
1039.693700
 30
0.0
  0
SPLINE
  5
356
100
AcDbEntity
  8
Calque_1
 62
7
100
AcDbSpline
 70
8
 71
3
 72
8
 73
4
 74
0
 40
0
 40
0
 40
0
 40
0
 40
1
 40
1
 40
1
 40
1
 10
39.805520
 20
1039.693700
 30
0.0
 10
39.979520
 20
1039.714700
 30
0.0
 10
40.334310
 20
1039.805500
 30
0.0
 10
40.881550
 20
1039.878600
 30
0.0
  0
SPLINE
  5
357
100
AcDbEntity
  8
Calque_1
 62
7
100
AcDbSpline
 70
8
 71
3
 72
8
 73
4
 74
0
 40
0
 40
0
 40
0
 40
0
 40
1
 40
1
 40
1
 40
1
 10
40.881550
 20
1039.878600
 30
0.0
 10
42.452260
 20
1040.088200
 30
0.0
 10
43.913920
 20
1040.087100
 30
0.0
 10
45.245470
 20
1040.142500
 30
0.0
  0
SPLINE
  5
358
100
AcDbEntity
  8
Calque_1
 62
7
100
AcDbSpline
 70
8
 71
3
 72
8
 73
4
 74
0
 40
0
 40
0
 40
0
 40
0
 40
1
 40
1
 40
1
 40
1
 10
45.245470
 20
1040.142500
 30
0.0
 10
46.204480
 20
1040.182500
 30
0.0
 10
47.656350
 20
1040.272200
 30
0.0
 10
48.530750
 20
1040.352600
 30
0.0
  0
SPLINE
  5
359
100
AcDbEntity
  8
Calque_1
 62
7
100
AcDbSpline
 70
8
 71
3
 72
8
 73
4
 74
0
 40
0
 40
0
 40
0
 40
0
 40
1
 40
1
 40
1
 40
1
 10
48.530750
 20
1040.352600
 30
0.0
 10
48.712840
 20
1040.368600
 30
0.0
 10
50.743090
 20
1040.641900
 30
0.0
 10
50.799360
 20
1040.652900
 30
0.0
  0
SPLINE
  5
35a
100
AcDbEntity
  8
Calque_1
 62
7
100
AcDbSpline
 70
8
 71
3
 72
8
 73
4
 74
0
 40
0
 40
0
 40
0
 40
0
 40
1
 40
1
 40
1
 40
1
 10
50.799360
 20
1040.652900
 30
0.0
 10
51.197450
 20
1040.731900
 30
0.0
 10
51.721950
 20
1040.888500
 30
0.0
 10
52.390920
 20
1041.026100
 30
0.0
  0
SPLINE
  5
35b
100
AcDbEntity
  8
Calque_1
 62
7
100
AcDbSpline
 70
8
 71
3
 72
8
 73
4
 74
0
 40
0
 40
0
 40
0
 40
0
 40
1
 40
1
 40
1
 40
1
 10
52.390920
 20
1041.026100
 30
0.0
 10
53.623500
 20
1041.279400
 30
0.0
 10
53.753800
 20
1041.207400
 30
0.0
 10
54.707520
 20
1041.441800
 30
0.0
  0
SPLINE
  5
35c
100
AcDbEntity
  8
Calque_1
 62
7
100
AcDbSpline
 70
8
 71
3
 72
8
 73
4
 74
0
 40
0
 40
0
 40
0
 40
0
 40
1
 40
1
 40
1
 40
1
 10
54.707520
 20
1041.441800
 30
0.0
 10
56.764310
 20
1041.947300
 30
0.0
 10
58.717740
 20
1042.655700
 30
0.0
 10
60.368570
 20
1043.711000
 30
0.0
  0
SPLINE
  5
35d
100
AcDbEntity
  8
Calque_1
 62
7
100
AcDbSpline
 70
8
 71
3
 72
8
 73
4
 74
0
 40
0
 40
0
 40
0
 40
0
 40
1
 40
1
 40
1
 40
1
 10
60.368570
 20
1043.711000
 30
0.0
 10
61.219720
 20
1044.255100
 30
0.0
 10
61.831720
 20
1044.900200
 30
0.0
 10
62.371680
 20
1045.674800
 30
0.0
  0
LWPOLYLINE
  5
35e
100
AcDbEntity
  8
Calque_1
 62
7
100
AcDbPolyline
 90
4
 70
0
 10
16.907770
 20
1030.867300
 30
0.0
 10
16.932670
 20
1030.867300
 30
0.0
 10
16.932670
 20
1030.867300
 30
0.0
 10
16.970570
 20
1030.867300
 30
0.0
  0
SPLINE
  5
35f
100
AcDbEntity
  8
Calque_1
 62
7
100
AcDbSpline
 70
8
 71
3
 72
8
 73
4
 74
0
 40
0
 40
0
 40
0
 40
0
 40
1
 40
1
 40
1
 40
1
 10
89.444220
 20
1037.956400
 30
0.0
 10
89.396220
 20
1037.866400
 30
0.0
 10
89.350220
 20
1037.767100
 30
0.0
 10
89.256620
 20
1037.544500
 30
0.0
  0
SPLINE
  5
360
100
AcDbEntity
  8
Calque_1
 62
7
100
AcDbSpline
 70
8
 71
3
 72
8
 73
4
 74
0
 40
0
 40
0
 40
0
 40
0
 40
1
 40
1
 40
1
 40
1
 10
89.256620
 20
1037.544500
 30
0.0
 10
89.019320
 20
1036.982500
 30
0.0
 10
88.840120
 20
1036.346800
 30
0.0
 10
88.790520
 20
1035.879500
 30
0.0
  0
SPLINE
  5
361
100
AcDbEntity
  8
Calque_1
 62
7
100
AcDbSpline
 70
8
 71
3
 72
8
 73
4
 74
0
 40
0
 40
0
 40
0
 40
0
 40
1
 40
1
 40
1
 40
1
 10
88.790520
 20
1035.879500
 30
0.0
 10
88.744520
 20
1035.441700
 30
0.0
 10
89.036120
 20
1033.622700
 30
0.0
 10
89.319720
 20
1032.666200
 30
0.0
  0
SPLINE
  5
362
100
AcDbEntity
  8
Calque_1
 62
7
100
AcDbSpline
 70
8
 71
3
 72
8
 73
4
 74
0
 40
0
 40
0
 40
0
 40
0
 40
1
 40
1
 40
1
 40
1
 10
89.319720
 20
1032.666200
 30
0.0
 10
89.397720
 20
1032.403200
 30
0.0
 10
89.603220
 20
1031.963800
 30
0.0
 10
89.843720
 20
1031.314400
 30
0.0
  0
SPLINE
  5
363
100
AcDbEntity
  8
Calque_1
 62
7
100
AcDbSpline
 70
8
 71
3
 72
8
 73
4
 74
0
 40
0
 40
0
 40
0
 40
0
 40
1
 40
1
 40
1
 40
1
 10
89.843720
 20
1031.314400
 30
0.0
 10
90.505020
 20
1029.529100
 30
0.0
 10
90.314920
 20
1029.912400
 30
0.0
 10
91.016820
 20
1028.121300
 30
0.0
  0
SPLINE
  5
364
100
AcDbEntity
  8
Calque_1
 62
7
100
AcDbSpline
 70
8
 71
3
 72
8
 73
4
 74
0
 40
0
 40
0
 40
0
 40
0
 40
1
 40
1
 40
1
 40
1
 10
91.016820
 20
1028.121300
 30
0.0
 10
91.088820
 20
1027.938500
 30
0.0
 10
91.263820
 20
1027.601100
 30
0.0
 10
91.453920
 20
1027.073800
 30
0.0
  0
SPLINE
  5
365
100
AcDbEntity
  8
Calque_1
 62
7
100
AcDbSpline
 70
8
 71
3
 72
8
 73
4
 74
0
 40
0
 40
0
 40
0
 40
0
 40
1
 40
1
 40
1
 40
1
 10
91.453920
 20
1027.073800
 30
0.0
 10
91.567420
 20
1026.759200
 30
0.0
 10
91.545920
 20
1026.784000
 30
0.0
 10
91.586820
 20
1026.639200
 30
0.0
  0
SPLINE
  5
366
100
AcDbEntity
  8
Calque_1
 62
7
100
AcDbSpline
 70
8
 71
3
 72
8
 73
4
 74
0
 40
0
 40
0
 40
0
 40
0
 40
1
 40
1
 40
1
 40
1
 10
91.586820
 20
1026.639200
 30
0.0
 10
91.627820
 20
1026.494400
 30
0.0
 10
91.676820
 20
1026.323200
 30
0.0
 10
91.724720
 20
1026.156600
 30
0.0
  0
LWPOLYLINE
  5
367
100
AcDbEntity
  8
Calque_1
 62
7
100
AcDbPolyline
 90
2
 70
0
 10
62.371680
 20
1045.674800
 30
0.0
 10
62.371840
 20
1045.675800
 30
0.0
  0
SPLINE
  5
368
100
AcDbEntity
  8
Calque_1
 62
7
100
AcDbSpline
 70
8
 71
3
 72
8
 73
4
 74
0
 40
0
 40
0
 40
0
 40
0
 40
1
 40
1
 40
1
 40
1
 10
91.724720
 20
1026.145600
 30
0.0
 10
91.967420
 20
1026.195600
 30
0.0
 10
92.159120
 20
1026.260000
 30
0.0
 10
92.431120
 20
1026.296500
 30
0.0
  0
SPLINE
  5
369
100
AcDbEntity
  8
Calque_1
 62
7
100
AcDbSpline
 70
8
 71
3
 72
8
 73
4
 74
0
 40
0
 40
0
 40
0
 40
0
 40
1
 40
1
 40
1
 40
1
 10
92.431120
 20
1026.296500
 30
0.0
 10
93.443020
 20
1026.432100
 30
0.0
 10
94.406020
 20
1026.443100
 30
0.0
 10
95.164320
 20
1026.482500
 30
0.0
  0
SPLINE
  5
36a
100
AcDbEntity
  8
Calque_1
 62
7
100
AcDbSpline
 70
8
 71
3
 72
8
 73
4
 74
0
 40
0
 40
0
 40
0
 40
0
 40
1
 40
1
 40
1
 40
1
 10
95.164320
 20
1026.482500
 30
0.0
 10
97.194820
 20
1026.587900
 30
0.0
 10
99.163620
 20
1026.482500
 30
0.0
 10
101.056420
 20
1026.334700
 30
0.0
  0
SPLINE
  5
36b
100
AcDbEntity
  8
Calque_1
 62
7
100
AcDbSpline
 70
8
 71
3
 72
8
 73
4
 74
0
 40
0
 40
0
 40
0
 40
0
 40
1
 40
1
 40
1
 40
1
 10
101.056420
 20
1026.334700
 30
0.0
 10
101.586520
 20
1026.293700
 30
0.0
 10
102.354520
 20
1026.364700
 30
0.0
 10
103.361220
 20
1026.344700
 30
0.0
  0
SPLINE
  5
36c
100
AcDbEntity
  8
Calque_1
 62
7
100
AcDbSpline
 70
8
 71
3
 72
8
 73
4
 74
0
 40
0
 40
0
 40
0
 40
0
 40
1
 40
1
 40
1
 40
1
 10
103.361220
 20
1026.344700
 30
0.0
 10
104.603920
 20
1026.315700
 30
0.0
 10
105.717720
 20
1026.159700
 30
0.0
 10
106.699520
 20
1026.071400
 30
0.0
  0
SPLINE
  5
36d
100
AcDbEntity
  8
Calque_1
 62
7
100
AcDbSpline
 70
8
 71
3
 72
8
 73
4
 74
0
 40
0
 40
0
 40
0
 40
0
 40
1
 40
1
 40
1
 40
1
 10
106.699520
 20
1026.071400
 30
0.0
 10
107.190020
 20
1026.027400
 30
0.0
 10
107.896520
 20
1026.152400
 30
0.0
 10
109.010020
 20
1026.220700
 30
0.0
  0
SPLINE
  5
36e
100
AcDbEntity
  8
Calque_1
 62
7
100
AcDbSpline
 70
8
 71
3
 72
8
 73
4
 74
0
 40
0
 40
0
 40
0
 40
0
 40
1
 40
1
 40
1
 40
1
 10
109.010020
 20
1026.220700
 30
0.0
 10
109.454120
 20
1026.246700
 30
0.0
 10
109.847720
 20
1026.220700
 30
0.0
 10
110.276120
 20
1026.220700
 30
0.0
  0
SPLINE
  5
36f
100
AcDbEntity
  8
Calque_1
 62
7
100
AcDbSpline
 70
8
 71
3
 72
8
 73
4
 74
0
 40
0
 40
0
 40
0
 40
0
 40
1
 40
1
 40
1
 40
1
 10
110.276120
 20
1026.220700
 30
0.0
 10
110.313120
 20
1026.327700
 30
0.0
 10
110.390120
 20
1026.552800
 30
0.0
 10
110.582520
 20
1027.125000
 30
0.0
  0
SPLINE
  5
370
100
AcDbEntity
  8
Calque_1
 62
7
100
AcDbSpline
 70
8
 71
3
 72
8
 73
4
 74
0
 40
0
 40
0
 40
0
 40
0
 40
1
 40
1
 40
1
 40
1
 10
110.582520
 20
1027.125000
 30
0.0
 10
110.686520
 20
1027.434300
 30
0.0
 10
110.762320
 20
1027.632200
 30
0.0
 10
110.804220
 20
1027.721900
 30
0.0
  0
SPLINE
  5
371
100
AcDbEntity
  8
Calque_1
 62
7
100
AcDbSpline
 70
8
 71
3
 72
8
 73
4
 74
0
 40
0
 40
0
 40
0
 40
0
 40
1
 40
1
 40
1
 40
1
 10
110.804220
 20
1027.721900
 30
0.0
 10
110.788220
 20
1027.890500
 30
0.0
 10
110.757220
 20
1028.372300
 30
0.0
 10
110.582520
 20
1028.867000
 30
0.0
  0
SPLINE
  5
372
100
AcDbEntity
  8
Calque_1
 62
7
100
AcDbSpline
 70
8
 71
3
 72
8
 73
4
 74
0
 40
0
 40
0
 40
0
 40
0
 40
1
 40
1
 40
1
 40
1
 10
110.582520
 20
1028.867000
 30
0.0
 10
110.348420
 20
1029.528400
 30
0.0
 10
109.919020
 20
1030.248800
 30
0.0
 10
109.730420
 20
1030.475200
 30
0.0
  0
SPLINE
  5
373
100
AcDbEntity
  8
Calque_1
 62
7
100
AcDbSpline
 70
8
 71
3
 72
8
 73
4
 74
0
 40
0
 40
0
 40
0
 40
0
 40
1
 40
1
 40
1
 40
1
 10
109.730420
 20
1030.475200
 30
0.0
 10
109.383320
 20
1030.891700
 30
0.0
 10
109.029920
 20
1031.027300
 30
0.0
 10
109.091620
 20
1031.042600
 30
0.0
  0
LWPOLYLINE
  5
374
100
AcDbEntity
  8
Calque_1
 62
7
100
AcDbPolyline
 90
2
 70
0
 10
91.724720
 20
1026.156600
 30
0.0
 10
91.724720
 20
1026.145600
 30
0.0
  0
SPLINE
  5
375
100
AcDbEntity
  8
Calque_1
 62
7
100
AcDbSpline
 70
8
 71
3
 72
8
 73
4
 74
0
 40
0
 40
0
 40
0
 40
0
 40
1
 40
1
 40
1
 40
1
 10
109.077620
 20
1031.042600
 30
0.0
 10
109.060620
 20
1030.998600
 30
0.0
 10
109.067620
 20
1030.999600
 30
0.0
 10
109.046620
 20
1030.945600
 30
0.0
  0
SPLINE
  5
376
100
AcDbEntity
  8
Calque_1
 62
7
100
AcDbSpline
 70
8
 71
3
 72
8
 73
4
 74
0
 40
0
 40
0
 40
0
 40
0
 40
1
 40
1
 40
1
 40
1
 10
109.046620
 20
1030.945600
 30
0.0
 10
108.979620
 20
1030.784800
 30
0.0
 10
109.077620
 20
1030.579500
 30
0.0
 10
108.317520
 20
1029.961200
 30
0.0
  0
SPLINE
  5
377
100
AcDbEntity
  8
Calque_1
 62
7
100
AcDbSpline
 70
8
 71
3
 72
8
 73
4
 74
0
 40
0
 40
0
 40
0
 40
0
 40
1
 40
1
 40
1
 40
1
 10
108.317520
 20
1029.961200
 30
0.0
 10
107.937320
 20
1029.652000
 30
0.0
 10
106.900120
 20
1029.232900
 30
0.0
 10
105.985820
 20
1029.557600
 30
0.0
  0
SPLINE
  5
378
100
AcDbEntity
  8
Calque_1
 62
7
100
AcDbSpline
 70
8
 71
3
 72
8
 73
4
 74
0
 40
0
 40
0
 40
0
 40
0
 40
1
 40
1
 40
1
 40
1
 10
105.985820
 20
1029.557600
 30
0.0
 10
105.071920
 20
1029.882200
 30
0.0
 10
104.780920
 20
1030.460600
 30
0.0
 10
104.634520
 20
1030.750300
 30
0.0
  0
SPLINE
  5
379
100
AcDbEntity
  8
Calque_1
 62
7
100
AcDbSpline
 70
8
 71
3
 72
8
 73
4
 74
0
 40
0
 40
0
 40
0
 40
0
 40
1
 40
1
 40
1
 40
1
 10
104.634520
 20
1030.750300
 30
0.0
 10
104.171320
 20
1031.666900
 30
0.0
 10
104.349820
 20
1032.449800
 30
0.0
 10
104.499620
 20
1032.904700
 30
0.0
  0
SPLINE
  5
37a
100
AcDbEntity
  8
Calque_1
 62
7
100
AcDbSpline
 70
8
 71
3
 72
8
 73
4
 74
0
 40
0
 40
0
 40
0
 40
0
 40
1
 40
1
 40
1
 40
1
 10
104.499620
 20
1032.904700
 30
0.0
 10
104.532620
 20
1033.004700
 30
0.0
 10
104.573620
 20
1033.036100
 30
0.0
 10
104.609220
 20
1033.120700
 30
0.0
  0
SPLINE
  5
37b
100
AcDbEntity
  8
Calque_1
 62
7
100
AcDbSpline
 70
8
 71
3
 72
8
 73
4
 74
0
 40
0
 40
0
 40
0
 40
0
 40
1
 40
1
 40
1
 40
1
 10
104.609220
 20
1033.120700
 30
0.0
 10
104.638220
 20
1033.447600
 30
0.0
 10
104.661220
 20
1033.789600
 30
0.0
 10
104.632220
 20
1034.072600
 30
0.0
  0
SPLINE
  5
37c
100
AcDbEntity
  8
Calque_1
 62
7
100
AcDbSpline
 70
8
 71
3
 72
8
 73
4
 74
0
 40
0
 40
0
 40
0
 40
0
 40
1
 40
1
 40
1
 40
1
 10
104.632220
 20
1034.072600
 30
0.0
 10
104.617220
 20
1034.136600
 30
0.0
 10
104.549220
 20
1034.517700
 30
0.0
 10
104.494720
 20
1034.777400
 30
0.0
  0
SPLINE
  5
37d
100
AcDbEntity
  8
Calque_1
 62
7
100
AcDbSpline
 70
8
 71
3
 72
8
 73
4
 74
0
 40
0
 40
0
 40
0
 40
0
 40
1
 40
1
 40
1
 40
1
 10
104.494720
 20
1034.777400
 30
0.0
 10
104.420720
 20
1035.128500
 30
0.0
 10
104.355320
 20
1035.426000
 30
0.0
 10
104.311820
 20
1035.656500
 30
0.0
  0
SPLINE
  5
37e
100
AcDbEntity
  8
Calque_1
 62
7
100
AcDbSpline
 70
8
 71
3
 72
8
 73
4
 74
0
 40
0
 40
0
 40
0
 40
0
 40
1
 40
1
 40
1
 40
1
 10
104.311820
 20
1035.656500
 30
0.0
 10
104.195720
 20
1036.270700
 30
0.0
 10
104.163220
 20
1036.491000
 30
0.0
 10
104.134020
 20
1036.669800
 30
0.0
  0
SPLINE
  5
37f
100
AcDbEntity
  8
Calque_1
 62
7
100
AcDbSpline
 70
8
 71
3
 72
8
 73
4
 74
0
 40
0
 40
0
 40
0
 40
0
 40
1
 40
1
 40
1
 40
1
 10
104.134020
 20
1036.669800
 30
0.0
 10
103.880520
 20
1036.679800
 30
0.0
 10
103.416120
 20
1036.669800
 30
0.0
 10
103.011620
 20
1036.556100
 30
0.0
  0
SPLINE
  5
380
100
AcDbEntity
  8
Calque_1
 62
7
100
AcDbSpline
 70
8
 71
3
 72
8
 73
4
 74
0
 40
0
 40
0
 40
0
 40
0
 40
1
 40
1
 40
1
 40
1
 10
103.011620
 20
1036.556100
 30
0.0
 10
102.296820
 20
1036.357000
 30
0.0
 10
101.543520
 20
1035.973300
 30
0.0
 10
101.072720
 20
1035.568600
 30
0.0
  0
SPLINE
  5
381
100
AcDbEntity
  8
Calque_1
 62
7
100
AcDbSpline
 70
8
 71
3
 72
8
 73
4
 74
0
 40
0
 40
0
 40
0
 40
0
 40
1
 40
1
 40
1
 40
1
 10
101.072720
 20
1035.568600
 30
0.0
 10
101.038720
 20
1035.539600
 30
0.0
 10
100.931820
 20
1035.406600
 30
0.0
 10
100.645320
 20
1034.960900
 30
0.0
  0
SPLINE
  5
382
100
AcDbEntity
  8
Calque_1
 62
7
100
AcDbSpline
 70
8
 71
3
 72
8
 73
4
 74
0
 40
0
 40
0
 40
0
 40
0
 40
1
 40
1
 40
1
 40
1
 10
100.645320
 20
1034.960900
 30
0.0
 10
100.332220
 20
1034.473700
 30
0.0
 10
100.268420
 20
1034.311500
 30
0.0
 10
100.222620
 20
1033.908300
 30
0.0
  0
SPLINE
  5
383
100
AcDbEntity
  8
Calque_1
 62
7
100
AcDbSpline
 70
8
 71
3
 72
8
 73
4
 74
0
 40
0
 40
0
 40
0
 40
0
 40
1
 40
1
 40
1
 40
1
 10
100.222620
 20
1033.908300
 30
0.0
 10
100.178620
 20
1033.516000
 30
0.0
 10
100.258620
 20
1032.991900
 30
0.0
 10
100.144620
 20
1033.604900
 30
0.0
  0
SPLINE
  5
384
100
AcDbEntity
  8
Calque_1
 62
7
100
AcDbSpline
 70
8
 71
3
 72
8
 73
4
 74
0
 40
0
 40
0
 40
0
 40
0
 40
1
 40
1
 40
1
 40
1
 10
100.144620
 20
1033.604900
 30
0.0
 10
100.156620
 20
1033.539900
 30
0.0
 10
100.174620
 20
1033.463200
 30
0.0
 10
100.183620
 20
1033.264400
 30
0.0
  0
SPLINE
  5
385
100
AcDbEntity
  8
Calque_1
 62
7
100
AcDbSpline
 70
8
 71
3
 72
8
 73
4
 74
0
 40
0
 40
0
 40
0
 40
0
 40
1
 40
1
 40
1
 40
1
 10
100.183620
 20
1033.264400
 30
0.0
 10
100.183620
 20
1033.165400
 30
0.0
 10
100.195620
 20
1033.036400
 30
0.0
 10
100.159620
 20
1032.796700
 30
0.0
  0
SPLINE
  5
386
100
AcDbEntity
  8
Calque_1
 62
7
100
AcDbSpline
 70
8
 71
3
 72
8
 73
4
 74
0
 40
0
 40
0
 40
0
 40
0
 40
1
 40
1
 40
1
 40
1
 10
100.159620
 20
1032.796700
 30
0.0
 10
100.141620
 20
1032.676800
 30
0.0
 10
100.112620
 20
1032.526900
 30
0.0
 10
100.038720
 20
1032.324400
 30
0.0
  0
SPLINE
  5
387
100
AcDbEntity
  8
Calque_1
 62
7
100
AcDbSpline
 70
8
 71
3
 72
8
 73
4
 74
0
 40
0
 40
0
 40
0
 40
0
 40
1
 40
1
 40
1
 40
1
 10
100.038720
 20
1032.324400
 30
0.0
 10
100.001720
 20
1032.223100
 30
0.0
 10
99.880120
 20
1031.980800
 30
0.0
 10
99.880120
 20
1031.980700
 30
0.0
  0
LWPOLYLINE
  5
388
100
AcDbEntity
  8
Calque_1
 62
7
100
AcDbPolyline
 90
2
 70
0
 10
109.091620
 20
1031.042600
 30
0.0
 10
109.077620
 20
1031.042600
 30
0.0
  0
SPLINE
  5
389
100
AcDbEntity
  8
Calque_1
 62
7
100
AcDbSpline
 70
8
 71
3
 72
8
 73
4
 74
0
 40
0
 40
0
 40
0
 40
0
 40
1
 40
1
 40
1
 40
1
 10
97.195020
 20
1030.823700
 30
0.0
 10
97.194920
 20
1030.823700
 30
0.0
 10
96.907820
 20
1030.912700
 30
0.0
 10
96.798620
 20
1030.962200
 30
0.0
  0
SPLINE
  5
38a
100
AcDbEntity
  8
Calque_1
 62
7
100
AcDbSpline
 70
8
 71
3
 72
8
 73
4
 74
0
 40
0
 40
0
 40
0
 40
0
 40
1
 40
1
 40
1
 40
1
 10
96.798620
 20
1030.962200
 30
0.0
 10
96.689420
 20
1031.011200
 30
0.0
 10
96.600420
 20
1031.061200
 30
0.0
 10
96.525220
 20
1031.107400
 30
0.0
  0
SPLINE
  5
38b
100
AcDbEntity
  8
Calque_1
 62
7
100
AcDbSpline
 70
8
 71
3
 72
8
 73
4
 74
0
 40
0
 40
0
 40
0
 40
0
 40
1
 40
1
 40
1
 40
1
 10
96.525220
 20
1031.107400
 30
0.0
 10
96.374820
 20
1031.200400
 30
0.0
 10
96.276820
 20
1031.280500
 30
0.0
 10
96.200220
 20
1031.347700
 30
0.0
  0
SPLINE
  5
38c
100
AcDbEntity
  8
Calque_1
 62
7
100
AcDbSpline
 70
8
 71
3
 72
8
 73
4
 74
0
 40
0
 40
0
 40
0
 40
0
 40
1
 40
1
 40
1
 40
1
 10
96.200220
 20
1031.347700
 30
0.0
 10
95.902420
 20
1031.608800
 30
0.0
 10
95.867320
 20
1031.701800
 30
0.0
 10
95.815720
 20
1031.778700
 30
0.0
  0
SPLINE
  5
38d
100
AcDbEntity
  8
Calque_1
 62
7
100
AcDbSpline
 70
8
 71
3
 72
8
 73
4
 74
0
 40
0
 40
0
 40
0
 40
0
 40
1
 40
1
 40
1
 40
1
 10
95.815720
 20
1031.778700
 30
0.0
 10
95.758720
 20
1031.825700
 30
0.0
 10
95.704220
 20
1031.875700
 30
0.0
 10
95.651920
 20
1031.927500
 30
0.0
  0
SPLINE
  5
38e
100
AcDbEntity
  8
Calque_1
 62
7
100
AcDbSpline
 70
8
 71
3
 72
8
 73
4
 74
0
 40
0
 40
0
 40
0
 40
0
 40
1
 40
1
 40
1
 40
1
 10
95.651920
 20
1031.927500
 30
0.0
 10
95.515320
 20
1032.082100
 30
0.0
 10
95.379020
 20
1032.236100
 30
0.0
 10
95.242620
 20
1032.390500
 30
0.0
  0
SPLINE
  5
38f
100
AcDbEntity
  8
Calque_1
 62
7
100
AcDbSpline
 70
8
 71
3
 72
8
 73
4
 74
0
 40
0
 40
0
 40
0
 40
0
 40
1
 40
1
 40
1
 40
1
 10
95.242620
 20
1032.390500
 30
0.0
 10
94.865520
 20
1032.814700
 30
0.0
 10
95.029620
 20
1032.631100
 30
0.0
 10
94.526920
 20
1033.156900
 30
0.0
  0
SPLINE
  5
390
100
AcDbEntity
  8
Calque_1
 62
7
100
AcDbSpline
 70
8
 71
3
 72
8
 73
4
 74
0
 40
0
 40
0
 40
0
 40
0
 40
1
 40
1
 40
1
 40
1
 10
94.526920
 20
1033.156900
 30
0.0
 10
94.509920
 20
1033.174900
 30
0.0
 10
94.492920
 20
1033.191900
 30
0.0
 10
94.476920
 20
1033.209900
 30
0.0
  0
SPLINE
  5
391
100
AcDbEntity
  8
Calque_1
 62
7
100
AcDbSpline
 70
8
 71
3
 72
8
 73
4
 74
0
 40
0
 40
0
 40
0
 40
0
 40
1
 40
1
 40
1
 40
1
 10
94.476920
 20
1033.209900
 30
0.0
 10
93.830720
 20
1033.928700
 30
0.0
 10
93.876420
 20
1033.958600
 30
0.0
 10
93.408720
 20
1034.394900
 30
0.0
  0
SPLINE
  5
392
100
AcDbEntity
  8
Calque_1
 62
7
100
AcDbSpline
 70
8
 71
3
 72
8
 73
4
 74
0
 40
0
 40
0
 40
0
 40
0
 40
1
 40
1
 40
1
 40
1
 10
93.408720
 20
1034.394900
 30
0.0
 10
92.997120
 20
1034.778800
 30
0.0
 10
93.275020
 20
1034.548200
 30
0.0
 10
93.020120
 20
1034.727600
 30
0.0
  0
SPLINE
  5
393
100
AcDbEntity
  8
Calque_1
 62
7
100
AcDbSpline
 70
8
 71
3
 72
8
 73
4
 74
0
 40
0
 40
0
 40
0
 40
0
 40
1
 40
1
 40
1
 40
1
 10
93.020120
 20
1034.727600
 30
0.0
 10
92.765220
 20
1034.907100
 30
0.0
 10
92.475820
 20
1035.170400
 30
0.0
 10
91.890020
 20
1035.767400
 30
0.0
  0
SPLINE
  5
394
100
AcDbEntity
  8
Calque_1
 62
7
100
AcDbSpline
 70
8
 71
3
 72
8
 73
4
 74
0
 40
0
 40
0
 40
0
 40
0
 40
1
 40
1
 40
1
 40
1
 10
91.890020
 20
1035.767400
 30
0.0
 10
91.069620
 20
1036.603200
 30
0.0
 10
90.630420
 20
1037.275900
 30
0.0
 10
90.343820
 20
1037.536800
 30
0.0
  0
SPLINE
  5
395
100
AcDbEntity
  8
Calque_1
 62
7
100
AcDbSpline
 70
8
 71
3
 72
8
 73
4
 74
0
 40
0
 40
0
 40
0
 40
0
 40
1
 40
1
 40
1
 40
1
 10
90.343820
 20
1037.536800
 30
0.0
 10
90.223320
 20
1037.646500
 30
0.0
 10
89.858020
 20
1037.824800
 30
0.0
 10
89.440520
 20
1037.960500
 30
0.0
  0
LWPOLYLINE
  5
396
100
AcDbEntity
  8
Calque_1
 62
7
100
AcDbPolyline
 90
4
 70
0
 10
99.880120
 20
1031.980700
 30
0.0
 10
99.585520
 20
1031.564200
 30
0.0
 10
98.430520
 20
1030.839700
 30
0.0
 10
97.195020
 20
1030.823700
 30
0.0
  0
SPLINE
  5
397
100
AcDbEntity
  8
Calque_1
 62
7
100
AcDbSpline
 70
8
 71
3
 72
8
 73
4
 74
0
 40
0
 40
0
 40
0
 40
0
 40
1
 40
1
 40
1
 40
1
 10
96.151620
 20
1063.112800
 30
0.0
 10
94.932420
 20
1061.602000
 30
0.0
 10
94.411520
 20
1059.422500
 30
0.0
 10
94.154320
 20
1057.342600
 30
0.0
  0
LWPOLYLINE
  5
398
100
AcDbEntity
  8
Calque_1
 62
7
100
AcDbPolyline
 90
2
 70
0
 10
89.440520
 20
1037.960500
 30
0.0
 10
89.444220
 20
1037.956400
 30
0.0
  0
SPLINE
  5
399
100
AcDbEntity
  8
Calque_1
 62
7
100
AcDbSpline
 70
8
 71
3
 72
8
 73
4
 74
0
 40
0
 40
0
 40
0
 40
0
 40
1
 40
1
 40
1
 40
1
 10
94.154320
 20
1057.341600
 30
0.0
 10
94.127320
 20
1057.119000
 30
0.0
 10
94.154320
 20
1056.676400
 30
0.0
 10
94.105320
 20
1055.976400
 30
0.0
  0
SPLINE
  5
39a
100
AcDbEntity
  8
Calque_1
 62
7
100
AcDbSpline
 70
8
 71
3
 72
8
 73
4
 74
0
 40
0
 40
0
 40
0
 40
0
 40
1
 40
1
 40
1
 40
1
 10
94.105320
 20
1055.976400
 30
0.0
 10
94.117320
 20
1056.179400
 30
0.0
 10
94.105320
 20
1055.986400
 30
0.0
 10
94.105320
 20
1055.841500
 30
0.0
  0
SPLINE
  5
39b
100
AcDbEntity
  8
Calque_1
 62
7
100
AcDbSpline
 70
8
 71
3
 72
8
 73
4
 74
0
 40
0
 40
0
 40
0
 40
0
 40
1
 40
1
 40
1
 40
1
 10
94.105320
 20
1055.841500
 30
0.0
 10
94.105320
 20
1055.700800
 30
0.0
 10
94.094320
 20
1055.517700
 30
0.0
 10
94.046320
 20
1055.236900
 30
0.0
  0
SPLINE
  5
39c
100
AcDbEntity
  8
Calque_1
 62
7
100
AcDbSpline
 70
8
 71
3
 72
8
 73
4
 74
0
 40
0
 40
0
 40
0
 40
0
 40
1
 40
1
 40
1
 40
1
 10
94.046320
 20
1055.236900
 30
0.0
 10
93.997320
 20
1054.956000
 30
0.0
 10
94.146820
 20
1054.532400
 30
0.0
 10
93.234920
 20
1053.685500
 30
0.0
  0
SPLINE
  5
39d
100
AcDbEntity
  8
Calque_1
 62
7
100
AcDbSpline
 70
8
 71
3
 72
8
 73
4
 74
0
 40
0
 40
0
 40
0
 40
0
 40
1
 40
1
 40
1
 40
1
 10
93.234920
 20
1053.685500
 30
0.0
 10
92.779020
 20
1053.262100
 30
0.0
 10
91.770720
 20
1052.923100
 30
0.0
 10
91.045420
 20
1053.073200
 30
0.0
  0
SPLINE
  5
39e
100
AcDbEntity
  8
Calque_1
 62
7
100
AcDbSpline
 70
8
 71
3
 72
8
 73
4
 74
0
 40
0
 40
0
 40
0
 40
0
 40
1
 40
1
 40
1
 40
1
 10
91.045420
 20
1053.073200
 30
0.0
 10
90.320220
 20
1053.223300
 30
0.0
 10
89.972720
 20
1053.555800
 30
0.0
 10
89.746320
 20
1053.780100
 30
0.0
  0
SPLINE
  5
39f
100
AcDbEntity
  8
Calque_1
 62
7
100
AcDbSpline
 70
8
 71
3
 72
8
 73
4
 74
0
 40
0
 40
0
 40
0
 40
0
 40
1
 40
1
 40
1
 40
1
 10
89.746320
 20
1053.780100
 30
0.0
 10
89.157020
 20
1054.364000
 30
0.0
 10
89.061820
 20
1054.627000
 30
0.0
 10
88.799620
 20
1055.018300
 30
0.0
  0
SPLINE
  5
3a0
100
AcDbEntity
  8
Calque_1
 62
7
100
AcDbSpline
 70
8
 71
3
 72
8
 73
4
 74
0
 40
0
 40
0
 40
0
 40
0
 40
1
 40
1
 40
1
 40
1
 10
88.799620
 20
1055.018300
 30
0.0
 10
88.537320
 20
1055.409600
 30
0.0
 10
88.272720
 20
1055.822600
 30
0.0
 10
88.252320
 20
1055.853400
 30
0.0
  0
SPLINE
  5
3a1
100
AcDbEntity
  8
Calque_1
 62
7
100
AcDbSpline
 70
8
 71
3
 72
8
 73
4
 74
0
 40
0
 40
0
 40
0
 40
0
 40
1
 40
1
 40
1
 40
1
 10
88.252320
 20
1055.853400
 30
0.0
 10
87.152320
 20
1057.506900
 30
0.0
 10
86.409320
 20
1058.859200
 30
0.0
 10
85.398720
 20
1059.696500
 30
0.0
  0
SPLINE
  5
3a2
100
AcDbEntity
  8
Calque_1
 62
7
100
AcDbSpline
 70
8
 71
3
 72
8
 73
4
 74
0
 40
0
 40
0
 40
0
 40
0
 40
1
 40
1
 40
1
 40
1
 10
85.398720
 20
1059.696500
 30
0.0
 10
84.702520
 20
1060.273500
 30
0.0
 10
85.288220
 20
1060.149100
 30
0.0
 10
84.483520
 20
1060.044800
 30
0.0
  0
SPLINE
  5
3a3
100
AcDbEntity
  8
Calque_1
 62
7
100
AcDbSpline
 70
8
 71
3
 72
8
 73
4
 74
0
 40
0
 40
0
 40
0
 40
0
 40
1
 40
1
 40
1
 40
1
 10
84.483520
 20
1060.044800
 30
0.0
 10
84.825020
 20
1060.088800
 30
0.0
 10
84.517520
 20
1060.044800
 30
0.0
 10
84.241720
 20
1059.846400
 30
0.0
  0
SPLINE
  5
3a4
100
AcDbEntity
  8
Calque_1
 62
7
100
AcDbSpline
 70
8
 71
3
 72
8
 73
4
 74
0
 40
0
 40
0
 40
0
 40
0
 40
1
 40
1
 40
1
 40
1
 10
84.241720
 20
1059.846400
 30
0.0
 10
83.966220
 20
1059.650900
 30
0.0
 10
83.651120
 20
1059.366300
 30
0.0
 10
83.520320
 20
1059.235100
 30
0.0
  0
SPLINE
  5
3a5
100
AcDbEntity
  8
Calque_1
 62
7
100
AcDbSpline
 70
8
 71
3
 72
8
 73
4
 74
0
 40
0
 40
0
 40
0
 40
0
 40
1
 40
1
 40
1
 40
1
 10
83.520320
 20
1059.235100
 30
0.0
 10
82.308520
 20
1058.018800
 30
0.0
 10
81.470020
 20
1056.423100
 30
0.0
 10
81.236220
 20
1055.198600
 30
0.0
  0
SPLINE
  5
3a6
100
AcDbEntity
  8
Calque_1
 62
7
100
AcDbSpline
 70
8
 71
3
 72
8
 73
4
 74
0
 40
0
 40
0
 40
0
 40
0
 40
1
 40
1
 40
1
 40
1
 10
81.236220
 20
1055.198600
 30
0.0
 10
81.135620
 20
1054.671700
 30
0.0
 10
81.097620
 20
1054.053900
 30
0.0
 10
81.060020
 20
1053.321200
 30
0.0
  0
SPLINE
  5
3a7
100
AcDbEntity
  8
Calque_1
 62
7
100
AcDbSpline
 70
8
 71
3
 72
8
 73
4
 74
0
 40
0
 40
0
 40
0
 40
0
 40
1
 40
1
 40
1
 40
1
 10
81.060020
 20
1053.321200
 30
0.0
 10
81.050020
 20
1053.187500
 30
0.0
 10
81.078020
 20
1052.891300
 30
0.0
 10
81.103020
 20
1052.404000
 30
0.0
  0
SPLINE
  5
3a8
100
AcDbEntity
  8
Calque_1
 62
7
100
AcDbSpline
 70
8
 71
3
 72
8
 73
4
 74
0
 40
0
 40
0
 40
0
 40
0
 40
1
 40
1
 40
1
 40
1
 10
81.103020
 20
1052.404000
 30
0.0
 10
81.116020
 20
1052.169900
 30
0.0
 10
81.130020
 20
1052.111900
 30
0.0
 10
81.103020
 20
1052.251500
 30
0.0
  0
SPLINE
  5
3a9
100
AcDbEntity
  8
Calque_1
 62
7
100
AcDbSpline
 70
8
 71
3
 72
8
 73
4
 74
0
 40
0
 40
0
 40
0
 40
0
 40
1
 40
1
 40
1
 40
1
 10
81.103020
 20
1052.251500
 30
0.0
 10
81.103020
 20
1052.267500
 30
0.0
 10
81.091020
 20
1052.273500
 30
0.0
 10
81.087020
 20
1052.289500
 30
0.0
  0
SPLINE
  5
3aa
100
AcDbEntity
  8
Calque_1
 62
7
100
AcDbSpline
 70
8
 71
3
 72
8
 73
4
 74
0
 40
0
 40
0
 40
0
 40
0
 40
1
 40
1
 40
1
 40
1
 10
81.087020
 20
1052.289500
 30
0.0
 10
81.146020
 20
1052.074700
 30
0.0
 10
81.207920
 20
1051.845600
 30
0.0
 10
81.207920
 20
1051.845600
 30
0.0
  0
LWPOLYLINE
  5
3ab
100
AcDbEntity
  8
Calque_1
 62
7
100
AcDbPolyline
 90
2
 70
0
 10
94.154320
 20
1057.342600
 30
0.0
 10
94.154320
 20
1057.341600
 30
0.0
  0
SPLINE
  5
3ac
100
AcDbEntity
  8
Calque_1
 62
7
100
AcDbSpline
 70
8
 71
3
 72
8
 73
4
 74
0
 40
0
 40
0
 40
0
 40
0
 40
1
 40
1
 40
1
 40
1
 10
81.202920
 20
1051.775600
 30
0.0
 10
81.217920
 20
1050.499100
 30
0.0
 10
81.192920
 20
1049.339400
 30
0.0
 10
81.165920
 20
1048.236300
 30
0.0
  0
SPLINE
  5
3ad
100
AcDbEntity
  8
Calque_1
 62
7
100
AcDbSpline
 70
8
 71
3
 72
8
 73
4
 74
0
 40
0
 40
0
 40
0
 40
0
 40
1
 40
1
 40
1
 40
1
 10
81.165920
 20
1048.236300
 30
0.0
 10
81.599620
 20
1048.237300
 30
0.0
 10
81.989120
 20
1048.222300
 30
0.0
 10
82.447420
 20
1048.224300
 30
0.0
  0
SPLINE
  5
3ae
100
AcDbEntity
  8
Calque_1
 62
7
100
AcDbSpline
 70
8
 71
3
 72
8
 73
4
 74
0
 40
0
 40
0
 40
0
 40
0
 40
1
 40
1
 40
1
 40
1
 10
82.447420
 20
1048.224300
 30
0.0
 10
83.280620
 20
1048.224300
 30
0.0
 10
84.057920
 20
1048.209300
 30
0.0
 10
84.779120
 20
1048.223800
 30
0.0
  0
SPLINE
  5
3af
100
AcDbEntity
  8
Calque_1
 62
7
100
AcDbSpline
 70
8
 71
3
 72
8
 73
4
 74
0
 40
0
 40
0
 40
0
 40
0
 40
1
 40
1
 40
1
 40
1
 10
84.779120
 20
1048.223800
 30
0.0
 10
85.183420
 20
1048.233800
 30
0.0
 10
86.319920
 20
1048.278800
 30
0.0
 10
86.731920
 20
1048.310800
 30
0.0
  0
SPLINE
  5
3b0
100
AcDbEntity
  8
Calque_1
 62
7
100
AcDbSpline
 70
8
 71
3
 72
8
 73
4
 74
0
 40
0
 40
0
 40
0
 40
0
 40
1
 40
1
 40
1
 40
1
 10
86.731920
 20
1048.310800
 30
0.0
 10
87.209220
 20
1048.347800
 30
0.0
 10
87.870320
 20
1048.455300
 30
0.0
 10
88.709120
 20
1048.462200
 30
0.0
  0
SPLINE
  5
3b1
100
AcDbEntity
  8
Calque_1
 62
7
100
AcDbSpline
 70
8
 71
3
 72
8
 73
4
 74
0
 40
0
 40
0
 40
0
 40
0
 40
1
 40
1
 40
1
 40
1
 10
88.709120
 20
1048.462200
 30
0.0
 10
89.250720
 20
1048.462200
 30
0.0
 10
89.671920
 20
1048.428200
 30
0.0
 10
89.973120
 20
1048.419200
 30
0.0
  0
SPLINE
  5
3b2
100
AcDbEntity
  8
Calque_1
 62
7
100
AcDbSpline
 70
8
 71
3
 72
8
 73
4
 74
0
 40
0
 40
0
 40
0
 40
0
 40
1
 40
1
 40
1
 40
1
 10
89.973120
 20
1048.419200
 30
0.0
 10
90.787220
 20
1048.394200
 30
0.0
 10
90.600520
 20
1048.403200
 30
0.0
 10
91.452120
 20
1048.409200
 30
0.0
  0
SPLINE
  5
3b3
100
AcDbEntity
  8
Calque_1
 62
7
100
AcDbSpline
 70
8
 71
3
 72
8
 73
4
 74
0
 40
0
 40
0
 40
0
 40
0
 40
1
 40
1
 40
1
 40
1
 10
91.452120
 20
1048.409200
 30
0.0
 10
91.483120
 20
1048.409400
 30
0.0
 10
91.513120
 20
1048.409200
 30
0.0
 10
91.544120
 20
1048.408200
 30
0.0
  0
SPLINE
  5
3b4
100
AcDbEntity
  8
Calque_1
 62
7
100
AcDbSpline
 70
8
 71
3
 72
8
 73
4
 74
0
 40
0
 40
0
 40
0
 40
0
 40
1
 40
1
 40
1
 40
1
 10
91.544120
 20
1048.408200
 30
0.0
 10
92.218220
 20
1048.389200
 30
0.0
 10
93.024620
 20
1048.320200
 30
0.0
 10
93.253520
 20
1048.324200
 30
0.0
  0
SPLINE
  5
3b5
100
AcDbEntity
  8
Calque_1
 62
7
100
AcDbSpline
 70
8
 71
3
 72
8
 73
4
 74
0
 40
0
 40
0
 40
0
 40
0
 40
1
 40
1
 40
1
 40
1
 10
93.253520
 20
1048.324200
 30
0.0
 10
93.324520
 20
1048.325200
 30
0.0
 10
93.569820
 20
1048.357200
 30
0.0
 10
93.992020
 20
1048.374200
 30
0.0
  0
SPLINE
  5
3b6
100
AcDbEntity
  8
Calque_1
 62
7
100
AcDbSpline
 70
8
 71
3
 72
8
 73
4
 74
0
 40
0
 40
0
 40
0
 40
0
 40
1
 40
1
 40
1
 40
1
 10
93.992020
 20
1048.374200
 30
0.0
 10
95.028820
 20
1048.414200
 30
0.0
 10
96.078920
 20
1048.420200
 30
0.0
 10
97.128820
 20
1048.384200
 30
0.0
  0
SPLINE
  5
3b7
100
AcDbEntity
  8
Calque_1
 62
7
100
AcDbSpline
 70
8
 71
3
 72
8
 73
4
 74
0
 40
0
 40
0
 40
0
 40
0
 40
1
 40
1
 40
1
 40
1
 10
97.128820
 20
1048.384200
 30
0.0
 10
98.112220
 20
1048.349200
 30
0.0
 10
98.949320
 20
1048.265300
 30
0.0
 10
99.636620
 20
1048.274600
 30
0.0
  0
SPLINE
  5
3b8
100
AcDbEntity
  8
Calque_1
 62
7
100
AcDbSpline
 70
8
 71
3
 72
8
 73
4
 74
0
 40
0
 40
0
 40
0
 40
0
 40
1
 40
1
 40
1
 40
1
 10
99.636620
 20
1048.274600
 30
0.0
 10
100.691320
 20
1048.288600
 30
0.0
 10
101.900020
 20
1048.387500
 30
0.0
 10
103.265820
 20
1048.313600
 30
0.0
  0
SPLINE
  5
3b9
100
AcDbEntity
  8
Calque_1
 62
7
100
AcDbSpline
 70
8
 71
3
 72
8
 73
4
 74
0
 40
0
 40
0
 40
0
 40
0
 40
1
 40
1
 40
1
 40
1
 10
103.265820
 20
1048.313600
 30
0.0
 10
104.352920
 20
1048.254600
 30
0.0
 10
105.251120
 20
1048.089900
 30
0.0
 10
105.983020
 20
1048.028400
 30
0.0
  0
SPLINE
  5
3ba
100
AcDbEntity
  8
Calque_1
 62
7
100
AcDbSpline
 70
8
 71
3
 72
8
 73
4
 74
0
 40
0
 40
0
 40
0
 40
0
 40
1
 40
1
 40
1
 40
1
 10
105.983020
 20
1048.028400
 30
0.0
 10
106.586420
 20
1047.977400
 30
0.0
 10
107.379120
 20
1048.009400
 30
0.0
 10
108.353920
 20
1047.946400
 30
0.0
  0
SPLINE
  5
3bb
100
AcDbEntity
  8
Calque_1
 62
7
100
AcDbSpline
 70
8
 71
3
 72
8
 73
4
 74
0
 40
0
 40
0
 40
0
 40
0
 40
1
 40
1
 40
1
 40
1
 10
108.353920
 20
1047.946400
 30
0.0
 10
109.524120
 20
1047.871400
 30
0.0
 10
110.492720
 20
1047.677400
 30
0.0
 10
111.295320
 20
1047.599600
 30
0.0
  0
SPLINE
  5
3bc
100
AcDbEntity
  8
Calque_1
 62
7
100
AcDbSpline
 70
8
 71
3
 72
8
 73
4
 74
0
 40
0
 40
0
 40
0
 40
0
 40
1
 40
1
 40
1
 40
1
 10
111.295320
 20
1047.599600
 30
0.0
 10
112.120520
 20
1047.519600
 30
0.0
 10
113.095720
 20
1047.532600
 30
0.0
 10
114.199020
 20
1047.490100
 30
0.0
  0
SPLINE
  5
3bd
100
AcDbEntity
  8
Calque_1
 62
7
100
AcDbSpline
 70
8
 71
3
 72
8
 73
4
 74
0
 40
0
 40
0
 40
0
 40
0
 40
1
 40
1
 40
1
 40
1
 10
114.199020
 20
1047.490100
 30
0.0
 10
115.219620
 20
1047.450100
 30
0.0
 10
116.036420
 20
1047.339200
 30
0.0
 10
116.676420
 20
1047.339200
 30
0.0
  0
SPLINE
  5
3be
100
AcDbEntity
  8
Calque_1
 62
7
100
AcDbSpline
 70
8
 71
3
 72
8
 73
4
 74
0
 40
0
 40
0
 40
0
 40
0
 40
1
 40
1
 40
1
 40
1
 10
116.676420
 20
1047.339200
 30
0.0
 10
117.356420
 20
1047.339200
 30
0.0
 10
118.178520
 20
1047.440100
 30
0.0
 10
119.079420
 20
1047.540200
 30
0.0
  0
SPLINE
  5
3bf
100
AcDbEntity
  8
Calque_1
 62
7
100
AcDbSpline
 70
8
 71
3
 72
8
 73
4
 74
0
 40
0
 40
0
 40
0
 40
0
 40
1
 40
1
 40
1
 40
1
 10
119.079420
 20
1047.540200
 30
0.0
 10
119.016420
 20
1047.832900
 30
0.0
 10
118.880520
 20
1048.356500
 30
0.0
 10
118.946520
 20
1049.218100
 30
0.0
  0
SPLINE
  5
3c0
100
AcDbEntity
  8
Calque_1
 62
7
100
AcDbSpline
 70
8
 71
3
 72
8
 73
4
 74
0
 40
0
 40
0
 40
0
 40
0
 40
1
 40
1
 40
1
 40
1
 10
118.946520
 20
1049.218100
 30
0.0
 10
119.018520
 20
1050.150700
 30
0.0
 10
119.134820
 20
1050.560100
 30
0.0
 10
119.138320
 20
1050.294600
 30
0.0
  0
SPLINE
  5
3c1
100
AcDbEntity
  8
Calque_1
 62
7
100
AcDbSpline
 70
8
 71
3
 72
8
 73
4
 74
0
 40
0
 40
0
 40
0
 40
0
 40
1
 40
1
 40
1
 40
1
 10
119.138320
 20
1050.294600
 30
0.0
 10
119.128320
 20
1051.045800
 30
0.0
 10
119.096320
 20
1051.846000
 30
0.0
 10
119.086320
 20
1052.698500
 30
0.0
  0
LWPOLYLINE
  5
3c2
100
AcDbEntity
  8
Calque_1
 62
7
100
AcDbPolyline
 90
7
 70
0
 10
81.207920
 20
1051.845600
 30
0.0
 10
81.197920
 20
1051.816600
 30
0.0
 10
81.207920
 20
1051.803600
 30
0.0
 10
81.207920
 20
1051.776600
 30
0.0
 10
81.196920
 20
1051.794600
 30
0.0
 10
81.186920
 20
1051.775600
 30
0.0
 10
81.202920
 20
1051.775600
 30
0.0
  0
SPLINE
  5
3c3
100
AcDbEntity
  8
Calque_1
 62
7
100
AcDbSpline
 70
8
 71
3
 72
8
 73
4
 74
0
 40
0
 40
0
 40
0
 40
0
 40
1
 40
1
 40
1
 40
1
 10
119.086320
 20
1052.699100
 30
0.0
 10
119.067320
 20
1054.318800
 30
0.0
 10
119.431920
 20
1055.359900
 30
0.0
 10
119.422120
 20
1055.696300
 30
0.0
  0
SPLINE
  5
3c4
100
AcDbEntity
  8
Calque_1
 62
7
100
AcDbSpline
 70
8
 71
3
 72
8
 73
4
 74
0
 40
0
 40
0
 40
0
 40
0
 40
1
 40
1
 40
1
 40
1
 10
119.422120
 20
1055.696300
 30
0.0
 10
119.386120
 20
1056.922500
 30
0.0
 10
119.172220
 20
1057.391900
 30
0.0
 10
118.710020
 20
1058.997400
 30
0.0
  0
SPLINE
  5
3c5
100
AcDbEntity
  8
Calque_1
 62
7
100
AcDbSpline
 70
8
 71
3
 72
8
 73
4
 74
0
 40
0
 40
0
 40
0
 40
0
 40
1
 40
1
 40
1
 40
1
 10
118.710020
 20
1058.997400
 30
0.0
 10
118.856920
 20
1058.487300
 30
0.0
 10
118.612020
 20
1059.088400
 30
0.0
 10
118.092020
 20
1059.481100
 30
0.0
  0
SPLINE
  5
3c6
100
AcDbEntity
  8
Calque_1
 62
7
100
AcDbSpline
 70
8
 71
3
 72
8
 73
4
 74
0
 40
0
 40
0
 40
0
 40
0
 40
1
 40
1
 40
1
 40
1
 10
118.092020
 20
1059.481100
 30
0.0
 10
117.861720
 20
1059.655200
 30
0.0
 10
117.589020
 20
1059.815700
 30
0.0
 10
117.330820
 20
1059.957500
 30
0.0
  0
SPLINE
  5
3c7
100
AcDbEntity
  8
Calque_1
 62
7
100
AcDbSpline
 70
8
 71
3
 72
8
 73
4
 74
0
 40
0
 40
0
 40
0
 40
0
 40
1
 40
1
 40
1
 40
1
 10
117.330820
 20
1059.957500
 30
0.0
 10
116.895120
 20
1059.614200
 30
0.0
 10
116.452020
 20
1059.154800
 30
0.0
 10
116.119020
 20
1058.593300
 30
0.0
  0
SPLINE
  5
3c8
100
AcDbEntity
  8
Calque_1
 62
7
100
AcDbSpline
 70
8
 71
3
 72
8
 73
4
 74
0
 40
0
 40
0
 40
0
 40
0
 40
1
 40
1
 40
1
 40
1
 10
116.119020
 20
1058.593300
 30
0.0
 10
115.687620
 20
1057.865900
 30
0.0
 10
115.473220
 20
1057.035600
 30
0.0
 10
115.463720
 20
1056.773800
 30
0.0
  0
SPLINE
  5
3c9
100
AcDbEntity
  8
Calque_1
 62
7
100
AcDbSpline
 70
8
 71
3
 72
8
 73
4
 74
0
 40
0
 40
0
 40
0
 40
0
 40
1
 40
1
 40
1
 40
1
 10
115.463720
 20
1056.773800
 30
0.0
 10
115.463720
 20
1056.755800
 30
0.0
 10
115.560720
 20
1056.347400
 30
0.0
 10
115.555720
 20
1055.498400
 30
0.0
  0
LWPOLYLINE
  5
3ca
100
AcDbEntity
  8
Calque_1
 62
7
100
AcDbPolyline
 90
2
 70
0
 10
119.086320
 20
1052.698500
 30
0.0
 10
119.086320
 20
1052.699100
 30
0.0
  0
SPLINE
  5
3cb
100
AcDbEntity
  8
Calque_1
 62
7
100
AcDbSpline
 70
8
 71
3
 72
8
 73
4
 74
0
 40
0
 40
0
 40
0
 40
0
 40
1
 40
1
 40
1
 40
1
 10
115.555720
 20
1055.497400
 30
0.0
 10
115.555520
 20
1055.441400
 30
0.0
 10
115.555720
 20
1055.377800
 30
0.0
 10
115.539720
 20
1055.226100
 30
0.0
  0
SPLINE
  5
3cc
100
AcDbEntity
  8
Calque_1
 62
7
100
AcDbSpline
 70
8
 71
3
 72
8
 73
4
 74
0
 40
0
 40
0
 40
0
 40
0
 40
1
 40
1
 40
1
 40
1
 10
115.539720
 20
1055.226100
 30
0.0
 10
115.529720
 20
1055.149100
 30
0.0
 10
115.521720
 20
1055.053000
 30
0.0
 10
115.472720
 20
1054.871100
 30
0.0
  0
SPLINE
  5
3cd
100
AcDbEntity
  8
Calque_1
 62
7
100
AcDbSpline
 70
8
 71
3
 72
8
 73
4
 74
0
 40
0
 40
0
 40
0
 40
0
 40
1
 40
1
 40
1
 40
1
 10
115.472720
 20
1054.871100
 30
0.0
 10
115.448720
 20
1054.780100
 30
0.0
 10
115.415720
 20
1054.666300
 30
0.0
 10
115.343520
 20
1054.505200
 30
0.0
  0
SPLINE
  5
3ce
100
AcDbEntity
  8
Calque_1
 62
7
100
AcDbSpline
 70
8
 71
3
 72
8
 73
4
 74
0
 40
0
 40
0
 40
0
 40
0
 40
1
 40
1
 40
1
 40
1
 10
115.343520
 20
1054.505200
 30
0.0
 10
115.307520
 20
1054.424200
 30
0.0
 10
115.261520
 20
1054.331800
 30
0.0
 10
115.194220
 20
1054.223000
 30
0.0
  0
SPLINE
  5
3cf
100
AcDbEntity
  8
Calque_1
 62
7
100
AcDbSpline
 70
8
 71
3
 72
8
 73
4
 74
0
 40
0
 40
0
 40
0
 40
0
 40
1
 40
1
 40
1
 40
1
 10
115.194220
 20
1054.223000
 30
0.0
 10
115.127220
 20
1054.114200
 30
0.0
 10
114.910020
 20
1053.850100
 30
0.0
 10
114.909920
 20
1053.849900
 30
0.0
  0
LWPOLYLINE
  5
3d0
100
AcDbEntity
  8
Calque_1
 62
7
100
AcDbPolyline
 90
2
 70
0
 10
115.555720
 20
1055.498400
 30
0.0
 10
115.555720
 20
1055.497400
 30
0.0
  0
SPLINE
  5
3d1
100
AcDbEntity
  8
Calque_1
 62
7
100
AcDbSpline
 70
8
 71
3
 72
8
 73
4
 74
0
 40
0
 40
0
 40
0
 40
0
 40
1
 40
1
 40
1
 40
1
 10
111.972720
 20
1053.392900
 30
0.0
 10
111.972520
 20
1053.393000
 30
0.0
 10
111.669320
 20
1053.591000
 30
0.0
 10
111.567520
 20
1053.680200
 30
0.0
  0
SPLINE
  5
3d2
100
AcDbEntity
  8
Calque_1
 62
7
100
AcDbSpline
 70
8
 71
3
 72
8
 73
4
 74
0
 40
0
 40
0
 40
0
 40
0
 40
1
 40
1
 40
1
 40
1
 10
111.567520
 20
1053.680200
 30
0.0
 10
111.465820
 20
1053.769200
 30
0.0
 10
111.390920
 20
1053.849000
 30
0.0
 10
111.330320
 20
1053.919500
 30
0.0
  0
SPLINE
  5
3d3
100
AcDbEntity
  8
Calque_1
 62
7
100
AcDbSpline
 70
8
 71
3
 72
8
 73
4
 74
0
 40
0
 40
0
 40
0
 40
0
 40
1
 40
1
 40
1
 40
1
 10
111.330320
 20
1053.919500
 30
0.0
 10
111.209120
 20
1054.060400
 30
0.0
 10
111.142620
 20
1054.164700
 30
0.0
 10
111.092120
 20
1054.248700
 30
0.0
  0
SPLINE
  5
3d4
100
AcDbEntity
  8
Calque_1
 62
7
100
AcDbSpline
 70
8
 71
3
 72
8
 73
4
 74
0
 40
0
 40
0
 40
0
 40
0
 40
1
 40
1
 40
1
 40
1
 10
111.092120
 20
1054.248700
 30
0.0
 10
110.890120
 20
1054.584500
 30
0.0
 10
110.891920
 20
1054.663500
 30
0.0
 10
110.865220
 20
1054.744200
 30
0.0
  0
SPLINE
  5
3d5
100
AcDbEntity
  8
Calque_1
 62
7
100
AcDbSpline
 70
8
 71
3
 72
8
 73
4
 74
0
 40
0
 40
0
 40
0
 40
0
 40
1
 40
1
 40
1
 40
1
 10
110.865220
 20
1054.744200
 30
0.0
 10
110.758620
 20
1055.067100
 30
0.0
 10
110.782220
 20
1055.054000
 30
0.0
 10
110.767220
 20
1055.124100
 30
0.0
  0
SPLINE
  5
3d6
100
AcDbEntity
  8
Calque_1
 62
7
100
AcDbSpline
 70
8
 71
3
 72
8
 73
4
 74
0
 40
0
 40
0
 40
0
 40
0
 40
1
 40
1
 40
1
 40
1
 10
110.767220
 20
1055.124100
 30
0.0
 10
110.738220
 20
1055.264200
 30
0.0
 10
110.697220
 20
1055.446300
 30
0.0
 10
110.730220
 20
1055.314200
 30
0.0
  0
SPLINE
  5
3d7
100
AcDbEntity
  8
Calque_1
 62
7
100
AcDbSpline
 70
8
 71
3
 72
8
 73
4
 74
0
 40
0
 40
0
 40
0
 40
0
 40
1
 40
1
 40
1
 40
1
 10
110.730220
 20
1055.314200
 30
0.0
 10
110.386420
 20
1056.639100
 30
0.0
 10
110.135320
 20
1057.853700
 30
0.0
 10
109.793820
 20
1058.891300
 30
0.0
  0
SPLINE
  5
3d8
100
AcDbEntity
  8
Calque_1
 62
7
100
AcDbSpline
 70
8
 71
3
 72
8
 73
4
 74
0
 40
0
 40
0
 40
0
 40
0
 40
1
 40
1
 40
1
 40
1
 10
109.793820
 20
1058.891300
 30
0.0
 10
109.329420
 20
1060.302400
 30
0.0
 10
108.968320
 20
1061.541300
 30
0.0
 10
108.506120
 20
1062.575300
 30
0.0
  0
SPLINE
  5
3d9
100
AcDbEntity
  8
Calque_1
 62
7
100
AcDbSpline
 70
8
 71
3
 72
8
 73
4
 74
0
 40
0
 40
0
 40
0
 40
0
 40
1
 40
1
 40
1
 40
1
 10
108.506120
 20
1062.575300
 30
0.0
 10
108.444120
 20
1062.645300
 30
0.0
 10
108.316120
 20
1062.802000
 30
0.0
 10
108.150020
 20
1062.902900
 30
0.0
  0
SPLINE
  5
3da
100
AcDbEntity
  8
Calque_1
 62
7
100
AcDbSpline
 70
8
 71
3
 72
8
 73
4
 74
0
 40
0
 40
0
 40
0
 40
0
 40
1
 40
1
 40
1
 40
1
 10
108.150020
 20
1062.902900
 30
0.0
 10
108.004520
 20
1062.990900
 30
0.0
 10
107.940920
 20
1063.004100
 30
0.0
 10
107.786220
 20
1063.074500
 30
0.0
  0
SPLINE
  5
3db
100
AcDbEntity
  8
Calque_1
 62
7
100
AcDbSpline
 70
8
 71
3
 72
8
 73
4
 74
0
 40
0
 40
0
 40
0
 40
0
 40
1
 40
1
 40
1
 40
1
 10
107.786220
 20
1063.074500
 30
0.0
 10
107.672320
 20
1062.988500
 30
0.0
 10
107.623820
 20
1062.955300
 30
0.0
 10
107.463220
 20
1062.833100
 30
0.0
  0
SPLINE
  5
3dc
100
AcDbEntity
  8
Calque_1
 62
7
100
AcDbSpline
 70
8
 71
3
 72
8
 73
4
 74
0
 40
0
 40
0
 40
0
 40
0
 40
1
 40
1
 40
1
 40
1
 10
107.463220
 20
1062.833100
 30
0.0
 10
107.359920
 20
1062.754100
 30
0.0
 10
107.191220
 20
1062.559100
 30
0.0
 10
106.979020
 20
1062.191800
 30
0.0
  0
SPLINE
  5
3dd
100
AcDbEntity
  8
Calque_1
 62
7
100
AcDbSpline
 70
8
 71
3
 72
8
 73
4
 74
0
 40
0
 40
0
 40
0
 40
0
 40
1
 40
1
 40
1
 40
1
 10
106.979020
 20
1062.191800
 30
0.0
 10
106.017920
 20
1060.527900
 30
0.0
 10
105.834720
 20
1060.080400
 30
0.0
 10
105.778120
 20
1059.819900
 30
0.0
  0
SPLINE
  5
3de
100
AcDbEntity
  8
Calque_1
 62
7
100
AcDbSpline
 70
8
 71
3
 72
8
 73
4
 74
0
 40
0
 40
0
 40
0
 40
0
 40
1
 40
1
 40
1
 40
1
 10
105.778120
 20
1059.819900
 30
0.0
 10
105.721120
 20
1059.559500
 30
0.0
 10
105.725120
 20
1058.793700
 30
0.0
 10
105.496420
 20
1056.996300
 30
0.0
  0
LWPOLYLINE
  5
3df
100
AcDbEntity
  8
Calque_1
 62
7
100
AcDbPolyline
 90
5
 70
0
 10
114.909920
 20
1053.849900
 30
0.0
 10
114.379220
 20
1053.421500
 30
0.0
 10
113.546720
 20
1053.116600
 30
0.0
 10
112.641920
 20
1053.138600
 30
0.0
 10
111.972720
 20
1053.392900
 30
0.0
  0
SPLINE
  5
3e0
100
AcDbEntity
  8
Calque_1
 62
7
100
AcDbSpline
 70
8
 71
3
 72
8
 73
4
 74
0
 40
0
 40
0
 40
0
 40
0
 40
1
 40
1
 40
1
 40
1
 10
105.496420
 20
1056.995300
 30
0.0
 10
105.445420
 20
1056.598700
 30
0.0
 10
105.205620
 20
1055.747900
 30
0.0
 10
104.345120
 20
1055.232600
 30
0.0
  0
SPLINE
  5
3e1
100
AcDbEntity
  8
Calque_1
 62
7
100
AcDbSpline
 70
8
 71
3
 72
8
 73
4
 74
0
 40
0
 40
0
 40
0
 40
0
 40
1
 40
1
 40
1
 40
1
 10
104.345120
 20
1055.232600
 30
0.0
 10
103.484420
 20
1054.717200
 30
0.0
 10
102.645320
 20
1054.903900
 30
0.0
 10
102.278020
 20
1055.038800
 30
0.0
  0
SPLINE
  5
3e2
100
AcDbEntity
  8
Calque_1
 62
7
100
AcDbSpline
 70
8
 71
3
 72
8
 73
4
 74
0
 40
0
 40
0
 40
0
 40
0
 40
1
 40
1
 40
1
 40
1
 10
102.278020
 20
1055.038800
 30
0.0
 10
101.543520
 20
1055.308600
 30
0.0
 10
101.522320
 20
1055.479300
 30
0.0
 10
101.414020
 20
1055.584500
 30
0.0
  0
SPLINE
  5
3e3
100
AcDbEntity
  8
Calque_1
 62
7
100
AcDbSpline
 70
8
 71
3
 72
8
 73
4
 74
0
 40
0
 40
0
 40
0
 40
0
 40
1
 40
1
 40
1
 40
1
 10
101.414020
 20
1055.584500
 30
0.0
 10
101.197320
 20
1055.794900
 30
0.0
 10
101.185120
 20
1055.816900
 30
0.0
 10
101.040920
 20
1056.036700
 30
0.0
  0
SPLINE
  5
3e4
100
AcDbEntity
  8
Calque_1
 62
7
100
AcDbSpline
 70
8
 71
3
 72
8
 73
4
 74
0
 40
0
 40
0
 40
0
 40
0
 40
1
 40
1
 40
1
 40
1
 10
101.040920
 20
1056.036700
 30
0.0
 10
100.847320
 20
1056.331700
 30
0.0
 10
100.762120
 20
1056.511300
 30
0.0
 10
100.742220
 20
1056.545200
 30
0.0
  0
SPLINE
  5
3e5
100
AcDbEntity
  8
Calque_1
 62
7
100
AcDbSpline
 70
8
 71
3
 72
8
 73
4
 74
0
 40
0
 40
0
 40
0
 40
0
 40
1
 40
1
 40
1
 40
1
 10
100.742220
 20
1056.545200
 30
0.0
 10
99.303920
 20
1058.978700
 30
0.0
 10
98.672320
 20
1060.238100
 30
0.0
 10
96.977620
 20
1062.279200
 30
0.0
  0
SPLINE
  5
3e6
100
AcDbEntity
  8
Calque_1
 62
7
100
AcDbSpline
 70
8
 71
3
 72
8
 73
4
 74
0
 40
0
 40
0
 40
0
 40
0
 40
1
 40
1
 40
1
 40
1
 10
96.977620
 20
1062.279200
 30
0.0
 10
96.677320
 20
1062.640800
 30
0.0
 10
96.393920
 20
1062.920200
 30
0.0
 10
96.150820
 20
1063.114300
 30
0.0
  0
LWPOLYLINE
  5
3e7
100
AcDbEntity
  8
Calque_1
 62
7
100
AcDbPolyline
 90
2
 70
0
 10
105.496420
 20
1056.996300
 30
0.0
 10
105.496420
 20
1056.995300
 30
0.0
  0
LWPOLYLINE
  5
3e8
100
AcDbEntity
  8
Calque_1
 62
7
100
AcDbPolyline
 90
2
 70
0
 10
96.150820
 20
1063.114300
 30
0.0
 10
96.151620
 20
1063.112800
 30
0.0
  0
ENDSEC
  0
SECTION
  2
OBJECTS
  0
DICTIONARY
  5
C
330
0
100
AcDbDictionary
  3
ACAD_GROUP
350
D
  3
ACAD_MLINESTYLE
350
17
  0
DICTIONARY
  5
D
330
C
100
AcDbDictionary
  0
DICTIONARY
  5
1A
330
C
100
AcDbDictionary
  0
DICTIONARY
  5
17
330
C
100
AcDbDictionary
  3
STANDARD
350
18
  0
DICTIONARY
  5
19
330
C
100
AcDbDictionary
  0
ENDSEC
  0
EOF
