  0
SECTION
  2
HEADER
  9
$ACADVER
  1
AC1014
  9
$HANDSEED
  5
FFFF
  9
$INSUNITS
 70
     4
  9
$MEASUREMENT
 70
     1
  0
ENDSEC
  0
SECTION
  2
TABLES
  0
TABLE
  2
VPORT
  5
8
330
0
100
AcDbSymbolTable
 70
     4
  0
VPORT
  5
2E
330
8
100
AcDbSymbolTableRecord
100
AcDbViewportTableRecord
  2
*ACTIVE
 70
     0
 10
0.0
 20
0.0
 11
1.0
 21
1.0
 12
210.0
 22
148.5
 13
0.0
 23
0.0
 14
10.0
 24
10.0
 15
10.0
 25
10.0
 16
0.0
 26
0.0
 36
1.0
 17
0.0
 27
0.0
 37
0.0
 40
341.0
 41
1.24
 42
50.0
 43
0.0
 44
0.0
 50
0.0
 51
0.0
 71
     0
 72
   100
 73
     1
 74
     3
 75
     0
 76
     0
 77
     0
 78
     0
  0
ENDTAB
  0
TABLE
  2
LTYPE
  5
5
330
0
100
AcDbSymbolTable
 70
     1
  0
LTYPE
  5
14
330
5
100
AcDbSymbolTableRecord
100
AcDbLinetypeTableRecord
  2
BYBLOCK
 70
     0
  3

 72
    65
 73
     0
 40
0.0
  0
LTYPE
  5
15
330
5
100
AcDbSymbolTableRecord
100
AcDbLinetypeTableRecord
  2
BYLAYER
 70
     0
  3

 72
    65
 73
     0
 40
0.0
  0
LTYPE
  5
16
330
5
100
AcDbSymbolTableRecord
100
AcDbLinetypeTableRecord
  2
CONTINUOUS
 70
     0
  3
Solid line
 72
    65
 73
     0
 40
0.0
  0
ENDTAB
  0
TABLE
  2
LAYER
  5
2
100
AcDbSymbolTable
 70
2
  0
LAYER
  5
50
100
AcDbSymbolTableRecord
100
AcDbLayerTableRecord
  2
0
 70
0
  6
CONTINUOUS
  0
LAYER
  5
51
100
AcDbSymbolTableRecord
100
AcDbLayerTableRecord
  2
Calque_1
 70
0
  6
CONTINUOUS
  0
ENDTAB
  0
TABLE
  2
STYLE
  5
3
330
0
100
AcDbSymbolTable
 70
     1
  0
STYLE
  5
11
330
3
100
AcDbSymbolTableRecord
100
AcDbTextStyleTableRecord
  2
STANDARD
 70
     0
 40
0.0
 41
1.0
 50
0.0
 71
     0
 42
2.5
  3
txt
  4

  0
ENDTAB
  0
TABLE
  2
VIEW
  5
6
330
0
100
AcDbSymbolTable
 70
     0
  0
ENDTAB
  0
TABLE
  2
UCS
  5
7
330
0
100
AcDbSymbolTable
 70
     0
  0
ENDTAB
  0
TABLE
  2
APPID
  5
9
330
0
100
AcDbSymbolTable
 70
     2
  0
APPID
  5
12
330
9
100
AcDbSymbolTableRecord
100
AcDbRegAppTableRecord
  2
ACAD
 70
     0
  0
ENDTAB
  0
TABLE
  2
DIMSTYLE
  5
A
330
0
100
AcDbSymbolTable
 70
     1
  0
DIMSTYLE
105
27
330
A
100
AcDbSymbolTableRecord
100
AcDbDimStyleTableRecord
  2
ISO-25
 70
     0
  3

  4

  5

  6

  7

 40
1.0
 41
2.5
 42
0.625
 43
3.75
 44
1.25
 45
0.0
 46
0.0
 47
0.0
 48
0.0
140
2.5
141
2.5
142
0.0
143
0.03937007874016
144
1.0
145
0.0
146
1.0
147
0.625
 71
     0
 72
     0
 73
     0
 74
     0
 75
     0
 76
     0
 77
     1
 78
     8
170
     0
171
     3
172
     1
173
     0
174
     0
175
     0
176
     0
177
     0
178
     0
270
     2
271
     2
272
     2
273
     2
274
     3
340
11
275
     0
280
     0
281
     0
282
     0
283
     0
284
     8
285
     0
286
     0
287
     3
288
     0
  0
ENDTAB
  0
TABLE
  2
BLOCK_RECORD
  5
1
330
0
100
AcDbSymbolTable
 70
     1
  0
BLOCK_RECORD
  5
1F
330
1
100
AcDbSymbolTableRecord
100
AcDbBlockTableRecord
  2
*MODEL_SPACE
  0
BLOCK_RECORD
  5
1B
330
1
100
AcDbSymbolTableRecord
100
AcDbBlockTableRecord
  2
*PAPER_SPACE
  0
ENDTAB
  0
ENDSEC
  0
SECTION
  2
BLOCKS
  0
BLOCK
  5
20
330
1F
100
AcDbEntity
  8
0
100
AcDbBlockBegin
  2
*MODEL_SPACE
 70
     0
 10
0.0
 20
0.0
 30
0.0
  3
*MODEL_SPACE
  1

  0
ENDBLK
  5
21
330
1F
100
AcDbEntity
  8
0
100
AcDbBlockEnd
  0
BLOCK
  5
1C
330
1B
100
AcDbEntity
 67
     1
  8
0
100
AcDbBlockBegin
  2
*PAPER_SPACE
  1

  0
ENDBLK
  5
1D
330
1B
100
AcDbEntity
 67
     1
  8
0
100
AcDbBlockEnd
  0
ENDSEC
  0
SECTION
  2
ENTITIES
  0
SPLINE
  5
100
100
AcDbEntity
  8
Calque_1
 62
7
100
AcDbSpline
 70
8
 71
3
 72
8
 73
4
 74
0
 40
0
 40
0
 40
0
 40
0
 40
1
 40
1
 40
1
 40
1
 10
371.953230
 20
915.587230
 30
0.0
 10
371.883130
 20
915.728920
 30
0.0
 10
371.809710
 20
915.803160
 30
0.0
 10
371.757590
 20
915.861580
 30
0.0
  0
SPLINE
  5
101
100
AcDbEntity
  8
Calque_1
 62
7
100
AcDbSpline
 70
8
 71
3
 72
8
 73
4
 74
0
 40
0
 40
0
 40
0
 40
0
 40
1
 40
1
 40
1
 40
1
 10
371.757590
 20
915.861580
 30
0.0
 10
371.596920
 20
915.877780
 30
0.0
 10
370.821420
 20
916.106270
 30
0.0
 10
370.385840
 20
916.180700
 30
0.0
  0
SPLINE
  5
102
100
AcDbEntity
  8
Calque_1
 62
7
100
AcDbSpline
 70
8
 71
3
 72
8
 73
4
 74
0
 40
0
 40
0
 40
0
 40
0
 40
1
 40
1
 40
1
 40
1
 10
370.385840
 20
916.180700
 30
0.0
 10
369.256180
 20
916.373830
 30
0.0
 10
368.431880
 20
916.398610
 30
0.0
 10
367.820310
 20
916.184700
 30
0.0
  0
SPLINE
  5
103
100
AcDbEntity
  8
Calque_1
 62
7
100
AcDbSpline
 70
8
 71
3
 72
8
 73
4
 74
0
 40
0
 40
0
 40
0
 40
0
 40
1
 40
1
 40
1
 40
1
 10
367.820310
 20
916.184700
 30
0.0
 10
367.974210
 20
916.238500
 30
0.0
 10
367.763110
 20
916.115700
 30
0.0
 10
367.201880
 20
915.781980
 30
0.0
  0
SPLINE
  5
104
100
AcDbEntity
  8
Calque_1
 62
7
100
AcDbSpline
 70
8
 71
3
 72
8
 73
4
 74
0
 40
0
 40
0
 40
0
 40
0
 40
1
 40
1
 40
1
 40
1
 10
367.201880
 20
915.781980
 30
0.0
 10
366.559090
 20
915.399510
 30
0.0
 10
366.075310
 20
915.146480
 30
0.0
 10
365.803680
 20
914.943860
 30
0.0
  0
SPLINE
  5
105
100
AcDbEntity
  8
Calque_1
 62
7
100
AcDbSpline
 70
8
 71
3
 72
8
 73
4
 74
0
 40
0
 40
0
 40
0
 40
0
 40
1
 40
1
 40
1
 40
1
 10
365.803680
 20
914.943860
 30
0.0
 10
363.258960
 20
913.041690
 30
0.0
 10
361.870920
 20
909.398800
 30
0.0
 10
359.539970
 20
905.718990
 30
0.0
  0
SPLINE
  5
106
100
AcDbEntity
  8
Calque_1
 62
7
100
AcDbSpline
 70
8
 71
3
 72
8
 73
4
 74
0
 40
0
 40
0
 40
0
 40
0
 40
1
 40
1
 40
1
 40
1
 10
359.539970
 20
905.718990
 30
0.0
 10
359.460670
 20
905.593130
 30
0.0
 10
359.412960
 20
905.477280
 30
0.0
 10
359.331060
 20
905.351780
 30
0.0
  0
SPLINE
  5
107
100
AcDbEntity
  8
Calque_1
 62
7
100
AcDbSpline
 70
8
 71
3
 72
8
 73
4
 74
0
 40
0
 40
0
 40
0
 40
0
 40
1
 40
1
 40
1
 40
1
 10
359.331060
 20
905.351780
 30
0.0
 10
358.622170
 20
904.264610
 30
0.0
 10
357.573490
 20
903.116010
 30
0.0
 10
356.983090
 20
902.475690
 30
0.0
  0
SPLINE
  5
108
100
AcDbEntity
  8
Calque_1
 62
7
100
AcDbSpline
 70
8
 71
3
 72
8
 73
4
 74
0
 40
0
 40
0
 40
0
 40
0
 40
1
 40
1
 40
1
 40
1
 10
356.983090
 20
902.475690
 30
0.0
 10
355.279510
 20
900.628020
 30
0.0
 10
353.423740
 20
899.387020
 30
0.0
 10
351.671950
 20
898.162430
 30
0.0
  0
SPLINE
  5
109
100
AcDbEntity
  8
Calque_1
 62
7
100
AcDbSpline
 70
8
 71
3
 72
8
 73
4
 74
0
 40
0
 40
0
 40
0
 40
0
 40
1
 40
1
 40
1
 40
1
 10
351.671950
 20
898.162430
 30
0.0
 10
350.771400
 20
897.532820
 30
0.0
 10
349.794930
 20
896.693430
 30
0.0
 10
348.570520
 20
895.893600
 30
0.0
  0
SPLINE
  5
10a
100
AcDbEntity
  8
Calque_1
 62
7
100
AcDbSpline
 70
8
 71
3
 72
8
 73
4
 74
0
 40
0
 40
0
 40
0
 40
0
 40
1
 40
1
 40
1
 40
1
 10
348.570520
 20
895.893600
 30
0.0
 10
346.331460
 20
894.431850
 30
0.0
 10
344.100830
 20
893.437340
 30
0.0
 10
342.297050
 20
892.249720
 30
0.0
  0
SPLINE
  5
10b
100
AcDbEntity
  8
Calque_1
 62
7
100
AcDbSpline
 70
8
 71
3
 72
8
 73
4
 74
0
 40
0
 40
0
 40
0
 40
0
 40
1
 40
1
 40
1
 40
1
 10
342.297050
 20
892.249720
 30
0.0
 10
341.705740
 20
891.860430
 30
0.0
 10
341.007940
 20
891.285940
 30
0.0
 10
340.079150
 20
890.716400
 30
0.0
  0
SPLINE
  5
10c
100
AcDbEntity
  8
Calque_1
 62
7
100
AcDbSpline
 70
8
 71
3
 72
8
 73
4
 74
0
 40
0
 40
0
 40
0
 40
0
 40
1
 40
1
 40
1
 40
1
 10
340.079150
 20
890.716400
 30
0.0
 10
337.926690
 20
889.396420
 30
0.0
 10
335.452540
 20
888.376880
 30
0.0
 10
332.946930
 20
887.848180
 30
0.0
  0
SPLINE
  5
10d
100
AcDbEntity
  8
Calque_1
 62
7
100
AcDbSpline
 70
8
 71
3
 72
8
 73
4
 74
0
 40
0
 40
0
 40
0
 40
0
 40
1
 40
1
 40
1
 40
1
 10
332.946930
 20
887.848180
 30
0.0
 10
331.788820
 20
887.603820
 30
0.0
 10
329.680320
 20
887.203310
 30
0.0
 10
327.840210
 20
888.494460
 30
0.0
  0
SPLINE
  5
10e
100
AcDbEntity
  8
Calque_1
 62
7
100
AcDbSpline
 70
8
 71
3
 72
8
 73
4
 74
0
 40
0
 40
0
 40
0
 40
0
 40
1
 40
1
 40
1
 40
1
 10
327.840210
 20
888.494460
 30
0.0
 10
327.206550
 20
888.939020
 30
0.0
 10
326.726020
 20
889.462150
 30
0.0
 10
326.350220
 20
890.001400
 30
0.0
  0
SPLINE
  5
10f
100
AcDbEntity
  8
Calque_1
 62
7
100
AcDbSpline
 70
8
 71
3
 72
8
 73
4
 74
0
 40
0
 40
0
 40
0
 40
0
 40
1
 40
1
 40
1
 40
1
 10
326.350220
 20
890.001400
 30
0.0
 10
325.973870
 20
890.540590
 30
0.0
 10
325.702120
 20
891.096150
 30
0.0
 10
325.489300
 20
891.605880
 30
0.0
  0
SPLINE
  5
110
100
AcDbEntity
  8
Calque_1
 62
7
100
AcDbSpline
 70
8
 71
3
 72
8
 73
4
 74
0
 40
0
 40
0
 40
0
 40
0
 40
1
 40
1
 40
1
 40
1
 10
325.489300
 20
891.605880
 30
0.0
 10
325.412200
 20
891.789890
 30
0.0
 10
325.133330
 20
892.248160
 30
0.0
 10
324.982310
 20
893.070130
 30
0.0
  0
SPLINE
  5
111
100
AcDbEntity
  8
Calque_1
 62
7
100
AcDbSpline
 70
8
 71
3
 72
8
 73
4
 74
0
 40
0
 40
0
 40
0
 40
0
 40
1
 40
1
 40
1
 40
1
 10
324.982310
 20
893.070130
 30
0.0
 10
324.789400
 20
894.119510
 30
0.0
 10
325.021510
 20
894.574480
 30
0.0
 10
325.006210
 20
894.378610
 30
0.0
  0
SPLINE
  5
112
100
AcDbEntity
  8
Calque_1
 62
7
100
AcDbSpline
 70
8
 71
3
 72
8
 73
4
 74
0
 40
0
 40
0
 40
0
 40
0
 40
1
 40
1
 40
1
 40
1
 10
325.006210
 20
894.378610
 30
0.0
 10
324.995810
 20
894.244370
 30
0.0
 10
325.025510
 20
894.738940
 30
0.0
 10
325.058510
 20
895.133830
 30
0.0
  0
SPLINE
  5
113
100
AcDbEntity
  8
Calque_1
 62
7
100
AcDbSpline
 70
8
 71
3
 72
8
 73
4
 74
0
 40
0
 40
0
 40
0
 40
0
 40
1
 40
1
 40
1
 40
1
 10
325.058510
 20
895.133830
 30
0.0
 10
325.091510
 20
895.528690
 30
0.0
 10
325.006410
 20
895.697310
 30
0.0
 10
325.291630
 20
896.566980
 30
0.0
  0
SPLINE
  5
114
100
AcDbEntity
  8
Calque_1
 62
7
100
AcDbSpline
 70
8
 71
3
 72
8
 73
4
 74
0
 40
0
 40
0
 40
0
 40
0
 40
1
 40
1
 40
1
 40
1
 10
325.291630
 20
896.566980
 30
0.0
 10
325.952180
 20
898.581350
 30
0.0
 10
327.358520
 20
899.955710
 30
0.0
 10
328.680370
 20
900.943010
 30
0.0
  0
SPLINE
  5
115
100
AcDbEntity
  8
Calque_1
 62
7
100
AcDbSpline
 70
8
 71
3
 72
8
 73
4
 74
0
 40
0
 40
0
 40
0
 40
0
 40
1
 40
1
 40
1
 40
1
 10
328.680370
 20
900.943010
 30
0.0
 10
332.285360
 20
903.635470
 30
0.0
 10
336.093600
 20
905.749650
 30
0.0
 10
339.531350
 20
908.063690
 30
0.0
  0
SPLINE
  5
116
100
AcDbEntity
  8
Calque_1
 62
7
100
AcDbSpline
 70
8
 71
3
 72
8
 73
4
 74
0
 40
0
 40
0
 40
0
 40
0
 40
1
 40
1
 40
1
 40
1
 10
339.531350
 20
908.063690
 30
0.0
 10
339.555450
 20
908.079890
 30
0.0
 10
339.576850
 20
908.093290
 30
0.0
 10
339.600950
 20
908.109590
 30
0.0
  0
SPLINE
  5
117
100
AcDbEntity
  8
Calque_1
 62
7
100
AcDbSpline
 70
8
 71
3
 72
8
 73
4
 74
0
 40
0
 40
0
 40
0
 40
0
 40
1
 40
1
 40
1
 40
1
 10
339.600950
 20
908.109590
 30
0.0
 10
340.936890
 20
909.005900
 30
0.0
 10
342.215920
 20
909.797460
 30
0.0
 10
343.094030
 20
910.596240
 30
0.0
  0
SPLINE
  5
118
100
AcDbEntity
  8
Calque_1
 62
7
100
AcDbSpline
 70
8
 71
3
 72
8
 73
4
 74
0
 40
0
 40
0
 40
0
 40
0
 40
1
 40
1
 40
1
 40
1
 10
343.094030
 20
910.596240
 30
0.0
 10
343.110230
 20
910.610140
 30
0.0
 10
343.136530
 20
910.624240
 30
0.0
 10
343.152230
 20
910.639040
 30
0.0
  0
SPLINE
  5
119
100
AcDbEntity
  8
Calque_1
 62
7
100
AcDbSpline
 70
8
 71
3
 72
8
 73
4
 74
0
 40
0
 40
0
 40
0
 40
0
 40
1
 40
1
 40
1
 40
1
 10
343.152230
 20
910.639040
 30
0.0
 10
343.166630
 20
910.652040
 30
0.0
 10
343.180130
 20
910.678740
 30
0.0
 10
343.193330
 20
910.691840
 30
0.0
  0
SPLINE
  5
11a
100
AcDbEntity
  8
Calque_1
 62
7
100
AcDbSpline
 70
8
 71
3
 72
8
 73
4
 74
0
 40
0
 40
0
 40
0
 40
0
 40
1
 40
1
 40
1
 40
1
 10
343.193330
 20
910.691840
 30
0.0
 10
344.085910
 20
911.537860
 30
0.0
 10
344.872350
 20
913.019730
 30
0.0
 10
346.090980
 20
914.677090
 30
0.0
  0
SPLINE
  5
11b
100
AcDbEntity
  8
Calque_1
 62
7
100
AcDbSpline
 70
8
 71
3
 72
8
 73
4
 74
0
 40
0
 40
0
 40
0
 40
0
 40
1
 40
1
 40
1
 40
1
 10
346.090980
 20
914.677090
 30
0.0
 10
346.110480
 20
914.703390
 30
0.0
 10
346.121680
 20
914.724190
 30
0.0
 10
346.141980
 20
914.751190
 30
0.0
  0
SPLINE
  5
11c
100
AcDbEntity
  8
Calque_1
 62
7
100
AcDbSpline
 70
8
 71
3
 72
8
 73
4
 74
0
 40
0
 40
0
 40
0
 40
0
 40
1
 40
1
 40
1
 40
1
 10
346.141980
 20
914.751190
 30
0.0
 10
347.232150
 20
916.220050
 30
0.0
 10
348.230030
 20
917.055730
 30
0.0
 10
348.625230
 20
917.755870
 30
0.0
  0
SPLINE
  5
11d
100
AcDbEntity
  8
Calque_1
 62
7
100
AcDbSpline
 70
8
 71
3
 72
8
 73
4
 74
0
 40
0
 40
0
 40
0
 40
0
 40
1
 40
1
 40
1
 40
1
 10
348.625230
 20
917.755870
 30
0.0
 10
349.499990
 20
919.305600
 30
0.0
 10
350.164280
 20
921.277640
 30
0.0
 10
351.241160
 20
923.353610
 30
0.0
  0
SPLINE
  5
11e
100
AcDbEntity
  8
Calque_1
 62
7
100
AcDbSpline
 70
8
 71
3
 72
8
 73
4
 74
0
 40
0
 40
0
 40
0
 40
0
 40
1
 40
1
 40
1
 40
1
 10
351.241160
 20
923.353610
 30
0.0
 10
351.858450
 20
924.543530
 30
0.0
 10
352.193970
 20
925.168340
 30
0.0
 10
352.216000
 20
925.657640
 30
0.0
  0
SPLINE
  5
11f
100
AcDbEntity
  8
Calque_1
 62
7
100
AcDbSpline
 70
8
 71
3
 72
8
 73
4
 74
0
 40
0
 40
0
 40
0
 40
0
 40
1
 40
1
 40
1
 40
1
 10
352.216000
 20
925.657640
 30
0.0
 10
352.237500
 20
926.133310
 30
0.0
 10
352.008400
 20
927.741720
 30
0.0
 10
351.871920
 20
928.914740
 30
0.0
  0
SPLINE
  5
120
100
AcDbEntity
  8
Calque_1
 62
7
100
AcDbSpline
 70
8
 71
3
 72
8
 73
4
 74
0
 40
0
 40
0
 40
0
 40
0
 40
1
 40
1
 40
1
 40
1
 10
351.871920
 20
928.914740
 30
0.0
 10
351.877920
 20
928.869640
 30
0.0
 10
351.788720
 20
929.516220
 30
0.0
 10
351.706590
 20
930.041450
 30
0.0
  0
SPLINE
  5
121
100
AcDbEntity
  8
Calque_1
 62
7
100
AcDbSpline
 70
8
 71
3
 72
8
 73
4
 74
0
 40
0
 40
0
 40
0
 40
0
 40
1
 40
1
 40
1
 40
1
 10
351.706590
 20
930.041450
 30
0.0
 10
351.665190
 20
930.303840
 30
0.0
 10
351.622290
 20
930.565650
 30
0.0
 10
351.587880
 20
930.759070
 30
0.0
  0
SPLINE
  5
122
100
AcDbEntity
  8
Calque_1
 62
7
100
AcDbSpline
 70
8
 71
3
 72
8
 73
4
 74
0
 40
0
 40
0
 40
0
 40
0
 40
1
 40
1
 40
1
 40
1
 10
351.587880
 20
930.759070
 30
0.0
 10
351.576380
 20
930.821070
 30
0.0
 10
351.560380
 20
930.878420
 30
0.0
 10
351.544480
 20
930.938020
 30
0.0
  0
SPLINE
  5
123
100
AcDbEntity
  8
Calque_1
 62
7
100
AcDbSpline
 70
8
 71
3
 72
8
 73
4
 74
0
 40
0
 40
0
 40
0
 40
0
 40
1
 40
1
 40
1
 40
1
 10
351.544480
 20
930.938020
 30
0.0
 10
351.546480
 20
930.936020
 30
0.0
 10
351.490580
 20
931.051620
 30
0.0
 10
351.473580
 20
931.061160
 30
0.0
  0
SPLINE
  5
124
100
AcDbEntity
  8
Calque_1
 62
7
100
AcDbSpline
 70
8
 71
3
 72
8
 73
4
 74
0
 40
0
 40
0
 40
0
 40
0
 40
1
 40
1
 40
1
 40
1
 10
351.473580
 20
931.061160
 30
0.0
 10
349.665560
 20
930.557090
 30
0.0
 10
348.136310
 20
929.195380
 30
0.0
 10
346.107330
 20
927.426410
 30
0.0
  0
SPLINE
  5
125
100
AcDbEntity
  8
Calque_1
 62
7
100
AcDbSpline
 70
8
 71
3
 72
8
 73
4
 74
0
 40
0
 40
0
 40
0
 40
0
 40
1
 40
1
 40
1
 40
1
 10
346.107330
 20
927.426410
 30
0.0
 10
344.369150
 20
925.910920
 30
0.0
 10
342.473710
 20
923.948370
 30
0.0
 10
340.918280
 20
922.142240
 30
0.0
  0
SPLINE
  5
126
100
AcDbEntity
  8
Calque_1
 62
7
100
AcDbSpline
 70
8
 71
3
 72
8
 73
4
 74
0
 40
0
 40
0
 40
0
 40
0
 40
1
 40
1
 40
1
 40
1
 10
340.918280
 20
922.142240
 30
0.0
 10
339.515540
 20
920.513400
 30
0.0
 10
338.069890
 20
918.657720
 30
0.0
 10
336.369510
 20
916.869630
 30
0.0
  0
SPLINE
  5
127
100
AcDbEntity
  8
Calque_1
 62
7
100
AcDbSpline
 70
8
 71
3
 72
8
 73
4
 74
0
 40
0
 40
0
 40
0
 40
0
 40
1
 40
1
 40
1
 40
1
 10
336.369510
 20
916.869630
 30
0.0
 10
336.371510
 20
916.867630
 30
0.0
 10
336.372510
 20
916.865630
 30
0.0
 10
336.364510
 20
916.857730
 30
0.0
  0
SPLINE
  5
128
100
AcDbEntity
  8
Calque_1
 62
7
100
AcDbSpline
 70
8
 71
3
 72
8
 73
4
 74
0
 40
0
 40
0
 40
0
 40
0
 40
1
 40
1
 40
1
 40
1
 10
336.364510
 20
916.857730
 30
0.0
 10
336.140490
 20
916.621950
 30
0.0
 10
335.810730
 20
916.180470
 30
0.0
 10
335.246770
 20
915.658120
 30
0.0
  0
SPLINE
  5
129
100
AcDbEntity
  8
Calque_1
 62
7
100
AcDbSpline
 70
8
 71
3
 72
8
 73
4
 74
0
 40
0
 40
0
 40
0
 40
0
 40
1
 40
1
 40
1
 40
1
 10
335.246770
 20
915.658120
 30
0.0
 10
334.322600
 20
914.802060
 30
0.0
 10
333.483120
 20
914.363150
 30
0.0
 10
333.012860
 20
913.999300
 30
0.0
  0
SPLINE
  5
12a
100
AcDbEntity
  8
Calque_1
 62
7
100
AcDbSpline
 70
8
 71
3
 72
8
 73
4
 74
0
 40
0
 40
0
 40
0
 40
0
 40
1
 40
1
 40
1
 40
1
 10
333.012860
 20
913.999300
 30
0.0
 10
330.295040
 20
911.896760
 30
0.0
 10
327.246690
 20
910.210780
 30
0.0
 10
324.070860
 20
908.969920
 30
0.0
  0
SPLINE
  5
12b
100
AcDbEntity
  8
Calque_1
 62
7
100
AcDbSpline
 70
8
 71
3
 72
8
 73
4
 74
0
 40
0
 40
0
 40
0
 40
0
 40
1
 40
1
 40
1
 40
1
 10
324.070860
 20
908.969920
 30
0.0
 10
323.545780
 20
908.764760
 30
0.0
 10
323.271090
 20
908.659440
 30
0.0
 10
323.022990
 20
908.575670
 30
0.0
  0
SPLINE
  5
12c
100
AcDbEntity
  8
Calque_1
 62
7
100
AcDbSpline
 70
8
 71
3
 72
8
 73
4
 74
0
 40
0
 40
0
 40
0
 40
0
 40
1
 40
1
 40
1
 40
1
 10
323.022990
 20
908.575670
 30
0.0
 10
322.898950
 20
908.533770
 30
0.0
 10
322.777200
 20
908.491670
 30
0.0
 10
322.566010
 20
908.449630
 30
0.0
  0
SPLINE
  5
12d
100
AcDbEntity
  8
Calque_1
 62
7
100
AcDbSpline
 70
8
 71
3
 72
8
 73
4
 74
0
 40
0
 40
0
 40
0
 40
0
 40
1
 40
1
 40
1
 40
1
 10
322.566010
 20
908.449630
 30
0.0
 10
322.435430
 20
908.423730
 30
0.0
 10
322.306730
 20
908.424830
 30
0.0
 10
322.163840
 20
908.418930
 30
0.0
  0
SPLINE
  5
12e
100
AcDbEntity
  8
Calque_1
 62
7
100
AcDbSpline
 70
8
 71
3
 72
8
 73
4
 74
0
 40
0
 40
0
 40
0
 40
0
 40
1
 40
1
 40
1
 40
1
 10
322.163840
 20
908.418930
 30
0.0
 10
322.250540
 20
908.422930
 30
0.0
 10
322.324880
 20
908.432030
 30
0.0
 10
322.308670
 20
908.427930
 30
0.0
  0
SPLINE
  5
12f
100
AcDbEntity
  8
Calque_1
 62
7
100
AcDbSpline
 70
8
 71
3
 72
8
 73
4
 74
0
 40
0
 40
0
 40
0
 40
0
 40
1
 40
1
 40
1
 40
1
 10
322.310870
 20
908.425930
 30
0.0
 10
322.267070
 20
908.415830
 30
0.0
 10
321.997560
 20
908.344330
 30
0.0
 10
321.472500
 20
908.176220
 30
0.0
  0
SPLINE
  5
130
100
AcDbEntity
  8
Calque_1
 62
7
100
AcDbSpline
 70
8
 71
3
 72
8
 73
4
 74
0
 40
0
 40
0
 40
0
 40
0
 40
1
 40
1
 40
1
 40
1
 10
321.472500
 20
908.176220
 30
0.0
 10
321.472490
 20
908.176250
 30
0.0
 10
321.133000
 20
907.968440
 30
0.0
 10
320.388280
 20
907.749710
 30
0.0
  0
SPLINE
  5
131
100
AcDbEntity
  8
Calque_1
 62
7
100
AcDbSpline
 70
8
 71
3
 72
8
 73
4
 74
0
 40
0
 40
0
 40
0
 40
0
 40
1
 40
1
 40
1
 40
1
 10
320.388280
 20
907.749710
 30
0.0
 10
319.363130
 20
907.448620
 30
0.0
 10
318.910330
 20
907.319340
 30
0.0
 10
318.503520
 20
907.233640
 30
0.0
  0
SPLINE
  5
132
100
AcDbEntity
  8
Calque_1
 62
7
100
AcDbSpline
 70
8
 71
3
 72
8
 73
4
 74
0
 40
0
 40
0
 40
0
 40
0
 40
1
 40
1
 40
1
 40
1
 10
318.503520
 20
907.233640
 30
0.0
 10
318.401690
 20
907.212040
 30
0.0
 10
318.323400
 20
907.188540
 30
0.0
 10
318.073560
 20
907.170340
 30
0.0
  0
SPLINE
  5
133
100
AcDbEntity
  8
Calque_1
 62
7
100
AcDbSpline
 70
8
 71
3
 72
8
 73
4
 74
0
 40
0
 40
0
 40
0
 40
0
 40
1
 40
1
 40
1
 40
1
 10
318.073560
 20
907.170340
 30
0.0
 10
318.072710
 20
907.172340
 30
0.0
 10
318.059360
 20
907.169410
 30
0.0
 10
318.053860
 20
907.167340
 30
0.0
  0
SPLINE
  5
134
100
AcDbEntity
  8
Calque_1
 62
7
100
AcDbSpline
 70
8
 71
3
 72
8
 73
4
 74
0
 40
0
 40
0
 40
0
 40
0
 40
1
 40
1
 40
1
 40
1
 10
318.053860
 20
907.167340
 30
0.0
 10
317.879610
 20
907.112440
 30
0.0
 10
317.979860
 20
907.143540
 30
0.0
 10
317.727950
 20
907.060170
 30
0.0
  0
SPLINE
  5
135
100
AcDbEntity
  8
Calque_1
 62
7
100
AcDbSpline
 70
8
 71
3
 72
8
 73
4
 74
0
 40
0
 40
0
 40
0
 40
0
 40
1
 40
1
 40
1
 40
1
 10
317.727950
 20
907.060170
 30
0.0
 10
317.425690
 20
906.960040
 30
0.0
 10
316.873380
 20
906.676540
 30
0.0
 10
315.996710
 20
906.472100
 30
0.0
  0
SPLINE
  5
136
100
AcDbEntity
  8
Calque_1
 62
7
100
AcDbSpline
 70
8
 71
3
 72
8
 73
4
 74
0
 40
0
 40
0
 40
0
 40
0
 40
1
 40
1
 40
1
 40
1
 10
315.996710
 20
906.472100
 30
0.0
 10
314.214010
 20
906.056330
 30
0.0
 10
312.550780
 20
906.063020
 30
0.0
 10
311.090380
 20
906.053010
 30
0.0
  0
SPLINE
  5
137
100
AcDbEntity
  8
Calque_1
 62
7
100
AcDbSpline
 70
8
 71
3
 72
8
 73
4
 74
0
 40
0
 40
0
 40
0
 40
0
 40
1
 40
1
 40
1
 40
1
 10
311.090380
 20
906.053010
 30
0.0
 10
311.331540
 20
906.055010
 30
0.0
 10
310.478830
 20
906.026610
 30
0.0
 10
309.848660
 20
906.007510
 30
0.0
  0
SPLINE
  5
138
100
AcDbEntity
  8
Calque_1
 62
7
100
AcDbSpline
 70
8
 71
3
 72
8
 73
4
 74
0
 40
0
 40
0
 40
0
 40
0
 40
1
 40
1
 40
1
 40
1
 10
309.848660
 20
906.007510
 30
0.0
 10
309.533560
 20
905.998510
 30
0.0
 10
309.210110
 20
905.990510
 30
0.0
 10
308.913970
 20
905.990410
 30
0.0
  0
SPLINE
  5
139
100
AcDbEntity
  8
Calque_1
 62
7
100
AcDbSpline
 70
8
 71
3
 72
8
 73
4
 74
0
 40
0
 40
0
 40
0
 40
0
 40
1
 40
1
 40
1
 40
1
 10
308.913970
 20
905.990410
 30
0.0
 10
308.617850
 20
905.990220
 30
0.0
 10
308.541740
 20
905.935410
 30
0.0
 10
307.906360
 20
906.059910
 30
0.0
  0
SPLINE
  5
13a
100
AcDbEntity
  8
Calque_1
 62
7
100
AcDbSpline
 70
8
 71
3
 72
8
 73
4
 74
0
 40
0
 40
0
 40
0
 40
0
 40
1
 40
1
 40
1
 40
1
 10
307.906360
 20
906.059910
 30
0.0
 10
307.234070
 20
906.191070
 30
0.0
 10
306.609570
 20
906.403560
 30
0.0
 10
305.844020
 20
906.680200
 30
0.0
  0
SPLINE
  5
13b
100
AcDbEntity
  8
Calque_1
 62
7
100
AcDbSpline
 70
8
 71
3
 72
8
 73
4
 74
0
 40
0
 40
0
 40
0
 40
0
 40
1
 40
1
 40
1
 40
1
 10
305.844020
 20
906.680200
 30
0.0
 10
305.841020
 20
906.684200
 30
0.0
 10
305.829820
 20
906.685200
 30
0.0
 10
305.826720
 20
906.688200
 30
0.0
  0
SPLINE
  5
13c
100
AcDbEntity
  8
Calque_1
 62
7
100
AcDbSpline
 70
8
 71
3
 72
8
 73
4
 74
0
 40
0
 40
0
 40
0
 40
0
 40
1
 40
1
 40
1
 40
1
 10
305.826720
 20
906.688200
 30
0.0
 10
305.078640
 20
906.957560
 30
0.0
 10
304.461190
 20
907.131540
 30
0.0
 10
303.621360
 20
907.720480
 30
0.0
  0
SPLINE
  5
13d
100
AcDbEntity
  8
Calque_1
 62
7
100
AcDbSpline
 70
8
 71
3
 72
8
 73
4
 74
0
 40
0
 40
0
 40
0
 40
0
 40
1
 40
1
 40
1
 40
1
 10
303.621360
 20
907.720480
 30
0.0
 10
303.607060
 20
907.725480
 30
0.0
 10
303.604460
 20
907.725480
 30
0.0
 10
303.593560
 20
907.732580
 30
0.0
  0
SPLINE
  5
13e
100
AcDbEntity
  8
Calque_1
 62
7
100
AcDbSpline
 70
8
 71
3
 72
8
 73
4
 74
0
 40
0
 40
0
 40
0
 40
0
 40
1
 40
1
 40
1
 40
1
 10
303.593560
 20
907.732580
 30
0.0
 10
303.589560
 20
907.738580
 30
0.0
 10
303.588560
 20
907.740580
 30
0.0
 10
303.585560
 20
907.746780
 30
0.0
  0
SPLINE
  5
13f
100
AcDbEntity
  8
Calque_1
 62
7
100
AcDbSpline
 70
8
 71
3
 72
8
 73
4
 74
0
 40
0
 40
0
 40
0
 40
0
 40
1
 40
1
 40
1
 40
1
 10
303.585560
 20
907.746780
 30
0.0
 10
302.910940
 20
908.228200
 30
0.0
 10
302.646770
 20
908.648980
 30
0.0
 10
302.356230
 20
909.125350
 30
0.0
  0
LWPOLYLINE
  5
140
100
AcDbEntity
  8
Calque_1
 62
7
100
AcDbPolyline
 90
3
 70
0
 10
322.308670
 20
908.427930
 30
0.0
 10
322.299670
 20
908.424930
 30
0.0
 10
322.310870
 20
908.425930
 30
0.0
  0
SPLINE
  5
141
100
AcDbEntity
  8
Calque_1
 62
7
100
AcDbSpline
 70
8
 71
3
 72
8
 73
4
 74
0
 40
0
 40
0
 40
0
 40
0
 40
1
 40
1
 40
1
 40
1
 10
302.347230
 20
909.141350
 30
0.0
 10
302.053210
 20
909.623780
 30
0.0
 10
301.781400
 20
910.071650
 30
0.0
 10
301.672210
 20
910.937610
 30
0.0
  0
LWPOLYLINE
  5
142
100
AcDbEntity
  8
Calque_1
 62
7
100
AcDbPolyline
 90
3
 70
0
 10
302.356230
 20
909.125350
 30
0.0
 10
302.351230
 20
909.134350
 30
0.0
 10
302.347230
 20
909.141350
 30
0.0
  0
SPLINE
  5
143
100
AcDbEntity
  8
Calque_1
 62
7
100
AcDbSpline
 70
8
 71
3
 72
8
 73
4
 74
0
 40
0
 40
0
 40
0
 40
0
 40
1
 40
1
 40
1
 40
1
 10
301.668510
 20
910.943610
 30
0.0
 10
301.547860
 20
911.911440
 30
0.0
 10
301.749110
 20
912.312600
 30
0.0
 10
301.731310
 20
912.123630
 30
0.0
  0
SPLINE
  5
144
100
AcDbEntity
  8
Calque_1
 62
7
100
AcDbSpline
 70
8
 71
3
 72
8
 73
4
 74
0
 40
0
 40
0
 40
0
 40
0
 40
1
 40
1
 40
1
 40
1
 10
301.731310
 20
912.123630
 30
0.0
 10
301.756810
 20
912.393270
 30
0.0
 10
301.744310
 20
913.151270
 30
0.0
 10
302.108810
 20
914.027550
 30
0.0
  0
SPLINE
  5
145
100
AcDbEntity
  8
Calque_1
 62
7
100
AcDbSpline
 70
8
 71
3
 72
8
 73
4
 74
0
 40
0
 40
0
 40
0
 40
0
 40
1
 40
1
 40
1
 40
1
 10
302.108810
 20
914.027550
 30
0.0
 10
302.310190
 20
914.511810
 30
0.0
 10
302.644940
 20
915.032010
 30
0.0
 10
302.946000
 20
915.353000
 30
0.0
  0
SPLINE
  5
146
100
AcDbEntity
  8
Calque_1
 62
7
100
AcDbSpline
 70
8
 71
3
 72
8
 73
4
 74
0
 40
0
 40
0
 40
0
 40
0
 40
1
 40
1
 40
1
 40
1
 10
302.946000
 20
915.353000
 30
0.0
 10
303.247020
 20
915.673890
 30
0.0
 10
303.369400
 20
915.755150
 30
0.0
 10
303.496210
 20
915.884600
 30
0.0
  0
SPLINE
  5
147
100
AcDbEntity
  8
Calque_1
 62
7
100
AcDbSpline
 70
8
 71
3
 72
8
 73
4
 74
0
 40
0
 40
0
 40
0
 40
0
 40
1
 40
1
 40
1
 40
1
 10
303.496210
 20
915.884600
 30
0.0
 10
303.824690
 20
916.219910
 30
0.0
 10
304.392640
 20
916.945110
 30
0.0
 10
305.255820
 20
917.614930
 30
0.0
  0
SPLINE
  5
148
100
AcDbEntity
  8
Calque_1
 62
7
100
AcDbSpline
 70
8
 71
3
 72
8
 73
4
 74
0
 40
0
 40
0
 40
0
 40
0
 40
1
 40
1
 40
1
 40
1
 10
305.255820
 20
917.614930
 30
0.0
 10
305.865350
 20
918.087820
 30
0.0
 10
306.334410
 20
918.340960
 30
0.0
 10
306.563920
 20
918.512100
 30
0.0
  0
SPLINE
  5
149
100
AcDbEntity
  8
Calque_1
 62
7
100
AcDbSpline
 70
8
 71
3
 72
8
 73
4
 74
0
 40
0
 40
0
 40
0
 40
0
 40
1
 40
1
 40
1
 40
1
 10
306.563920
 20
918.512100
 30
0.0
 10
306.818420
 20
918.701960
 30
0.0
 10
307.197730
 20
919.068440
 30
0.0
 10
307.785080
 20
919.502310
 30
0.0
  0
SPLINE
  5
14a
100
AcDbEntity
  8
Calque_1
 62
7
100
AcDbSpline
 70
8
 71
3
 72
8
 73
4
 74
0
 40
0
 40
0
 40
0
 40
0
 40
1
 40
1
 40
1
 40
1
 10
307.785080
 20
919.502310
 30
0.0
 10
308.936300
 20
920.352650
 30
0.0
 10
309.687020
 20
920.636100
 30
0.0
 10
310.597710
 20
921.191590
 30
0.0
  0
SPLINE
  5
14b
100
AcDbEntity
  8
Calque_1
 62
7
100
AcDbSpline
 70
8
 71
3
 72
8
 73
4
 74
0
 40
0
 40
0
 40
0
 40
0
 40
1
 40
1
 40
1
 40
1
 10
310.597710
 20
921.191590
 30
0.0
 10
310.724310
 20
921.269090
 30
0.0
 10
311.024100
 20
921.520610
 30
0.0
 10
311.557340
 20
921.854060
 30
0.0
  0
SPLINE
  5
14c
100
AcDbEntity
  8
Calque_1
 62
7
100
AcDbSpline
 70
8
 71
3
 72
8
 73
4
 74
0
 40
0
 40
0
 40
0
 40
0
 40
1
 40
1
 40
1
 40
1
 10
311.557340
 20
921.854060
 30
0.0
 10
312.482770
 20
922.432440
 30
0.0
 10
312.914930
 20
922.658280
 30
0.0
 10
313.103910
 20
922.762750
 30
0.0
  0
SPLINE
  5
14d
100
AcDbEntity
  8
Calque_1
 62
7
100
AcDbSpline
 70
8
 71
3
 72
8
 73
4
 74
0
 40
0
 40
0
 40
0
 40
0
 40
1
 40
1
 40
1
 40
1
 10
313.103910
 20
922.762750
 30
0.0
 10
313.245790
 20
922.841050
 30
0.0
 10
313.471780
 20
923.003240
 30
0.0
 10
313.773550
 20
923.219420
 30
0.0
  0
LWPOLYLINE
  5
14e
100
AcDbEntity
  8
Calque_1
 62
7
100
AcDbPolyline
 90
4
 70
0
 10
301.672210
 20
910.937610
 30
0.0
 10
301.671360
 20
910.939610
 30
0.0
 10
301.669360
 20
910.941610
 30
0.0
 10
301.668510
 20
910.943610
 30
0.0
  0
SPLINE
  5
14f
100
AcDbEntity
  8
Calque_1
 62
7
100
AcDbSpline
 70
8
 71
3
 72
8
 73
4
 74
0
 40
0
 40
0
 40
0
 40
0
 40
1
 40
1
 40
1
 40
1
 10
305.088320
 20
928.252340
 30
0.0
 10
302.819200
 20
926.988630
 30
0.0
 10
299.660130
 20
924.960750
 30
0.0
 10
297.422310
 20
923.706830
 30
0.0
  0
SPLINE
  5
150
100
AcDbEntity
  8
Calque_1
 62
7
100
AcDbSpline
 70
8
 71
3
 72
8
 73
4
 74
0
 40
0
 40
0
 40
0
 40
0
 40
1
 40
1
 40
1
 40
1
 10
297.422310
 20
923.706830
 30
0.0
 10
295.619900
 20
922.696940
 30
0.0
 10
293.891630
 20
922.018360
 30
0.0
 10
292.437180
 20
921.232640
 30
0.0
  0
SPLINE
  5
151
100
AcDbEntity
  8
Calque_1
 62
7
100
AcDbSpline
 70
8
 71
3
 72
8
 73
4
 74
0
 40
0
 40
0
 40
0
 40
0
 40
1
 40
1
 40
1
 40
1
 10
292.437180
 20
921.232640
 30
0.0
 10
292.418080
 20
921.221640
 30
0.0
 10
292.377980
 20
921.195140
 30
0.0
 10
292.358980
 20
921.184140
 30
0.0
  0
SPLINE
  5
152
100
AcDbEntity
  8
Calque_1
 62
7
100
AcDbSpline
 70
8
 71
3
 72
8
 73
4
 74
0
 40
0
 40
0
 40
0
 40
0
 40
1
 40
1
 40
1
 40
1
 10
292.358980
 20
921.184140
 30
0.0
 10
291.570350
 20
920.741920
 30
0.0
 10
290.598200
 20
919.950920
 30
0.0
 10
289.217610
 20
919.246540
 30
0.0
  0
SPLINE
  5
153
100
AcDbEntity
  8
Calque_1
 62
7
100
AcDbSpline
 70
8
 71
3
 72
8
 73
4
 74
0
 40
0
 40
0
 40
0
 40
0
 40
1
 40
1
 40
1
 40
1
 10
289.217610
 20
919.246540
 30
0.0
 10
289.171010
 20
919.223240
 30
0.0
 10
289.159710
 20
919.205140
 30
0.0
 10
289.112150
 20
919.181240
 30
0.0
  0
SPLINE
  5
154
100
AcDbEntity
  8
Calque_1
 62
7
100
AcDbSpline
 70
8
 71
3
 72
8
 73
4
 74
0
 40
0
 40
0
 40
0
 40
0
 40
1
 40
1
 40
1
 40
1
 10
289.112150
 20
919.181240
 30
0.0
 10
288.573990
 20
918.913860
 30
0.0
 10
288.203400
 20
918.791900
 30
0.0
 10
288.046390
 20
918.716480
 30
0.0
  0
SPLINE
  5
155
100
AcDbEntity
  8
Calque_1
 62
7
100
AcDbSpline
 70
8
 71
3
 72
8
 73
4
 74
0
 40
0
 40
0
 40
0
 40
0
 40
1
 40
1
 40
1
 40
1
 10
288.046390
 20
918.716480
 30
0.0
 10
286.364890
 20
917.907600
 30
0.0
 10
284.672350
 20
917.146150
 30
0.0
 10
282.924410
 20
916.438390
 30
0.0
  0
SPLINE
  5
156
100
AcDbEntity
  8
Calque_1
 62
7
100
AcDbSpline
 70
8
 71
3
 72
8
 73
4
 74
0
 40
0
 40
0
 40
0
 40
0
 40
1
 40
1
 40
1
 40
1
 10
282.924410
 20
916.438390
 30
0.0
 10
282.739330
 20
916.363390
 30
0.0
 10
282.253170
 20
916.026370
 30
0.0
 10
281.350990
 20
915.719380
 30
0.0
  0
SPLINE
  5
157
100
AcDbEntity
  8
Calque_1
 62
7
100
AcDbSpline
 70
8
 71
3
 72
8
 73
4
 74
0
 40
0
 40
0
 40
0
 40
0
 40
1
 40
1
 40
1
 40
1
 10
281.350990
 20
915.719380
 30
0.0
 10
280.975490
 20
915.591720
 30
0.0
 10
280.831010
 20
915.564070
 30
0.0
 10
280.680710
 20
915.531890
 30
0.0
  0
SPLINE
  5
158
100
AcDbEntity
  8
Calque_1
 62
7
100
AcDbSpline
 70
8
 71
3
 72
8
 73
4
 74
0
 40
0
 40
0
 40
0
 40
0
 40
1
 40
1
 40
1
 40
1
 10
280.680710
 20
915.531890
 30
0.0
 10
280.607010
 20
915.497590
 30
0.0
 10
280.604510
 20
915.493790
 30
0.0
 10
280.503030
 20
915.446890
 30
0.0
  0
SPLINE
  5
159
100
AcDbEntity
  8
Calque_1
 62
7
100
AcDbSpline
 70
8
 71
3
 72
8
 73
4
 74
0
 40
0
 40
0
 40
0
 40
0
 40
1
 40
1
 40
1
 40
1
 10
280.503030
 20
915.446890
 30
0.0
 10
279.899150
 20
915.167370
 30
0.0
 10
279.339490
 20
914.986780
 30
0.0
 10
278.919440
 20
914.840690
 30
0.0
  0
SPLINE
  5
15a
100
AcDbEntity
  8
Calque_1
 62
7
100
AcDbSpline
 70
8
 71
3
 72
8
 73
4
 74
0
 40
0
 40
0
 40
0
 40
0
 40
1
 40
1
 40
1
 40
1
 10
278.919440
 20
914.840690
 30
0.0
 10
277.510100
 20
914.350530
 30
0.0
 10
276.242020
 20
914.020820
 30
0.0
 10
275.214270
 20
913.582610
 30
0.0
  0
SPLINE
  5
15b
100
AcDbEntity
  8
Calque_1
 62
7
100
AcDbSpline
 70
8
 71
3
 72
8
 73
4
 74
0
 40
0
 40
0
 40
0
 40
0
 40
1
 40
1
 40
1
 40
1
 10
275.214270
 20
913.582610
 30
0.0
 10
274.702990
 20
913.364510
 30
0.0
 10
273.902490
 20
912.849310
 30
0.0
 10
272.747560
 20
912.460600
 30
0.0
  0
SPLINE
  5
15c
100
AcDbEntity
  8
Calque_1
 62
7
100
AcDbSpline
 70
8
 71
3
 72
8
 73
4
 74
0
 40
0
 40
0
 40
0
 40
0
 40
1
 40
1
 40
1
 40
1
 10
272.747560
 20
912.460600
 30
0.0
 10
271.920840
 20
912.182480
 30
0.0
 10
271.572150
 20
912.214040
 30
0.0
 10
271.783050
 20
912.269440
 30
0.0
  0
SPLINE
  5
15d
100
AcDbEntity
  8
Calque_1
 62
7
100
AcDbSpline
 70
8
 71
3
 72
8
 73
4
 74
0
 40
0
 40
0
 40
0
 40
0
 40
1
 40
1
 40
1
 40
1
 10
271.783050
 20
912.269440
 30
0.0
 10
270.904660
 20
912.038750
 30
0.0
 10
269.986840
 20
911.779530
 30
0.0
 10
269.151710
 20
911.510000
 30
0.0
  0
SPLINE
  5
15e
100
AcDbEntity
  8
Calque_1
 62
7
100
AcDbSpline
 70
8
 71
3
 72
8
 73
4
 74
0
 40
0
 40
0
 40
0
 40
0
 40
1
 40
1
 40
1
 40
1
 10
269.151710
 20
911.510000
 30
0.0
 10
268.169460
 20
911.192940
 30
0.0
 10
267.153580
 20
910.776800
 30
0.0
 10
266.034260
 20
910.351910
 30
0.0
  0
SPLINE
  5
15f
100
AcDbEntity
  8
Calque_1
 62
7
100
AcDbSpline
 70
8
 71
3
 72
8
 73
4
 74
0
 40
0
 40
0
 40
0
 40
0
 40
1
 40
1
 40
1
 40
1
 10
266.034260
 20
910.351910
 30
0.0
 10
265.871080
 20
910.290010
 30
0.0
 10
265.440010
 20
910.026010
 30
0.0
 10
264.660870
 20
909.784490
 30
0.0
  0
SPLINE
  5
160
100
AcDbEntity
  8
Calque_1
 62
7
100
AcDbSpline
 70
8
 71
3
 72
8
 73
4
 74
0
 40
0
 40
0
 40
0
 40
0
 40
1
 40
1
 40
1
 40
1
 10
264.660870
 20
909.784490
 30
0.0
 10
263.916770
 20
909.553860
 30
0.0
 10
263.211650
 20
909.396010
 30
0.0
 10
262.564510
 20
909.251500
 30
0.0
  0
SPLINE
  5
161
100
AcDbEntity
  8
Calque_1
 62
7
100
AcDbSpline
 70
8
 71
3
 72
8
 73
4
 74
0
 40
0
 40
0
 40
0
 40
0
 40
1
 40
1
 40
1
 40
1
 10
262.564510
 20
909.251500
 30
0.0
 10
262.247660
 20
909.180700
 30
0.0
 10
262.087340
 20
909.155700
 30
0.0
 10
261.968690
 20
909.140900
 30
0.0
  0
SPLINE
  5
162
100
AcDbEntity
  8
Calque_1
 62
7
100
AcDbSpline
 70
8
 71
3
 72
8
 73
4
 74
0
 40
0
 40
0
 40
0
 40
0
 40
1
 40
1
 40
1
 40
1
 10
261.968690
 20
909.140900
 30
0.0
 10
261.855130
 20
909.089200
 30
0.0
 10
261.696930
 20
909.022680
 30
0.0
 10
261.398370
 20
908.919720
 30
0.0
  0
SPLINE
  5
163
100
AcDbEntity
  8
Calque_1
 62
7
100
AcDbSpline
 70
8
 71
3
 72
8
 73
4
 74
0
 40
0
 40
0
 40
0
 40
0
 40
1
 40
1
 40
1
 40
1
 10
261.398370
 20
908.919720
 30
0.0
 10
260.368370
 20
908.564550
 30
0.0
 10
259.461360
 20
908.384130
 30
0.0
 10
258.765340
 20
908.175420
 30
0.0
  0
SPLINE
  5
164
100
AcDbEntity
  8
Calque_1
 62
7
100
AcDbSpline
 70
8
 71
3
 72
8
 73
4
 74
0
 40
0
 40
0
 40
0
 40
0
 40
1
 40
1
 40
1
 40
1
 10
258.765340
 20
908.175420
 30
0.0
 10
259.144320
 20
908.289030
 30
0.0
 10
258.922400
 20
908.089120
 30
0.0
 10
258.020270
 20
907.913840
 30
0.0
  0
SPLINE
  5
165
100
AcDbEntity
  8
Calque_1
 62
7
100
AcDbSpline
 70
8
 71
3
 72
8
 73
4
 74
0
 40
0
 40
0
 40
0
 40
0
 40
1
 40
1
 40
1
 40
1
 10
258.020270
 20
907.913840
 30
0.0
 10
257.494590
 20
907.811900
 30
0.0
 10
257.215460
 20
907.805640
 30
0.0
 10
257.134530
 20
907.822940
 30
0.0
  0
SPLINE
  5
166
100
AcDbEntity
  8
Calque_1
 62
7
100
AcDbSpline
 70
8
 71
3
 72
8
 73
4
 74
0
 40
0
 40
0
 40
0
 40
0
 40
1
 40
1
 40
1
 40
1
 10
257.134530
 20
907.822940
 30
0.0
 10
257.017300
 20
907.794040
 30
0.0
 10
256.828780
 20
907.756040
 30
0.0
 10
256.521880
 20
907.719940
 30
0.0
  0
SPLINE
  5
167
100
AcDbEntity
  8
Calque_1
 62
7
100
AcDbSpline
 70
8
 71
3
 72
8
 73
4
 74
0
 40
0
 40
0
 40
0
 40
0
 40
1
 40
1
 40
1
 40
1
 10
256.521880
 20
907.719940
 30
0.0
 10
254.281400
 20
907.455200
 30
0.0
 10
252.518150
 20
907.850750
 30
0.0
 10
251.301040
 20
907.745240
 30
0.0
  0
SPLINE
  5
168
100
AcDbEntity
  8
Calque_1
 62
7
100
AcDbSpline
 70
8
 71
3
 72
8
 73
4
 74
0
 40
0
 40
0
 40
0
 40
0
 40
1
 40
1
 40
1
 40
1
 10
251.301040
 20
907.745240
 30
0.0
 10
250.338650
 20
907.661840
 30
0.0
 10
249.189680
 20
907.374540
 30
0.0
 10
247.791480
 20
907.194400
 30
0.0
  0
SPLINE
  5
169
100
AcDbEntity
  8
Calque_1
 62
7
100
AcDbSpline
 70
8
 71
3
 72
8
 73
4
 74
0
 40
0
 40
0
 40
0
 40
0
 40
1
 40
1
 40
1
 40
1
 10
247.791480
 20
907.194400
 30
0.0
 10
247.754880
 20
907.190400
 30
0.0
 10
247.735980
 20
907.198400
 30
0.0
 10
247.699380
 20
907.193400
 30
0.0
  0
SPLINE
  5
16a
100
AcDbEntity
  8
Calque_1
 62
7
100
AcDbSpline
 70
8
 71
3
 72
8
 73
4
 74
0
 40
0
 40
0
 40
0
 40
0
 40
1
 40
1
 40
1
 40
1
 10
247.699380
 20
907.193400
 30
0.0
 10
245.951020
 20
906.982860
 30
0.0
 10
244.462570
 20
907.173200
 30
0.0
 10
243.314750
 20
907.169000
 30
0.0
  0
SPLINE
  5
16b
100
AcDbEntity
  8
Calque_1
 62
7
100
AcDbSpline
 70
8
 71
3
 72
8
 73
4
 74
0
 40
0
 40
0
 40
0
 40
0
 40
1
 40
1
 40
1
 40
1
 10
243.314750
 20
907.169000
 30
0.0
 10
243.295050
 20
907.169490
 30
0.0
 10
243.259450
 20
907.168180
 30
0.0
 10
243.240050
 20
907.168650
 30
0.0
  0
SPLINE
  5
16c
100
AcDbEntity
  8
Calque_1
 62
7
100
AcDbSpline
 70
8
 71
3
 72
8
 73
4
 74
0
 40
0
 40
0
 40
0
 40
0
 40
1
 40
1
 40
1
 40
1
 10
243.240050
 20
907.168650
 30
0.0
 10
241.627310
 20
907.151250
 30
0.0
 10
240.002750
 20
907.122050
 30
0.0
 10
238.334350
 20
907.141750
 30
0.0
  0
SPLINE
  5
16d
100
AcDbEntity
  8
Calque_1
 62
7
100
AcDbSpline
 70
8
 71
3
 72
8
 73
4
 74
0
 40
0
 40
0
 40
0
 40
0
 40
1
 40
1
 40
1
 40
1
 10
238.334350
 20
907.141750
 30
0.0
 10
236.142410
 20
907.167550
 30
0.0
 10
234.001390
 20
907.262510
 30
0.0
 10
231.986500
 20
907.204350
 30
0.0
  0
SPLINE
  5
16e
100
AcDbEntity
  8
Calque_1
 62
7
100
AcDbSpline
 70
8
 71
3
 72
8
 73
4
 74
0
 40
0
 40
0
 40
0
 40
0
 40
1
 40
1
 40
1
 40
1
 10
231.986500
 20
907.204350
 30
0.0
 10
231.935400
 20
907.203350
 30
0.0
 10
231.864250
 20
907.196350
 30
0.0
 10
231.812480
 20
907.194350
 30
0.0
  0
SPLINE
  5
16f
100
AcDbEntity
  8
Calque_1
 62
7
100
AcDbSpline
 70
8
 71
3
 72
8
 73
4
 74
0
 40
0
 40
0
 40
0
 40
0
 40
1
 40
1
 40
1
 40
1
 10
231.812480
 20
907.194350
 30
0.0
 10
229.983740
 20
907.126250
 30
0.0
 10
227.944550
 20
906.825120
 30
0.0
 10
225.659410
 20
906.855690
 30
0.0
  0
SPLINE
  5
170
100
AcDbEntity
  8
Calque_1
 62
7
100
AcDbSpline
 70
8
 71
3
 72
8
 73
4
 74
0
 40
0
 40
0
 40
0
 40
0
 40
1
 40
1
 40
1
 40
1
 10
225.659410
 20
906.855690
 30
0.0
 10
225.580510
 20
906.856670
 30
0.0
 10
225.526840
 20
906.842190
 30
0.0
 10
225.447750
 20
906.844090
 30
0.0
  0
SPLINE
  5
171
100
AcDbEntity
  8
Calque_1
 62
7
100
AcDbSpline
 70
8
 71
3
 72
8
 73
4
 74
0
 40
0
 40
0
 40
0
 40
0
 40
1
 40
1
 40
1
 40
1
 10
225.447750
 20
906.844090
 30
0.0
 10
225.020650
 20
906.854090
 30
0.0
 10
223.863010
 20
906.905790
 30
0.0
 10
222.649780
 20
906.957790
 30
0.0
  0
SPLINE
  5
172
100
AcDbEntity
  8
Calque_1
 62
7
100
AcDbSpline
 70
8
 71
3
 72
8
 73
4
 74
0
 40
0
 40
0
 40
0
 40
0
 40
1
 40
1
 40
1
 40
1
 10
222.649780
 20
906.957790
 30
0.0
 10
221.436670
 20
907.009690
 30
0.0
 10
220.037970
 20
907.062470
 30
0.0
 10
220.124910
 20
907.061180
 30
0.0
  0
SPLINE
  5
173
100
AcDbEntity
  8
Calque_1
 62
7
100
AcDbSpline
 70
8
 71
3
 72
8
 73
4
 74
0
 40
0
 40
0
 40
0
 40
0
 40
1
 40
1
 40
1
 40
1
 10
220.124910
 20
907.061180
 30
0.0
 10
218.278340
 20
907.087480
 30
0.0
 10
217.670950
 20
907.095980
 30
0.0
 10
216.124870
 20
906.882640
 30
0.0
  0
SPLINE
  5
174
100
AcDbEntity
  8
Calque_1
 62
7
100
AcDbSpline
 70
8
 71
3
 72
8
 73
4
 74
0
 40
0
 40
0
 40
0
 40
0
 40
1
 40
1
 40
1
 40
1
 10
216.124870
 20
906.882640
 30
0.0
 10
216.114670
 20
906.880640
 30
0.0
 10
216.096070
 20
906.878640
 30
0.0
 10
216.088670
 20
906.877640
 30
0.0
  0
SPLINE
  5
175
100
AcDbEntity
  8
Calque_1
 62
7
100
AcDbSpline
 70
8
 71
3
 72
8
 73
4
 74
0
 40
0
 40
0
 40
0
 40
0
 40
1
 40
1
 40
1
 40
1
 10
216.088670
 20
906.877640
 30
0.0
 10
215.426610
 20
906.779840
 30
0.0
 10
214.339970
 20
906.412840
 30
0.0
 10
212.842280
 20
906.453930
 30
0.0
  0
SPLINE
  5
176
100
AcDbEntity
  8
Calque_1
 62
7
100
AcDbSpline
 70
8
 71
3
 72
8
 73
4
 74
0
 40
0
 40
0
 40
0
 40
0
 40
1
 40
1
 40
1
 40
1
 10
212.842280
 20
906.453930
 30
0.0
 10
212.811880
 20
906.454230
 30
0.0
 10
212.807480
 20
906.443930
 30
0.0
 10
212.776780
 20
906.444930
 30
0.0
  0
SPLINE
  5
177
100
AcDbEntity
  8
Calque_1
 62
7
100
AcDbSpline
 70
8
 71
3
 72
8
 73
4
 74
0
 40
0
 40
0
 40
0
 40
0
 40
1
 40
1
 40
1
 40
1
 10
212.776780
 20
906.444930
 30
0.0
 10
211.071550
 20
906.507230
 30
0.0
 10
209.269130
 20
906.524330
 30
0.0
 10
207.407050
 20
906.683310
 30
0.0
  0
SPLINE
  5
178
100
AcDbEntity
  8
Calque_1
 62
7
100
AcDbSpline
 70
8
 71
3
 72
8
 73
4
 74
0
 40
0
 40
0
 40
0
 40
0
 40
1
 40
1
 40
1
 40
1
 10
207.407050
 20
906.683310
 30
0.0
 10
206.421960
 20
906.767110
 30
0.0
 10
205.675600
 20
906.928080
 30
0.0
 10
205.147750
 20
906.959340
 30
0.0
  0
SPLINE
  5
179
100
AcDbEntity
  8
Calque_1
 62
7
100
AcDbSpline
 70
8
 71
3
 72
8
 73
4
 74
0
 40
0
 40
0
 40
0
 40
0
 40
1
 40
1
 40
1
 40
1
 10
205.147750
 20
906.959340
 30
0.0
 10
205.145750
 20
906.961340
 30
0.0
 10
205.117450
 20
906.958640
 30
0.0
 10
205.111650
 20
906.959070
 30
0.0
  0
SPLINE
  5
17a
100
AcDbEntity
  8
Calque_1
 62
7
100
AcDbSpline
 70
8
 71
3
 72
8
 73
4
 74
0
 40
0
 40
0
 40
0
 40
0
 40
1
 40
1
 40
1
 40
1
 10
205.111650
 20
906.959070
 30
0.0
 10
204.683380
 20
906.974370
 30
0.0
 10
203.739080
 20
906.754890
 30
0.0
 10
202.319490
 20
906.924070
 30
0.0
  0
SPLINE
  5
17b
100
AcDbEntity
  8
Calque_1
 62
7
100
AcDbSpline
 70
8
 71
3
 72
8
 73
4
 74
0
 40
0
 40
0
 40
0
 40
0
 40
1
 40
1
 40
1
 40
1
 10
202.319490
 20
906.924070
 30
0.0
 10
202.283690
 20
906.928070
 30
0.0
 10
202.285690
 20
906.919070
 30
0.0
 10
202.248790
 20
906.922070
 30
0.0
  0
SPLINE
  5
17c
100
AcDbEntity
  8
Calque_1
 62
7
100
AcDbSpline
 70
8
 71
3
 72
8
 73
4
 74
0
 40
0
 40
0
 40
0
 40
0
 40
1
 40
1
 40
1
 40
1
 10
202.248790
 20
906.922070
 30
0.0
 10
201.354680
 20
907.037280
 30
0.0
 10
200.859890
 20
907.233290
 30
0.0
 10
200.718810
 20
907.253830
 30
0.0
  0
SPLINE
  5
17d
100
AcDbEntity
  8
Calque_1
 62
7
100
AcDbSpline
 70
8
 71
3
 72
8
 73
4
 74
0
 40
0
 40
0
 40
0
 40
0
 40
1
 40
1
 40
1
 40
1
 10
200.718810
 20
907.253830
 30
0.0
 10
200.352760
 20
907.307030
 30
0.0
 10
197.194830
 20
907.573770
 30
0.0
 10
196.654800
 20
907.590090
 30
0.0
  0
SPLINE
  5
17e
100
AcDbEntity
  8
Calque_1
 62
7
100
AcDbSpline
 70
8
 71
3
 72
8
 73
4
 74
0
 40
0
 40
0
 40
0
 40
0
 40
1
 40
1
 40
1
 40
1
 10
196.654800
 20
907.590090
 30
0.0
 10
195.438900
 20
907.626590
 30
0.0
 10
194.090300
 20
907.616390
 30
0.0
 10
192.927210
 20
907.518390
 30
0.0
  0
SPLINE
  5
17f
100
AcDbEntity
  8
Calque_1
 62
7
100
AcDbSpline
 70
8
 71
3
 72
8
 73
4
 74
0
 40
0
 40
0
 40
0
 40
0
 40
1
 40
1
 40
1
 40
1
 10
192.927210
 20
907.518390
 30
0.0
 10
192.567530
 20
907.487990
 30
0.0
 10
191.961280
 20
907.352130
 30
0.0
 10
191.097880
 20
907.333630
 30
0.0
  0
SPLINE
  5
180
100
AcDbEntity
  8
Calque_1
 62
7
100
AcDbSpline
 70
8
 71
3
 72
8
 73
4
 74
0
 40
0
 40
0
 40
0
 40
0
 40
1
 40
1
 40
1
 40
1
 10
191.097880
 20
907.333630
 30
0.0
 10
190.282610
 20
907.316130
 30
0.0
 10
189.934680
 20
907.309530
 30
0.0
 10
189.628910
 20
907.318230
 30
0.0
  0
SPLINE
  5
181
100
AcDbEntity
  8
Calque_1
 62
7
100
AcDbSpline
 70
8
 71
3
 72
8
 73
4
 74
0
 40
0
 40
0
 40
0
 40
0
 40
1
 40
1
 40
1
 40
1
 10
189.628910
 20
907.318230
 30
0.0
 10
189.552610
 20
907.320230
 30
0.0
 10
189.479890
 20
907.321230
 30
0.0
 10
189.345840
 20
907.336730
 30
0.0
  0
SPLINE
  5
182
100
AcDbEntity
  8
Calque_1
 62
7
100
AcDbSpline
 70
8
 71
3
 72
8
 73
4
 74
0
 40
0
 40
0
 40
0
 40
0
 40
1
 40
1
 40
1
 40
1
 10
189.345840
 20
907.336730
 30
0.0
 10
189.261940
 20
907.345730
 30
0.0
 10
189.122770
 20
907.353730
 30
0.0
 10
188.902210
 20
907.421730
 30
0.0
  0
SPLINE
  5
183
100
AcDbEntity
  8
Calque_1
 62
7
100
AcDbSpline
 70
8
 71
3
 72
8
 73
4
 74
0
 40
0
 40
0
 40
0
 40
0
 40
1
 40
1
 40
1
 40
1
 10
188.902210
 20
907.421730
 30
0.0
 10
188.682040
 20
907.433430
 30
0.0
 10
188.322130
 20
907.449530
 30
0.0
 10
187.464640
 20
907.459630
 30
0.0
  0
SPLINE
  5
184
100
AcDbEntity
  8
Calque_1
 62
7
100
AcDbSpline
 70
8
 71
3
 72
8
 73
4
 74
0
 40
0
 40
0
 40
0
 40
0
 40
1
 40
1
 40
1
 40
1
 10
187.464640
 20
907.459630
 30
0.0
 10
186.485000
 20
907.471230
 30
0.0
 10
186.203890
 20
907.466630
 30
0.0
 10
185.824590
 20
907.463630
 30
0.0
  0
SPLINE
  5
185
100
AcDbEntity
  8
Calque_1
 62
7
100
AcDbSpline
 70
8
 71
3
 72
8
 73
4
 74
0
 40
0
 40
0
 40
0
 40
0
 40
1
 40
1
 40
1
 40
1
 10
185.824590
 20
907.463630
 30
0.0
 10
185.696160
 20
907.431530
 30
0.0
 10
185.586010
 20
907.409230
 30
0.0
 10
185.532580
 20
907.402130
 30
0.0
  0
SPLINE
  5
186
100
AcDbEntity
  8
Calque_1
 62
7
100
AcDbSpline
 70
8
 71
3
 72
8
 73
4
 74
0
 40
0
 40
0
 40
0
 40
0
 40
1
 40
1
 40
1
 40
1
 10
185.532580
 20
907.402130
 30
0.0
 10
184.973560
 20
907.330030
 30
0.0
 10
185.181800
 20
907.380830
 30
0.0
 10
185.117300
 20
907.381830
 30
0.0
  0
SPLINE
  5
187
100
AcDbEntity
  8
Calque_1
 62
7
100
AcDbSpline
 70
8
 71
3
 72
8
 73
4
 74
0
 40
0
 40
0
 40
0
 40
0
 40
1
 40
1
 40
1
 40
1
 10
185.117300
 20
907.381830
 30
0.0
 10
185.053200
 20
907.382690
 30
0.0
 10
184.983680
 20
907.384830
 30
0.0
 10
184.890550
 20
907.386830
 30
0.0
  0
SPLINE
  5
188
100
AcDbEntity
  8
Calque_1
 62
7
100
AcDbSpline
 70
8
 71
3
 72
8
 73
4
 74
0
 40
0
 40
0
 40
0
 40
0
 40
1
 40
1
 40
1
 40
1
 10
184.890550
 20
907.386830
 30
0.0
 10
184.704300
 20
907.391830
 30
0.0
 10
184.428070
 20
907.401630
 30
0.0
 10
184.013020
 20
907.416330
 30
0.0
  0
SPLINE
  5
189
100
AcDbEntity
  8
Calque_1
 62
7
100
AcDbSpline
 70
8
 71
3
 72
8
 73
4
 74
0
 40
0
 40
0
 40
0
 40
0
 40
1
 40
1
 40
1
 40
1
 10
184.013020
 20
907.416330
 30
0.0
 10
183.952820
 20
907.419330
 30
0.0
 10
183.911760
 20
907.431030
 30
0.0
 10
183.851190
 20
907.433630
 30
0.0
  0
SPLINE
  5
18a
100
AcDbEntity
  8
Calque_1
 62
7
100
AcDbSpline
 70
8
 71
3
 72
8
 73
4
 74
0
 40
0
 40
0
 40
0
 40
0
 40
1
 40
1
 40
1
 40
1
 10
183.851190
 20
907.433630
 30
0.0
 10
181.824390
 20
907.521830
 30
0.0
 10
180.037340
 20
907.872320
 30
0.0
 10
178.419210
 20
908.028530
 30
0.0
  0
SPLINE
  5
18b
100
AcDbEntity
  8
Calque_1
 62
7
100
AcDbSpline
 70
8
 71
3
 72
8
 73
4
 74
0
 40
0
 40
0
 40
0
 40
0
 40
1
 40
1
 40
1
 40
1
 10
178.419210
 20
908.028530
 30
0.0
 10
178.389810
 20
908.031530
 30
0.0
 10
178.348610
 20
908.036530
 30
0.0
 10
178.319210
 20
908.039130
 30
0.0
  0
SPLINE
  5
18c
100
AcDbEntity
  8
Calque_1
 62
7
100
AcDbSpline
 70
8
 71
3
 72
8
 73
4
 74
0
 40
0
 40
0
 40
0
 40
0
 40
1
 40
1
 40
1
 40
1
 10
178.319210
 20
908.039130
 30
0.0
 10
176.945260
 20
908.165280
 30
0.0
 10
175.290470
 20
908.184780
 30
0.0
 10
173.609440
 20
908.380280
 30
0.0
  0
SPLINE
  5
18d
100
AcDbEntity
  8
Calque_1
 62
7
100
AcDbSpline
 70
8
 71
3
 72
8
 73
4
 74
0
 40
0
 40
0
 40
0
 40
0
 40
1
 40
1
 40
1
 40
1
 10
173.609440
 20
908.380280
 30
0.0
 10
172.550140
 20
908.503510
 30
0.0
 10
171.859140
 20
908.753560
 30
0.0
 10
171.485730
 20
908.805980
 30
0.0
  0
SPLINE
  5
18e
100
AcDbEntity
  8
Calque_1
 62
7
100
AcDbSpline
 70
8
 71
3
 72
8
 73
4
 74
0
 40
0
 40
0
 40
0
 40
0
 40
1
 40
1
 40
1
 40
1
 10
171.485730
 20
908.805980
 30
0.0
 10
170.753830
 20
908.908870
 30
0.0
 10
170.360390
 20
908.954780
 30
0.0
 10
170.191120
 20
908.970340
 30
0.0
  0
SPLINE
  5
18f
100
AcDbEntity
  8
Calque_1
 62
7
100
AcDbSpline
 70
8
 71
3
 72
8
 73
4
 74
0
 40
0
 40
0
 40
0
 40
0
 40
1
 40
1
 40
1
 40
1
 10
170.191120
 20
908.970340
 30
0.0
 10
170.122920
 20
908.976340
 30
0.0
 10
170.142820
 20
908.978340
 30
0.0
 10
170.160320
 20
908.979340
 30
0.0
  0
SPLINE
  5
190
100
AcDbEntity
  8
Calque_1
 62
7
100
AcDbSpline
 70
8
 71
3
 72
8
 73
4
 74
0
 40
0
 40
0
 40
0
 40
0
 40
1
 40
1
 40
1
 40
1
 10
170.160320
 20
908.979340
 30
0.0
 10
170.064320
 20
908.975340
 30
0.0
 10
169.658300
 20
908.984340
 30
0.0
 10
169.400870
 20
909.021340
 30
0.0
  0
SPLINE
  5
191
100
AcDbEntity
  8
Calque_1
 62
7
100
AcDbSpline
 70
8
 71
3
 72
8
 73
4
 74
0
 40
0
 40
0
 40
0
 40
0
 40
1
 40
1
 40
1
 40
1
 10
169.400870
 20
909.021340
 30
0.0
 10
169.136250
 20
909.059140
 30
0.0
 10
168.784740
 20
909.118840
 30
0.0
 10
168.117150
 20
909.237310
 30
0.0
  0
SPLINE
  5
192
100
AcDbEntity
  8
Calque_1
 62
7
100
AcDbSpline
 70
8
 71
3
 72
8
 73
4
 74
0
 40
0
 40
0
 40
0
 40
0
 40
1
 40
1
 40
1
 40
1
 10
168.117150
 20
909.237310
 30
0.0
 10
166.618780
 20
909.503180
 30
0.0
 10
166.642430
 20
909.581540
 30
0.0
 10
165.418330
 20
909.711020
 30
0.0
  0
SPLINE
  5
193
100
AcDbEntity
  8
Calque_1
 62
7
100
AcDbSpline
 70
8
 71
3
 72
8
 73
4
 74
0
 40
0
 40
0
 40
0
 40
0
 40
1
 40
1
 40
1
 40
1
 10
165.418330
 20
909.711020
 30
0.0
 10
163.414170
 20
909.923220
 30
0.0
 10
161.386940
 20
910.138490
 30
0.0
 10
159.337930
 20
910.423260
 30
0.0
  0
SPLINE
  5
194
100
AcDbEntity
  8
Calque_1
 62
7
100
AcDbSpline
 70
8
 71
3
 72
8
 73
4
 74
0
 40
0
 40
0
 40
0
 40
0
 40
1
 40
1
 40
1
 40
1
 10
159.337930
 20
910.423260
 30
0.0
 10
157.731740
 20
910.646510
 30
0.0
 10
156.319070
 20
910.993190
 30
0.0
 10
155.116680
 20
911.109040
 30
0.0
  0
SPLINE
  5
195
100
AcDbEntity
  8
Calque_1
 62
7
100
AcDbSpline
 70
8
 71
3
 72
8
 73
4
 74
0
 40
0
 40
0
 40
0
 40
0
 40
1
 40
1
 40
1
 40
1
 10
155.116680
 20
911.109040
 30
0.0
 10
155.094880
 20
911.111040
 30
0.0
 10
155.053080
 20
911.112040
 30
0.0
 10
155.031280
 20
911.113040
 30
0.0
  0
SPLINE
  5
196
100
AcDbEntity
  8
Calque_1
 62
7
100
AcDbSpline
 70
8
 71
3
 72
8
 73
4
 74
0
 40
0
 40
0
 40
0
 40
0
 40
1
 40
1
 40
1
 40
1
 10
155.031280
 20
911.113040
 30
0.0
 10
153.987500
 20
911.201340
 30
0.0
 10
152.621930
 20
911.091840
 30
0.0
 10
150.955050
 20
911.337900
 30
0.0
  0
SPLINE
  5
197
100
AcDbEntity
  8
Calque_1
 62
7
100
AcDbSpline
 70
8
 71
3
 72
8
 73
4
 74
0
 40
0
 40
0
 40
0
 40
0
 40
1
 40
1
 40
1
 40
1
 10
150.955050
 20
911.337900
 30
0.0
 10
150.910850
 20
911.343900
 30
0.0
 10
150.891150
 20
911.336900
 30
0.0
 10
150.846650
 20
911.343900
 30
0.0
  0
SPLINE
  5
198
100
AcDbEntity
  8
Calque_1
 62
7
100
AcDbSpline
 70
8
 71
3
 72
8
 73
4
 74
0
 40
0
 40
0
 40
0
 40
0
 40
1
 40
1
 40
1
 40
1
 10
150.846650
 20
911.343900
 30
0.0
 10
150.830150
 20
911.345900
 30
0.0
 10
150.818150
 20
911.352900
 30
0.0
 10
150.801650
 20
911.355300
 30
0.0
  0
SPLINE
  5
199
100
AcDbEntity
  8
Calque_1
 62
7
100
AcDbSpline
 70
8
 71
3
 72
8
 73
4
 74
0
 40
0
 40
0
 40
0
 40
0
 40
1
 40
1
 40
1
 40
1
 10
150.801650
 20
911.355300
 30
0.0
 10
149.375610
 20
911.583540
 30
0.0
 10
148.078500
 20
911.987660
 30
0.0
 10
146.878520
 20
912.427480
 30
0.0
  0
SPLINE
  5
19a
100
AcDbEntity
  8
Calque_1
 62
7
100
AcDbSpline
 70
8
 71
3
 72
8
 73
4
 74
0
 40
0
 40
0
 40
0
 40
0
 40
1
 40
1
 40
1
 40
1
 10
146.878520
 20
912.427480
 30
0.0
 10
145.644570
 20
912.879820
 30
0.0
 10
144.510280
 20
913.365690
 30
0.0
 10
143.444570
 20
913.734300
 30
0.0
  0
SPLINE
  5
19b
100
AcDbEntity
  8
Calque_1
 62
7
100
AcDbSpline
 70
8
 71
3
 72
8
 73
4
 74
0
 40
0
 40
0
 40
0
 40
0
 40
1
 40
1
 40
1
 40
1
 10
143.444570
 20
913.734300
 30
0.0
 10
142.233310
 20
914.153250
 30
0.0
 10
141.738820
 20
914.288090
 30
0.0
 10
140.630210
 20
914.415800
 30
0.0
  0
LWPOLYLINE
  5
19c
100
AcDbEntity
  8
Calque_1
 62
7
100
AcDbPolyline
 90
2
 70
0
 10
313.773550
 20
923.219420
 30
0.0
 10
305.088320
 20
928.252340
 30
0.0
  0
SPLINE
  5
19d
100
AcDbEntity
  8
Calque_1
 62
7
100
AcDbSpline
 70
8
 71
3
 72
8
 73
4
 74
0
 40
0
 40
0
 40
0
 40
0
 40
1
 40
1
 40
1
 40
1
 10
140.619110
 20
914.415640
 30
0.0
 10
140.754470
 20
914.394840
 30
0.0
 10
140.343380
 20
914.304710
 30
0.0
 10
139.440960
 20
914.518910
 30
0.0
  0
SPLINE
  5
19e
100
AcDbEntity
  8
Calque_1
 62
7
100
AcDbSpline
 70
8
 71
3
 72
8
 73
4
 74
0
 40
0
 40
0
 40
0
 40
0
 40
1
 40
1
 40
1
 40
1
 10
139.440960
 20
914.518910
 30
0.0
 10
139.424360
 20
914.523910
 30
0.0
 10
139.440880
 20
914.518830
 30
0.0
 10
139.420360
 20
914.519910
 30
0.0
  0
SPLINE
  5
19f
100
AcDbEntity
  8
Calque_1
 62
7
100
AcDbSpline
 70
8
 71
3
 72
8
 73
4
 74
0
 40
0
 40
0
 40
0
 40
0
 40
1
 40
1
 40
1
 40
1
 10
139.420360
 20
914.519910
 30
0.0
 10
138.801870
 20
914.669480
 30
0.0
 10
138.467810
 20
914.811460
 30
0.0
 10
138.357700
 20
914.889440
 30
0.0
  0
SPLINE
  5
1a0
100
AcDbEntity
  8
Calque_1
 62
7
100
AcDbSpline
 70
8
 71
3
 72
8
 73
4
 74
0
 40
0
 40
0
 40
0
 40
0
 40
1
 40
1
 40
1
 40
1
 10
138.357700
 20
914.889440
 30
0.0
 10
138.233150
 20
914.915340
 30
0.0
 10
138.138980
 20
914.916740
 30
0.0
 10
137.986880
 20
914.971040
 30
0.0
  0
SPLINE
  5
1a1
100
AcDbEntity
  8
Calque_1
 62
7
100
AcDbSpline
 70
8
 71
3
 72
8
 73
4
 74
0
 40
0
 40
0
 40
0
 40
0
 40
1
 40
1
 40
1
 40
1
 10
137.986880
 20
914.971040
 30
0.0
 10
137.215170
 20
915.246360
 30
0.0
 10
136.904390
 20
915.512030
 30
0.0
 10
136.941090
 20
915.494610
 30
0.0
  0
SPLINE
  5
1a2
100
AcDbEntity
  8
Calque_1
 62
7
100
AcDbSpline
 70
8
 71
3
 72
8
 73
4
 74
0
 40
0
 40
0
 40
0
 40
0
 40
1
 40
1
 40
1
 40
1
 10
136.941090
 20
915.494610
 30
0.0
 10
136.136710
 20
915.875920
 30
0.0
 10
134.580830
 20
916.478670
 30
0.0
 10
133.821260
 20
916.731300
 30
0.0
  0
SPLINE
  5
1a3
100
AcDbEntity
  8
Calque_1
 62
7
100
AcDbSpline
 70
8
 71
3
 72
8
 73
4
 74
0
 40
0
 40
0
 40
0
 40
0
 40
1
 40
1
 40
1
 40
1
 10
133.821260
 20
916.731300
 30
0.0
 10
132.470530
 20
917.180230
 30
0.0
 10
131.132850
 20
917.587250
 30
0.0
 10
129.804130
 20
917.905580
 30
0.0
  0
SPLINE
  5
1a4
100
AcDbEntity
  8
Calque_1
 62
7
100
AcDbSpline
 70
8
 71
3
 72
8
 73
4
 74
0
 40
0
 40
0
 40
0
 40
0
 40
1
 40
1
 40
1
 40
1
 10
129.804130
 20
917.905580
 30
0.0
 10
128.625000
 20
918.188010
 30
0.0
 10
127.324150
 20
918.398250
 30
0.0
 10
125.936350
 20
918.698340
 30
0.0
  0
SPLINE
  5
1a5
100
AcDbEntity
  8
Calque_1
 62
7
100
AcDbSpline
 70
8
 71
3
 72
8
 73
4
 74
0
 40
0
 40
0
 40
0
 40
0
 40
1
 40
1
 40
1
 40
1
 10
125.936350
 20
918.698340
 30
0.0
 10
125.604930
 20
918.770040
 30
0.0
 10
124.982340
 20
918.815080
 30
0.0
 10
124.139440
 20
919.091020
 30
0.0
  0
SPLINE
  5
1a6
100
AcDbEntity
  8
Calque_1
 62
7
100
AcDbSpline
 70
8
 71
3
 72
8
 73
4
 74
0
 40
0
 40
0
 40
0
 40
0
 40
1
 40
1
 40
1
 40
1
 10
124.139440
 20
919.091020
 30
0.0
 10
123.107720
 20
919.428670
 30
0.0
 10
122.327070
 20
919.834710
 30
0.0
 10
121.709740
 20
920.071610
 30
0.0
  0
SPLINE
  5
1a7
100
AcDbEntity
  8
Calque_1
 62
7
100
AcDbSpline
 70
8
 71
3
 72
8
 73
4
 74
0
 40
0
 40
0
 40
0
 40
0
 40
1
 40
1
 40
1
 40
1
 10
121.709740
 20
920.071610
 30
0.0
 10
120.385670
 20
920.579830
 30
0.0
 10
120.146590
 20
920.664920
 30
0.0
 10
119.617470
 20
920.863090
 30
0.0
  0
SPLINE
  5
1a8
100
AcDbEntity
  8
Calque_1
 62
7
100
AcDbSpline
 70
8
 71
3
 72
8
 73
4
 74
0
 40
0
 40
0
 40
0
 40
0
 40
1
 40
1
 40
1
 40
1
 10
119.617470
 20
920.863090
 30
0.0
 10
119.567370
 20
920.881890
 30
0.0
 10
119.384280
 20
920.917490
 30
0.0
 10
119.357280
 20
920.926790
 30
0.0
  0
SPLINE
  5
1a9
100
AcDbEntity
  8
Calque_1
 62
7
100
AcDbSpline
 70
8
 71
3
 72
8
 73
4
 74
0
 40
0
 40
0
 40
0
 40
0
 40
1
 40
1
 40
1
 40
1
 10
119.357280
 20
920.926790
 30
0.0
 10
119.259380
 20
920.960590
 30
0.0
 10
119.202540
 20
920.982290
 30
0.0
 10
119.123720
 20
921.012290
 30
0.0
  0
SPLINE
  5
1aa
100
AcDbEntity
  8
Calque_1
 62
7
100
AcDbSpline
 70
8
 71
3
 72
8
 73
4
 74
0
 40
0
 40
0
 40
0
 40
0
 40
1
 40
1
 40
1
 40
1
 10
119.123720
 20
921.012290
 30
0.0
 10
118.966160
 20
921.072490
 30
0.0
 10
118.771630
 20
921.149330
 30
0.0
 10
118.586860
 20
921.223690
 30
0.0
  0
SPLINE
  5
1ab
100
AcDbEntity
  8
Calque_1
 62
7
100
AcDbSpline
 70
8
 71
3
 72
8
 73
4
 74
0
 40
0
 40
0
 40
0
 40
0
 40
1
 40
1
 40
1
 40
1
 10
118.586860
 20
921.223690
 30
0.0
 10
118.402090
 20
921.297990
 30
0.0
 10
118.268060
 20
921.350610
 30
0.0
 10
118.090550
 20
921.431000
 30
0.0
  0
SPLINE
  5
1ac
100
AcDbEntity
  8
Calque_1
 62
7
100
AcDbSpline
 70
8
 71
3
 72
8
 73
4
 74
0
 40
0
 40
0
 40
0
 40
0
 40
1
 40
1
 40
1
 40
1
 10
118.090550
 20
921.431000
 30
0.0
 10
118.046550
 20
921.451400
 30
0.0
 10
118.043150
 20
921.440000
 30
0.0
 10
117.833010
 20
921.562370
 30
0.0
  0
SPLINE
  5
1ad
100
AcDbEntity
  8
Calque_1
 62
7
100
AcDbSpline
 70
8
 71
3
 72
8
 73
4
 74
0
 40
0
 40
0
 40
0
 40
0
 40
1
 40
1
 40
1
 40
1
 10
117.833010
 20
921.562370
 30
0.0
 10
117.830010
 20
921.566370
 30
0.0
 10
117.813410
 20
921.575670
 30
0.0
 10
117.809110
 20
921.578970
 30
0.0
  0
SPLINE
  5
1ae
100
AcDbEntity
  8
Calque_1
 62
7
100
AcDbSpline
 70
8
 71
3
 72
8
 73
4
 74
0
 40
0
 40
0
 40
0
 40
0
 40
1
 40
1
 40
1
 40
1
 10
117.809110
 20
921.578970
 30
0.0
 10
117.535720
 20
921.691990
 30
0.0
 10
117.379740
 20
921.757620
 30
0.0
 10
116.990490
 20
921.917310
 30
0.0
  0
SPLINE
  5
1af
100
AcDbEntity
  8
Calque_1
 62
7
100
AcDbSpline
 70
8
 71
3
 72
8
 73
4
 74
0
 40
0
 40
0
 40
0
 40
0
 40
1
 40
1
 40
1
 40
1
 10
116.990490
 20
921.917310
 30
0.0
 10
113.847340
 20
923.206920
 30
0.0
 10
110.448300
 20
924.253170
 30
0.0
 10
107.038150
 20
925.697990
 30
0.0
  0
SPLINE
  5
1b0
100
AcDbEntity
  8
Calque_1
 62
7
100
AcDbSpline
 70
8
 71
3
 72
8
 73
4
 74
0
 40
0
 40
0
 40
0
 40
0
 40
1
 40
1
 40
1
 40
1
 10
107.038150
 20
925.697990
 30
0.0
 10
105.793870
 20
926.225140
 30
0.0
 10
105.167390
 20
926.493160
 30
0.0
 10
104.792260
 20
926.663980
 30
0.0
  0
SPLINE
  5
1b1
100
AcDbEntity
  8
Calque_1
 62
7
100
AcDbSpline
 70
8
 71
3
 72
8
 73
4
 74
0
 40
0
 40
0
 40
0
 40
0
 40
1
 40
1
 40
1
 40
1
 10
104.792260
 20
926.663980
 30
0.0
 10
104.604710
 20
926.749280
 30
0.0
 10
104.576380
 20
926.720980
 30
0.0
 10
104.172700
 20
926.995330
 30
0.0
  0
SPLINE
  5
1b2
100
AcDbEntity
  8
Calque_1
 62
7
100
AcDbSpline
 70
8
 71
3
 72
8
 73
4
 74
0
 40
0
 40
0
 40
0
 40
0
 40
1
 40
1
 40
1
 40
1
 10
104.172700
 20
926.995330
 30
0.0
 10
104.108300
 20
927.039030
 30
0.0
 10
103.970580
 20
927.173740
 30
0.0
 10
103.854640
 20
927.280270
 30
0.0
  0
SPLINE
  5
1b3
100
AcDbEntity
  8
Calque_1
 62
7
100
AcDbSpline
 70
8
 71
3
 72
8
 73
4
 74
0
 40
0
 40
0
 40
0
 40
0
 40
1
 40
1
 40
1
 40
1
 10
103.854640
 20
927.280270
 30
0.0
 10
103.746020
 20
927.338670
 30
0.0
 10
103.580460
 20
927.439530
 30
0.0
 10
102.853450
 20
927.796720
 30
0.0
  0
SPLINE
  5
1b4
100
AcDbEntity
  8
Calque_1
 62
7
100
AcDbSpline
 70
8
 71
3
 72
8
 73
4
 74
0
 40
0
 40
0
 40
0
 40
0
 40
1
 40
1
 40
1
 40
1
 10
102.853450
 20
927.796720
 30
0.0
 10
101.001760
 20
928.706460
 30
0.0
 10
98.944730
 20
929.365010
 30
0.0
 10
96.786750
 20
930.063180
 30
0.0
  0
SPLINE
  5
1b5
100
AcDbEntity
  8
Calque_1
 62
7
100
AcDbSpline
 70
8
 71
3
 72
8
 73
4
 74
0
 40
0
 40
0
 40
0
 40
0
 40
1
 40
1
 40
1
 40
1
 10
96.786750
 20
930.063180
 30
0.0
 10
94.642111
 20
930.757050
 30
0.0
 10
92.398033
 20
931.491120
 30
0.0
 10
90.155050
 20
932.551670
 30
0.0
  0
LWPOLYLINE
  5
1b6
100
AcDbEntity
  8
Calque_1
 62
7
100
AcDbPolyline
 90
2
 70
0
 10
140.630210
 20
914.415800
 30
0.0
 10
140.619110
 20
914.415640
 30
0.0
  0
SPLINE
  5
1b7
100
AcDbEntity
  8
Calque_1
 62
7
100
AcDbSpline
 70
8
 71
3
 72
8
 73
4
 74
0
 40
0
 40
0
 40
0
 40
0
 40
1
 40
1
 40
1
 40
1
 10
90.152350
 20
932.555670
 30
0.0
 10
90.125220
 20
932.574770
 30
0.0
 10
90.098780
 20
932.595070
 30
0.0
 10
90.073060
 20
932.615670
 30
0.0
  0
SPLINE
  5
1b8
100
AcDbEntity
  8
Calque_1
 62
7
100
AcDbSpline
 70
8
 71
3
 72
8
 73
4
 74
0
 40
0
 40
0
 40
0
 40
0
 40
1
 40
1
 40
1
 40
1
 10
90.073060
 20
932.615670
 30
0.0
 10
89.811908
 20
932.745900
 30
0.0
 10
89.576701
 20
932.922640
 30
0.0
 10
89.378998
 20
933.137260
 30
0.0
  0
SPLINE
  5
1b9
100
AcDbEntity
  8
Calque_1
 62
7
100
AcDbSpline
 70
8
 71
3
 72
8
 73
4
 74
0
 40
0
 40
0
 40
0
 40
0
 40
1
 40
1
 40
1
 40
1
 10
89.378998
 20
933.137260
 30
0.0
 10
88.858769
 20
933.727500
 30
0.0
 10
88.301505
 20
934.338760
 30
0.0
 10
87.739473
 20
934.998180
 30
0.0
  0
LWPOLYLINE
  5
1ba
100
AcDbEntity
  8
Calque_1
 62
7
100
AcDbPolyline
 90
2
 70
0
 10
90.155050
 20
932.551670
 30
0.0
 10
90.152350
 20
932.555670
 30
0.0
  0
SPLINE
  5
1bb
100
AcDbEntity
  8
Calque_1
 62
7
100
AcDbSpline
 70
8
 71
3
 72
8
 73
4
 74
0
 40
0
 40
0
 40
0
 40
0
 40
1
 40
1
 40
1
 40
1
 10
87.738627
 20
935.000180
 30
0.0
 10
87.726047
 20
935.021980
 30
0.0
 10
87.726767
 20
935.021080
 30
0.0
 10
87.715947
 20
935.039580
 30
0.0
  0
SPLINE
  5
1bc
100
AcDbEntity
  8
Calque_1
 62
7
100
AcDbSpline
 70
8
 71
3
 72
8
 73
4
 74
0
 40
0
 40
0
 40
0
 40
0
 40
1
 40
1
 40
1
 40
1
 10
87.715947
 20
935.039580
 30
0.0
 10
87.268844
 20
935.387060
 30
0.0
 10
87.082055
 20
935.682310
 30
0.0
 10
86.982439
 20
935.837820
 30
0.0
  0
SPLINE
  5
1bd
100
AcDbEntity
  8
Calque_1
 62
7
100
AcDbSpline
 70
8
 71
3
 72
8
 73
4
 74
0
 40
0
 40
0
 40
0
 40
0
 40
1
 40
1
 40
1
 40
1
 10
86.982439
 20
935.837820
 30
0.0
 10
86.950089
 20
935.893920
 30
0.0
 10
86.930019
 20
935.908220
 30
0.0
 10
86.909549
 20
935.943740
 30
0.0
  0
SPLINE
  5
1be
100
AcDbEntity
  8
Calque_1
 62
7
100
AcDbSpline
 70
8
 71
3
 72
8
 73
4
 74
0
 40
0
 40
0
 40
0
 40
0
 40
1
 40
1
 40
1
 40
1
 10
86.909549
 20
935.943740
 30
0.0
 10
86.759714
 20
936.089660
 30
0.0
 10
86.222039
 20
936.454940
 30
0.0
 10
85.541955
 20
937.330340
 30
0.0
  0
LWPOLYLINE
  5
1bf
100
AcDbEntity
  8
Calque_1
 62
7
100
AcDbPolyline
 90
2
 70
0
 10
87.739473
 20
934.998180
 30
0.0
 10
87.738627
 20
935.000180
 30
0.0
  0
SPLINE
  5
1c0
100
AcDbEntity
  8
Calque_1
 62
7
100
AcDbSpline
 70
8
 71
3
 72
8
 73
4
 74
0
 40
0
 40
0
 40
0
 40
0
 40
1
 40
1
 40
1
 40
1
 10
85.541109
 20
937.332340
 30
0.0
 10
85.153924
 20
937.830250
 30
0.0
 10
84.922176
 20
938.193940
 30
0.0
 10
84.776139
 20
938.365330
 30
0.0
  0
SPLINE
  5
1c1
100
AcDbEntity
  8
Calque_1
 62
7
100
AcDbSpline
 70
8
 71
3
 72
8
 73
4
 74
0
 40
0
 40
0
 40
0
 40
0
 40
1
 40
1
 40
1
 40
1
 10
84.776139
 20
938.365330
 30
0.0
 10
84.387977
 20
938.820240
 30
0.0
 10
83.730690
 20
939.390200
 30
0.0
 10
83.027629
 20
940.244570
 30
0.0
  0
LWPOLYLINE
  5
1c2
100
AcDbEntity
  8
Calque_1
 62
7
100
AcDbPolyline
 90
2
 70
0
 10
85.541955
 20
937.330340
 30
0.0
 10
85.541109
 20
937.332340
 30
0.0
  0
SPLINE
  5
1c3
100
AcDbEntity
  8
Calque_1
 62
7
100
AcDbSpline
 70
8
 71
3
 72
8
 73
4
 74
0
 40
0
 40
0
 40
0
 40
0
 40
1
 40
1
 40
1
 40
1
 10
83.026783
 20
940.246570
 30
0.0
 10
82.827273
 20
940.488780
 30
0.0
 10
82.749859
 20
940.581100
 30
0.0
 10
82.604021
 20
940.768200
 30
0.0
  0
SPLINE
  5
1c4
100
AcDbEntity
  8
Calque_1
 62
7
100
AcDbSpline
 70
8
 71
3
 72
8
 73
4
 74
0
 40
0
 40
0
 40
0
 40
0
 40
1
 40
1
 40
1
 40
1
 10
82.604021
 20
940.768200
 30
0.0
 10
82.395541
 20
941.035970
 30
0.0
 10
82.142476
 20
941.368540
 30
0.0
 10
81.999704
 20
941.515030
 30
0.0
  0
SPLINE
  5
1c5
100
AcDbEntity
  8
Calque_1
 62
7
100
AcDbSpline
 70
8
 71
3
 72
8
 73
4
 74
0
 40
0
 40
0
 40
0
 40
0
 40
1
 40
1
 40
1
 40
1
 10
81.999704
 20
941.515030
 30
0.0
 10
81.271851
 20
942.262380
 30
0.0
 10
80.543283
 20
943.030030
 30
0.0
 10
79.812570
 20
943.780930
 30
0.0
  0
SPLINE
  5
1c6
100
AcDbEntity
  8
Calque_1
 62
7
100
AcDbSpline
 70
8
 71
3
 72
8
 73
4
 74
0
 40
0
 40
0
 40
0
 40
0
 40
1
 40
1
 40
1
 40
1
 10
79.812570
 20
943.780930
 30
0.0
 10
78.713627
 20
944.909890
 30
0.0
 10
77.612576
 20
946.027470
 30
0.0
 10
76.522855
 20
947.187710
 30
0.0
  0
LWPOLYLINE
  5
1c7
100
AcDbEntity
  8
Calque_1
 62
7
100
AcDbPolyline
 90
2
 70
0
 10
83.027629
 20
940.244570
 30
0.0
 10
83.026783
 20
940.246570
 30
0.0
  0
SPLINE
  5
1c8
100
AcDbEntity
  8
Calque_1
 62
7
100
AcDbSpline
 70
8
 71
3
 72
8
 73
4
 74
0
 40
0
 40
0
 40
0
 40
0
 40
1
 40
1
 40
1
 40
1
 10
76.522010
 20
947.189710
 30
0.0
 10
75.766256
 20
947.994520
 30
0.0
 10
75.100728
 20
948.846850
 30
0.0
 10
74.505363
 20
949.792350
 30
0.0
  0
SPLINE
  5
1c9
100
AcDbEntity
  8
Calque_1
 62
7
100
AcDbSpline
 70
8
 71
3
 72
8
 73
4
 74
0
 40
0
 40
0
 40
0
 40
0
 40
1
 40
1
 40
1
 40
1
 10
74.505363
 20
949.792350
 30
0.0
 10
73.941881
 20
950.686480
 30
0.0
 10
73.690758
 20
951.278750
 30
0.0
 10
73.564197
 20
951.426350
 30
0.0
  0
SPLINE
  5
1ca
100
AcDbEntity
  8
Calque_1
 62
7
100
AcDbSpline
 70
8
 71
3
 72
8
 73
4
 74
0
 40
0
 40
0
 40
0
 40
0
 40
1
 40
1
 40
1
 40
1
 10
73.564197
 20
951.426350
 30
0.0
 10
73.355096
 20
951.681200
 30
0.0
 10
72.891439
 20
951.988290
 30
0.0
 10
72.148020
 20
952.718180
 30
0.0
  0
SPLINE
  5
1cb
100
AcDbEntity
  8
Calque_1
 62
7
100
AcDbSpline
 70
8
 71
3
 72
8
 73
4
 74
0
 40
0
 40
0
 40
0
 40
0
 40
1
 40
1
 40
1
 40
1
 10
72.148020
 20
952.718180
 30
0.0
 10
71.635483
 20
953.221350
 30
0.0
 10
71.592499
 20
953.350280
 30
0.0
 10
71.647027
 20
953.302090
 30
0.0
  0
SPLINE
  5
1cc
100
AcDbEntity
  8
Calque_1
 62
7
100
AcDbSpline
 70
8
 71
3
 72
8
 73
4
 74
0
 40
0
 40
0
 40
0
 40
0
 40
1
 40
1
 40
1
 40
1
 10
71.647027
 20
953.302090
 30
0.0
 10
71.252601
 20
953.651480
 30
0.0
 10
70.426745
 20
954.331950
 30
0.0
 10
70.260357
 20
954.443320
 30
0.0
  0
SPLINE
  5
1cd
100
AcDbEntity
  8
Calque_1
 62
7
100
AcDbSpline
 70
8
 71
3
 72
8
 73
4
 74
0
 40
0
 40
0
 40
0
 40
0
 40
1
 40
1
 40
1
 40
1
 10
70.260357
 20
954.443320
 30
0.0
 10
70.246097
 20
954.448320
 30
0.0
 10
69.948749
 20
954.575390
 30
0.0
 10
69.406782
 20
954.906450
 30
0.0
  0
SPLINE
  5
1ce
100
AcDbEntity
  8
Calque_1
 62
7
100
AcDbSpline
 70
8
 71
3
 72
8
 73
4
 74
0
 40
0
 40
0
 40
0
 40
0
 40
1
 40
1
 40
1
 40
1
 10
69.406782
 20
954.906450
 30
0.0
 10
67.833930
 20
955.866840
 30
0.0
 10
66.549397
 20
956.850770
 30
0.0
 10
65.288695
 20
957.542100
 30
0.0
  0
SPLINE
  5
1cf
100
AcDbEntity
  8
Calque_1
 62
7
100
AcDbSpline
 70
8
 71
3
 72
8
 73
4
 74
0
 40
0
 40
0
 40
0
 40
0
 40
1
 40
1
 40
1
 40
1
 10
65.288695
 20
957.542100
 30
0.0
 10
65.212645
 20
957.584000
 30
0.0
 10
63.976535
 20
958.216360
 30
0.0
 10
63.976535
 20
958.216360
 30
0.0
  0
LWPOLYLINE
  5
1d0
100
AcDbEntity
  8
Calque_1
 62
7
100
AcDbPolyline
 90
2
 70
0
 10
76.522855
 20
947.187710
 30
0.0
 10
76.522010
 20
947.189710
 30
0.0
  0
SPLINE
  5
1d1
100
AcDbEntity
  8
Calque_1
 62
7
100
AcDbSpline
 70
8
 71
3
 72
8
 73
4
 74
0
 40
0
 40
0
 40
0
 40
0
 40
1
 40
1
 40
1
 40
1
 10
80.439160
 20
891.323950
 30
0.0
 10
81.568749
 20
890.427890
 30
0.0
 10
83.875068
 20
888.637680
 30
0.0
 10
83.875068
 20
888.637680
 30
0.0
  0
LWPOLYLINE
  5
1d2
100
AcDbEntity
  8
Calque_1
 62
7
100
AcDbPolyline
 90
5
 70
0
 10
63.976535
 20
958.216360
 30
0.0
 10
63.298068
 20
958.748140
 30
0.0
 10
56.374641
 20
963.847020
 30
0.0
 10
47.426965
 20
970.437930
 30
0.0
 10
80.439160
 20
891.323950
 30
0.0
  0
SPLINE
  5
1d3
100
AcDbEntity
  8
Calque_1
 62
7
100
AcDbSpline
 70
8
 71
3
 72
8
 73
4
 74
0
 40
0
 40
0
 40
0
 40
0
 40
1
 40
1
 40
1
 40
1
 10
90.071785
 20
883.795310
 30
0.0
 10
90.071785
 20
883.795310
 30
0.0
 10
93.127836
 20
882.678340
 30
0.0
 10
94.656249
 20
882.092630
 30
0.0
  0
SPLINE
  5
1d4
100
AcDbEntity
  8
Calque_1
 62
7
100
AcDbSpline
 70
8
 71
3
 72
8
 73
4
 74
0
 40
0
 40
0
 40
0
 40
0
 40
1
 40
1
 40
1
 40
1
 10
94.656249
 20
882.092630
 30
0.0
 10
95.623164
 20
881.722050
 30
0.0
 10
96.157209
 20
881.507520
 30
0.0
 10
96.508387
 20
881.356650
 30
0.0
  0
SPLINE
  5
1d5
100
AcDbEntity
  8
Calque_1
 62
7
100
AcDbSpline
 70
8
 71
3
 72
8
 73
4
 74
0
 40
0
 40
0
 40
0
 40
0
 40
1
 40
1
 40
1
 40
1
 10
96.508387
 20
881.356650
 30
0.0
 10
96.855071
 20
881.207740
 30
0.0
 10
97.203083
 20
881.010670
 30
0.0
 10
97.295984
 20
880.949160
 30
0.0
  0
SPLINE
  5
1d6
100
AcDbEntity
  8
Calque_1
 62
7
100
AcDbSpline
 70
8
 71
3
 72
8
 73
4
 74
0
 40
0
 40
0
 40
0
 40
0
 40
1
 40
1
 40
1
 40
1
 10
97.295984
 20
880.949160
 30
0.0
 10
97.319754
 20
880.927960
 30
0.0
 10
96.978107
 20
881.110140
 30
0.0
 10
97.124665
 20
881.053830
 30
0.0
  0
SPLINE
  5
1d7
100
AcDbEntity
  8
Calque_1
 62
7
100
AcDbSpline
 70
8
 71
3
 72
8
 73
4
 74
0
 40
0
 40
0
 40
0
 40
0
 40
1
 40
1
 40
1
 40
1
 10
97.124665
 20
881.053830
 30
0.0
 10
97.281789
 20
880.993330
 30
0.0
 10
97.688548
 20
880.846600
 30
0.0
 10
98.487112
 20
880.566540
 30
0.0
  0
SPLINE
  5
1d8
100
AcDbEntity
  8
Calque_1
 62
7
100
AcDbSpline
 70
8
 71
3
 72
8
 73
4
 74
0
 40
0
 40
0
 40
0
 40
0
 40
1
 40
1
 40
1
 40
1
 10
98.487112
 20
880.566540
 30
0.0
 10
98.506012
 20
880.560540
 30
0.0
 10
98.525912
 20
880.555540
 30
0.0
 10
98.544712
 20
880.548440
 30
0.0
  0
SPLINE
  5
1d9
100
AcDbEntity
  8
Calque_1
 62
7
100
AcDbSpline
 70
8
 71
3
 72
8
 73
4
 74
0
 40
0
 40
0
 40
0
 40
0
 40
1
 40
1
 40
1
 40
1
 10
98.544712
 20
880.548440
 30
0.0
 10
102.609142
 20
879.126780
 30
0.0
 10
106.835282
 20
878.035610
 30
0.0
 10
111.134792
 20
876.861760
 30
0.0
  0
SPLINE
  5
1da
100
AcDbEntity
  8
Calque_1
 62
7
100
AcDbSpline
 70
8
 71
3
 72
8
 73
4
 74
0
 40
0
 40
0
 40
0
 40
0
 40
1
 40
1
 40
1
 40
1
 10
111.134792
 20
876.861760
 30
0.0
 10
111.161992
 20
876.854760
 30
0.0
 10
111.188092
 20
876.847260
 30
0.0
 10
111.214292
 20
876.839560
 30
0.0
  0
SPLINE
  5
1db
100
AcDbEntity
  8
Calque_1
 62
7
100
AcDbSpline
 70
8
 71
3
 72
8
 73
4
 74
0
 40
0
 40
0
 40
0
 40
0
 40
1
 40
1
 40
1
 40
1
 10
111.214292
 20
876.839560
 30
0.0
 10
112.002842
 20
876.624140
 30
0.0
 10
112.621572
 20
876.387830
 30
0.0
 10
113.107242
 20
876.255290
 30
0.0
  0
SPLINE
  5
1dc
100
AcDbEntity
  8
Calque_1
 62
7
100
AcDbSpline
 70
8
 71
3
 72
8
 73
4
 74
0
 40
0
 40
0
 40
0
 40
0
 40
1
 40
1
 40
1
 40
1
 10
113.107242
 20
876.255290
 30
0.0
 10
115.100692
 20
875.711110
 30
0.0
 10
117.208842
 20
875.213640
 30
0.0
 10
119.210942
 20
874.850400
 30
0.0
  0
SPLINE
  5
1dd
100
AcDbEntity
  8
Calque_1
 62
7
100
AcDbSpline
 70
8
 71
3
 72
8
 73
4
 74
0
 40
0
 40
0
 40
0
 40
0
 40
1
 40
1
 40
1
 40
1
 10
119.210942
 20
874.850400
 30
0.0
 10
119.775782
 20
874.747960
 30
0.0
 10
120.528452
 20
874.700350
 30
0.0
 10
121.444232
 20
874.549240
 30
0.0
  0
SPLINE
  5
1de
100
AcDbEntity
  8
Calque_1
 62
7
100
AcDbSpline
 70
8
 71
3
 72
8
 73
4
 74
0
 40
0
 40
0
 40
0
 40
0
 40
1
 40
1
 40
1
 40
1
 10
121.444232
 20
874.549240
 30
0.0
 10
125.032222
 20
873.956710
 30
0.0
 10
128.621452
 20
873.303360
 30
0.0
 10
132.201952
 20
872.533100
 30
0.0
  0
SPLINE
  5
1df
100
AcDbEntity
  8
Calque_1
 62
7
100
AcDbSpline
 70
8
 71
3
 72
8
 73
4
 74
0
 40
0
 40
0
 40
0
 40
0
 40
1
 40
1
 40
1
 40
1
 10
132.201952
 20
872.533100
 30
0.0
 10
134.948282
 20
871.942240
 30
0.0
 10
137.606312
 20
871.260470
 30
0.0
 10
140.229232
 20
870.696960
 30
0.0
  0
SPLINE
  5
1e0
100
AcDbEntity
  8
Calque_1
 62
7
100
AcDbSpline
 70
8
 71
3
 72
8
 73
4
 74
0
 40
0
 40
0
 40
0
 40
0
 40
1
 40
1
 40
1
 40
1
 10
140.229232
 20
870.696960
 30
0.0
 10
144.872012
 20
869.699700
 30
0.0
 10
149.529452
 20
868.830870
 30
0.0
 10
154.220172
 20
868.080760
 30
0.0
  0
SPLINE
  5
1e1
100
AcDbEntity
  8
Calque_1
 62
7
100
AcDbSpline
 70
8
 71
3
 72
8
 73
4
 74
0
 40
0
 40
0
 40
0
 40
0
 40
1
 40
1
 40
1
 40
1
 10
154.220172
 20
868.080760
 30
0.0
 10
155.036542
 20
867.950300
 30
0.0
 10
157.680762
 20
867.492850
 30
0.0
 10
158.271002
 20
867.429810
 30
0.0
  0
SPLINE
  5
1e2
100
AcDbEntity
  8
Calque_1
 62
7
100
AcDbSpline
 70
8
 71
3
 72
8
 73
4
 74
0
 40
0
 40
0
 40
0
 40
0
 40
1
 40
1
 40
1
 40
1
 10
158.271002
 20
867.429810
 30
0.0
 10
158.979622
 20
867.354210
 30
0.0
 10
159.830572
 20
867.336010
 30
0.0
 10
160.811452
 20
867.230960
 30
0.0
  0
SPLINE
  5
1e3
100
AcDbEntity
  8
Calque_1
 62
7
100
AcDbSpline
 70
8
 71
3
 72
8
 73
4
 74
0
 40
0
 40
0
 40
0
 40
0
 40
1
 40
1
 40
1
 40
1
 10
160.811452
 20
867.230960
 30
0.0
 10
160.928402
 20
867.218060
 30
0.0
 10
161.024772
 20
867.193460
 30
0.0
 10
161.140522
 20
867.179560
 30
0.0
  0
SPLINE
  5
1e4
100
AcDbEntity
  8
Calque_1
 62
7
100
AcDbSpline
 70
8
 71
3
 72
8
 73
4
 74
0
 40
0
 40
0
 40
0
 40
0
 40
1
 40
1
 40
1
 40
1
 10
161.140522
 20
867.179560
 30
0.0
 10
163.529302
 20
866.892330
 30
0.0
 10
165.637682
 20
866.368400
 30
0.0
 10
167.549022
 20
866.210240
 30
0.0
  0
SPLINE
  5
1e5
100
AcDbEntity
  8
Calque_1
 62
7
100
AcDbSpline
 70
8
 71
3
 72
8
 73
4
 74
0
 40
0
 40
0
 40
0
 40
0
 40
1
 40
1
 40
1
 40
1
 10
167.549022
 20
866.210240
 30
0.0
 10
167.599922
 20
866.206240
 30
0.0
 10
167.658512
 20
866.190540
 30
0.0
 10
167.709192
 20
866.186840
 30
0.0
  0
SPLINE
  5
1e6
100
AcDbEntity
  8
Calque_1
 62
7
100
AcDbSpline
 70
8
 71
3
 72
8
 73
4
 74
0
 40
0
 40
0
 40
0
 40
0
 40
1
 40
1
 40
1
 40
1
 10
167.709192
 20
866.186840
 30
0.0
 10
167.729692
 20
866.185840
 30
0.0
 10
167.750592
 20
866.185840
 30
0.0
 10
167.770992
 20
866.183840
 30
0.0
  0
SPLINE
  5
1e7
100
AcDbEntity
  8
Calque_1
 62
7
100
AcDbSpline
 70
8
 71
3
 72
8
 73
4
 74
0
 40
0
 40
0
 40
0
 40
0
 40
1
 40
1
 40
1
 40
1
 10
167.770992
 20
866.183840
 30
0.0
 10
171.641032
 20
865.905330
 30
0.0
 10
175.619212
 20
865.899970
 30
0.0
 10
179.635192
 20
865.839690
 30
0.0
  0
SPLINE
  5
1e8
100
AcDbEntity
  8
Calque_1
 62
7
100
AcDbSpline
 70
8
 71
3
 72
8
 73
4
 74
0
 40
0
 40
0
 40
0
 40
0
 40
1
 40
1
 40
1
 40
1
 10
179.635192
 20
865.839690
 30
0.0
 10
179.656192
 20
865.839100
 30
0.0
 10
179.677292
 20
865.839500
 30
0.0
 10
179.698092
 20
865.838930
 30
0.0
  0
SPLINE
  5
1e9
100
AcDbEntity
  8
Calque_1
 62
7
100
AcDbSpline
 70
8
 71
3
 72
8
 73
4
 74
0
 40
0
 40
0
 40
0
 40
0
 40
1
 40
1
 40
1
 40
1
 10
179.698092
 20
865.838930
 30
0.0
 10
180.776092
 20
865.822630
 30
0.0
 10
181.275602
 20
865.813530
 30
0.0
 10
181.559182
 20
865.804030
 30
0.0
  0
SPLINE
  5
1ea
100
AcDbEntity
  8
Calque_1
 62
7
100
AcDbSpline
 70
8
 71
3
 72
8
 73
4
 74
0
 40
0
 40
0
 40
0
 40
0
 40
1
 40
1
 40
1
 40
1
 10
181.559182
 20
865.804030
 30
0.0
 10
181.700932
 20
865.799030
 30
0.0
 10
181.502982
 20
865.881630
 30
0.0
 10
182.169972
 20
865.739630
 30
0.0
  0
LWPOLYLINE
  5
1eb
100
AcDbEntity
  8
Calque_1
 62
7
100
AcDbPolyline
 90
2
 70
0
 10
83.875068
 20
888.637680
 30
0.0
 10
90.071785
 20
883.795310
 30
0.0
  0
SPLINE
  5
1ec
100
AcDbEntity
  8
Calque_1
 62
7
100
AcDbSpline
 70
8
 71
3
 72
8
 73
4
 74
0
 40
0
 40
0
 40
0
 40
0
 40
1
 40
1
 40
1
 40
1
 10
182.183072
 20
865.736630
 30
0.0
 10
182.451892
 20
865.721230
 30
0.0
 10
182.994342
 20
865.697030
 30
0.0
 10
184.138032
 20
865.661030
 30
0.0
  0
SPLINE
  5
1ed
100
AcDbEntity
  8
Calque_1
 62
7
100
AcDbSpline
 70
8
 71
3
 72
8
 73
4
 74
0
 40
0
 40
0
 40
0
 40
0
 40
1
 40
1
 40
1
 40
1
 10
184.138032
 20
865.661030
 30
0.0
 10
185.814042
 20
865.608230
 30
0.0
 10
185.487532
 20
865.635630
 30
0.0
 10
185.997792
 20
865.666030
 30
0.0
  0
SPLINE
  5
1ee
100
AcDbEntity
  8
Calque_1
 62
7
100
AcDbSpline
 70
8
 71
3
 72
8
 73
4
 74
0
 40
0
 40
0
 40
0
 40
0
 40
1
 40
1
 40
1
 40
1
 10
185.997792
 20
865.666030
 30
0.0
 10
186.508052
 20
865.697030
 30
0.0
 10
186.983482
 20
865.664030
 30
0.0
 10
189.336302
 20
865.482620
 30
0.0
  0
SPLINE
  5
1ef
100
AcDbEntity
  8
Calque_1
 62
7
100
AcDbSpline
 70
8
 71
3
 72
8
 73
4
 74
0
 40
0
 40
0
 40
0
 40
0
 40
1
 40
1
 40
1
 40
1
 10
189.336302
 20
865.482620
 30
0.0
 10
192.308092
 20
865.254040
 30
0.0
 10
195.261602
 20
864.937690
 30
0.0
 10
198.157192
 20
864.673720
 30
0.0
  0
SPLINE
  5
1f0
100
AcDbEntity
  8
Calque_1
 62
7
100
AcDbSpline
 70
8
 71
3
 72
8
 73
4
 74
0
 40
0
 40
0
 40
0
 40
0
 40
1
 40
1
 40
1
 40
1
 10
198.157192
 20
864.673720
 30
0.0
 10
199.050932
 20
864.592220
 30
0.0
 10
199.796512
 20
864.467350
 30
0.0
 10
200.406732
 20
864.426050
 30
0.0
  0
SPLINE
  5
1f1
100
AcDbEntity
  8
Calque_1
 62
7
100
AcDbSpline
 70
8
 71
3
 72
8
 73
4
 74
0
 40
0
 40
0
 40
0
 40
0
 40
1
 40
1
 40
1
 40
1
 10
200.406732
 20
864.426050
 30
0.0
 10
203.055922
 20
864.246920
 30
0.0
 10
205.784832
 20
864.198610
 30
0.0
 10
208.559562
 20
864.079160
 30
0.0
  0
SPLINE
  5
1f2
100
AcDbEntity
  8
Calque_1
 62
7
100
AcDbSpline
 70
8
 71
3
 72
8
 73
4
 74
0
 40
0
 40
0
 40
0
 40
0
 40
1
 40
1
 40
1
 40
1
 10
208.559562
 20
864.079160
 30
0.0
 10
211.195742
 20
863.965610
 30
0.0
 10
213.703352
 20
863.712290
 30
0.0
 10
216.087822
 20
863.710670
 30
0.0
  0
SPLINE
  5
1f3
100
AcDbEntity
  8
Calque_1
 62
7
100
AcDbSpline
 70
8
 71
3
 72
8
 73
4
 74
0
 40
0
 40
0
 40
0
 40
0
 40
1
 40
1
 40
1
 40
1
 10
216.087822
 20
863.710670
 30
0.0
 10
216.829222
 20
863.710160
 30
0.0
 10
217.568442
 20
863.735070
 30
0.0
 10
218.300422
 20
863.788170
 30
0.0
  0
SPLINE
  5
1f4
100
AcDbEntity
  8
Calque_1
 62
7
100
AcDbSpline
 70
8
 71
3
 72
8
 73
4
 74
0
 40
0
 40
0
 40
0
 40
0
 40
1
 40
1
 40
1
 40
1
 10
218.300422
 20
863.788170
 30
0.0
 10
218.919152
 20
863.833170
 30
0.0
 10
219.217352
 20
863.874370
 30
0.0
 10
219.234832
 20
863.877370
 30
0.0
  0
SPLINE
  5
1f5
100
AcDbEntity
  8
Calque_1
 62
7
100
AcDbSpline
 70
8
 71
3
 72
8
 73
4
 74
0
 40
0
 40
0
 40
0
 40
0
 40
1
 40
1
 40
1
 40
1
 10
219.234832
 20
863.877370
 30
0.0
 10
219.493942
 20
863.964870
 30
0.0
 10
219.780882
 20
864.047730
 30
0.0
 10
220.004442
 20
864.076740
 30
0.0
  0
SPLINE
  5
1f6
100
AcDbEntity
  8
Calque_1
 62
7
100
AcDbSpline
 70
8
 71
3
 72
8
 73
4
 74
0
 40
0
 40
0
 40
0
 40
0
 40
1
 40
1
 40
1
 40
1
 10
220.004442
 20
864.076740
 30
0.0
 10
220.373802
 20
864.124740
 30
0.0
 10
220.819112
 20
864.158040
 30
0.0
 10
221.604212
 20
864.201450
 30
0.0
  0
SPLINE
  5
1f7
100
AcDbEntity
  8
Calque_1
 62
7
100
AcDbSpline
 70
8
 71
3
 72
8
 73
4
 74
0
 40
0
 40
0
 40
0
 40
0
 40
1
 40
1
 40
1
 40
1
 10
221.604212
 20
864.201450
 30
0.0
 10
222.772722
 20
864.266050
 30
0.0
 10
223.949822
 20
864.274250
 30
0.0
 10
225.126392
 20
864.219850
 30
0.0
  0
SPLINE
  5
1f8
100
AcDbEntity
  8
Calque_1
 62
7
100
AcDbSpline
 70
8
 71
3
 72
8
 73
4
 74
0
 40
0
 40
0
 40
0
 40
0
 40
1
 40
1
 40
1
 40
1
 10
225.126392
 20
864.219850
 30
0.0
 10
226.968522
 20
864.134750
 30
0.0
 10
227.480892
 20
864.127550
 30
0.0
 10
228.115952
 20
864.037660
 30
0.0
  0
SPLINE
  5
1f9
100
AcDbEntity
  8
Calque_1
 62
7
100
AcDbSpline
 70
8
 71
3
 72
8
 73
4
 74
0
 40
0
 40
0
 40
0
 40
0
 40
1
 40
1
 40
1
 40
1
 10
228.115952
 20
864.037660
 30
0.0
 10
228.138652
 20
864.033660
 30
0.0
 10
228.222062
 20
864.009960
 30
0.0
 10
228.246312
 20
864.007760
 30
0.0
  0
SPLINE
  5
1fa
100
AcDbEntity
  8
Calque_1
 62
7
100
AcDbSpline
 70
8
 71
3
 72
8
 73
4
 74
0
 40
0
 40
0
 40
0
 40
0
 40
1
 40
1
 40
1
 40
1
 10
228.246312
 20
864.007760
 30
0.0
 10
228.721102
 20
864.000760
 30
0.0
 10
228.829952
 20
864.000760
 30
0.0
 10
229.888122
 20
863.981960
 30
0.0
  0
SPLINE
  5
1fb
100
AcDbEntity
  8
Calque_1
 62
7
100
AcDbSpline
 70
8
 71
3
 72
8
 73
4
 74
0
 40
0
 40
0
 40
0
 40
0
 40
1
 40
1
 40
1
 40
1
 10
229.888122
 20
863.981960
 30
0.0
 10
229.907022
 20
863.981280
 30
0.0
 10
229.925522
 20
863.981120
 30
0.0
 10
229.944422
 20
863.980960
 30
0.0
  0
SPLINE
  5
1fc
100
AcDbEntity
  8
Calque_1
 62
7
100
AcDbSpline
 70
8
 71
3
 72
8
 73
4
 74
0
 40
0
 40
0
 40
0
 40
0
 40
1
 40
1
 40
1
 40
1
 10
229.944422
 20
863.980960
 30
0.0
 10
230.784022
 20
863.946660
 30
0.0
 10
231.360712
 20
863.847580
 30
0.0
 10
231.684372
 20
863.848870
 30
0.0
  0
SPLINE
  5
1fd
100
AcDbEntity
  8
Calque_1
 62
7
100
AcDbSpline
 70
8
 71
3
 72
8
 73
4
 74
0
 40
0
 40
0
 40
0
 40
0
 40
1
 40
1
 40
1
 40
1
 10
231.684372
 20
863.848870
 30
0.0
 10
232.797902
 20
863.852870
 30
0.0
 10
234.092132
 20
864.035370
 30
0.0
 10
235.577882
 20
864.107990
 30
0.0
  0
SPLINE
  5
1fe
100
AcDbEntity
  8
Calque_1
 62
7
100
AcDbSpline
 70
8
 71
3
 72
8
 73
4
 74
0
 40
0
 40
0
 40
0
 40
0
 40
1
 40
1
 40
1
 40
1
 10
235.577882
 20
864.107990
 30
0.0
 10
236.943622
 20
864.174790
 30
0.0
 10
237.429292
 20
864.200090
 30
0.0
 10
237.617942
 20
864.208390
 30
0.0
  0
SPLINE
  5
1ff
100
AcDbEntity
  8
Calque_1
 62
7
100
AcDbSpline
 70
8
 71
3
 72
8
 73
4
 74
0
 40
0
 40
0
 40
0
 40
0
 40
1
 40
1
 40
1
 40
1
 10
237.617942
 20
864.208390
 30
0.0
 10
237.641542
 20
864.209390
 30
0.0
 10
237.645542
 20
864.211390
 30
0.0
 10
237.717742
 20
864.212390
 30
0.0
  0
SPLINE
  5
200
100
AcDbEntity
  8
Calque_1
 62
7
100
AcDbSpline
 70
8
 71
3
 72
8
 73
4
 74
0
 40
0
 40
0
 40
0
 40
0
 40
1
 40
1
 40
1
 40
1
 10
237.717742
 20
864.212390
 30
0.0
 10
237.736142
 20
864.213000
 30
0.0
 10
237.755242
 20
864.213390
 30
0.0
 10
237.818202
 20
864.211780
 30
0.0
  0
SPLINE
  5
201
100
AcDbEntity
  8
Calque_1
 62
7
100
AcDbSpline
 70
8
 71
3
 72
8
 73
4
 74
0
 40
0
 40
0
 40
0
 40
0
 40
1
 40
1
 40
1
 40
1
 10
237.818202
 20
864.211780
 30
0.0
 10
237.849802
 20
864.211390
 30
0.0
 10
237.885502
 20
864.210780
 30
0.0
 10
237.988772
 20
864.201780
 30
0.0
  0
SPLINE
  5
202
100
AcDbEntity
  8
Calque_1
 62
7
100
AcDbSpline
 70
8
 71
3
 72
8
 73
4
 74
0
 40
0
 40
0
 40
0
 40
0
 40
1
 40
1
 40
1
 40
1
 10
237.988772
 20
864.201780
 30
0.0
 10
238.003172
 20
864.200840
 30
0.0
 10
238.121092
 20
864.144580
 30
0.0
 10
238.171852
 20
864.125280
 30
0.0
  0
SPLINE
  5
203
100
AcDbEntity
  8
Calque_1
 62
7
100
AcDbSpline
 70
8
 71
3
 72
8
 73
4
 74
0
 40
0
 40
0
 40
0
 40
0
 40
1
 40
1
 40
1
 40
1
 10
238.171852
 20
864.125280
 30
0.0
 10
238.589722
 20
864.122280
 30
0.0
 10
239.007662
 20
864.117280
 30
0.0
 10
240.374212
 20
864.139680
 30
0.0
  0
SPLINE
  5
204
100
AcDbEntity
  8
Calque_1
 62
7
100
AcDbSpline
 70
8
 71
3
 72
8
 73
4
 74
0
 40
0
 40
0
 40
0
 40
0
 40
1
 40
1
 40
1
 40
1
 10
240.374212
 20
864.139680
 30
0.0
 10
241.802832
 20
864.163380
 30
0.0
 10
242.271962
 20
864.182780
 30
0.0
 10
242.675042
 20
864.199480
 30
0.0
  0
SPLINE
  5
205
100
AcDbEntity
  8
Calque_1
 62
7
100
AcDbSpline
 70
8
 71
3
 72
8
 73
4
 74
0
 40
0
 40
0
 40
0
 40
0
 40
1
 40
1
 40
1
 40
1
 10
242.675042
 20
864.199480
 30
0.0
 10
242.739442
 20
864.215880
 30
0.0
 10
242.882162
 20
864.287280
 30
0.0
 10
242.928572
 20
864.297880
 30
0.0
  0
SPLINE
  5
206
100
AcDbEntity
  8
Calque_1
 62
7
100
AcDbSpline
 70
8
 71
3
 72
8
 73
4
 74
0
 40
0
 40
0
 40
0
 40
0
 40
1
 40
1
 40
1
 40
1
 10
242.928572
 20
864.297880
 30
0.0
 10
243.176772
 20
864.355480
 30
0.0
 10
243.277472
 20
864.359580
 30
0.0
 10
243.410292
 20
864.372580
 30
0.0
  0
SPLINE
  5
207
100
AcDbEntity
  8
Calque_1
 62
7
100
AcDbSpline
 70
8
 71
3
 72
8
 73
4
 74
0
 40
0
 40
0
 40
0
 40
0
 40
1
 40
1
 40
1
 40
1
 10
243.410292
 20
864.372580
 30
0.0
 10
243.941372
 20
864.424680
 30
0.0
 10
244.718882
 20
864.454680
 30
0.0
 10
246.499582
 20
864.501850
 30
0.0
  0
SPLINE
  5
208
100
AcDbEntity
  8
Calque_1
 62
7
100
AcDbSpline
 70
8
 71
3
 72
8
 73
4
 74
0
 40
0
 40
0
 40
0
 40
0
 40
1
 40
1
 40
1
 40
1
 10
246.499582
 20
864.501850
 30
0.0
 10
249.789442
 20
864.589050
 30
0.0
 10
253.026172
 20
864.495850
 30
0.0
 10
256.174012
 20
864.515550
 30
0.0
  0
SPLINE
  5
209
100
AcDbEntity
  8
Calque_1
 62
7
100
AcDbSpline
 70
8
 71
3
 72
8
 73
4
 74
0
 40
0
 40
0
 40
0
 40
0
 40
1
 40
1
 40
1
 40
1
 10
256.174012
 20
864.515550
 30
0.0
 10
258.471772
 20
864.529950
 30
0.0
 10
260.930482
 20
864.732210
 30
0.0
 10
263.509942
 20
864.682120
 30
0.0
  0
SPLINE
  5
20a
100
AcDbEntity
  8
Calque_1
 62
7
100
AcDbSpline
 70
8
 71
3
 72
8
 73
4
 74
0
 40
0
 40
0
 40
0
 40
0
 40
1
 40
1
 40
1
 40
1
 10
263.509942
 20
864.682120
 30
0.0
 10
264.579652
 20
864.661420
 30
0.0
 10
265.421302
 20
864.519090
 30
0.0
 10
266.046592
 20
864.497600
 30
0.0
  0
SPLINE
  5
20b
100
AcDbEntity
  8
Calque_1
 62
7
100
AcDbSpline
 70
8
 71
3
 72
8
 73
4
 74
0
 40
0
 40
0
 40
0
 40
0
 40
1
 40
1
 40
1
 40
1
 10
266.046592
 20
864.497600
 30
0.0
 10
267.707162
 20
864.439600
 30
0.0
 10
269.870342
 20
864.481100
 30
0.0
 10
271.431372
 20
864.666870
 30
0.0
  0
SPLINE
  5
20c
100
AcDbEntity
  8
Calque_1
 62
7
100
AcDbSpline
 70
8
 71
3
 72
8
 73
4
 74
0
 40
0
 40
0
 40
0
 40
0
 40
1
 40
1
 40
1
 40
1
 10
271.431372
 20
864.666870
 30
0.0
 10
271.452672
 20
864.669870
 30
0.0
 10
271.479872
 20
864.680370
 30
0.0
 10
271.501172
 20
864.683270
 30
0.0
  0
SPLINE
  5
20d
100
AcDbEntity
  8
Calque_1
 62
7
100
AcDbSpline
 70
8
 71
3
 72
8
 73
4
 74
0
 40
0
 40
0
 40
0
 40
0
 40
1
 40
1
 40
1
 40
1
 10
271.501172
 20
864.683270
 30
0.0
 10
272.757502
 20
864.844830
 30
0.0
 10
274.270212
 20
865.421810
 30
0.0
 10
276.146942
 20
865.838440
 30
0.0
  0
SPLINE
  5
20e
100
AcDbEntity
  8
Calque_1
 62
7
100
AcDbSpline
 70
8
 71
3
 72
8
 73
4
 74
0
 40
0
 40
0
 40
0
 40
0
 40
1
 40
1
 40
1
 40
1
 10
276.146942
 20
865.838440
 30
0.0
 10
276.201242
 20
865.850440
 30
0.0
 10
276.239742
 20
865.865740
 30
0.0
 10
276.294442
 20
865.877540
 30
0.0
  0
SPLINE
  5
20f
100
AcDbEntity
  8
Calque_1
 62
7
100
AcDbSpline
 70
8
 71
3
 72
8
 73
4
 74
0
 40
0
 40
0
 40
0
 40
0
 40
1
 40
1
 40
1
 40
1
 10
276.294442
 20
865.877540
 30
0.0
 10
279.089882
 20
866.473300
 30
0.0
 10
281.799622
 20
866.853810
 30
0.0
 10
284.321182
 20
867.455830
 30
0.0
  0
SPLINE
  5
210
100
AcDbEntity
  8
Calque_1
 62
7
100
AcDbSpline
 70
8
 71
3
 72
8
 73
4
 74
0
 40
0
 40
0
 40
0
 40
0
 40
1
 40
1
 40
1
 40
1
 10
284.321182
 20
867.455830
 30
0.0
 10
285.783002
 20
867.804780
 30
0.0
 10
287.322192
 20
868.215990
 30
0.0
 10
288.756562
 20
868.644880
 30
0.0
  0
SPLINE
  5
211
100
AcDbEntity
  8
Calque_1
 62
7
100
AcDbSpline
 70
8
 71
3
 72
8
 73
4
 74
0
 40
0
 40
0
 40
0
 40
0
 40
1
 40
1
 40
1
 40
1
 10
288.756562
 20
868.644880
 30
0.0
 10
288.833362
 20
868.667880
 30
0.0
 10
289.263382
 20
868.923410
 30
0.0
 10
290.129262
 20
869.137960
 30
0.0
  0
SPLINE
  5
212
100
AcDbEntity
  8
Calque_1
 62
7
100
AcDbSpline
 70
8
 71
3
 72
8
 73
4
 74
0
 40
0
 40
0
 40
0
 40
0
 40
1
 40
1
 40
1
 40
1
 10
290.129262
 20
869.137960
 30
0.0
 10
291.092422
 20
869.376550
 30
0.0
 10
291.785832
 20
869.404270
 30
0.0
 10
292.152792
 20
869.488850
 30
0.0
  0
SPLINE
  5
213
100
AcDbEntity
  8
Calque_1
 62
7
100
AcDbSpline
 70
8
 71
3
 72
8
 73
4
 74
0
 40
0
 40
0
 40
0
 40
0
 40
1
 40
1
 40
1
 40
1
 10
292.152792
 20
869.488850
 30
0.0
 10
293.417602
 20
869.780370
 30
0.0
 10
294.824892
 20
870.312570
 30
0.0
 10
296.418452
 20
870.768600
 30
0.0
  0
SPLINE
  5
214
100
AcDbEntity
  8
Calque_1
 62
7
100
AcDbSpline
 70
8
 71
3
 72
8
 73
4
 74
0
 40
0
 40
0
 40
0
 40
0
 40
1
 40
1
 40
1
 40
1
 10
296.418452
 20
870.768600
 30
0.0
 10
297.551932
 20
871.092990
 30
0.0
 10
298.098772
 20
871.189830
 30
0.0
 10
298.409752
 20
871.226170
 30
0.0
  0
SPLINE
  5
215
100
AcDbEntity
  8
Calque_1
 62
7
100
AcDbSpline
 70
8
 71
3
 72
8
 73
4
 74
0
 40
0
 40
0
 40
0
 40
0
 40
1
 40
1
 40
1
 40
1
 10
298.409752
 20
871.226170
 30
0.0
 10
298.720722
 20
871.262570
 30
0.0
 10
298.631232
 20
871.228170
 30
0.0
 10
299.582542
 20
871.477070
 30
0.0
  0
SPLINE
  5
216
100
AcDbEntity
  8
Calque_1
 62
7
100
AcDbSpline
 70
8
 71
3
 72
8
 73
4
 74
0
 40
0
 40
0
 40
0
 40
0
 40
1
 40
1
 40
1
 40
1
 10
299.582542
 20
871.477070
 30
0.0
 10
300.216172
 20
871.642640
 30
0.0
 10
300.530622
 20
871.740240
 30
0.0
 10
300.607232
 20
871.766720
 30
0.0
  0
SPLINE
  5
217
100
AcDbEntity
  8
Calque_1
 62
7
100
AcDbSpline
 70
8
 71
3
 72
8
 73
4
 74
0
 40
0
 40
0
 40
0
 40
0
 40
1
 40
1
 40
1
 40
1
 10
300.607232
 20
871.766720
 30
0.0
 10
300.616232
 20
871.769720
 30
0.0
 10
300.593532
 20
871.758720
 30
0.0
 10
300.595132
 20
871.759720
 30
0.0
  0
LWPOLYLINE
  5
218
100
AcDbEntity
  8
Calque_1
 62
7
100
AcDbPolyline
 90
2
 70
0
 10
182.169972
 20
865.739630
 30
0.0
 10
182.183072
 20
865.736630
 30
0.0
  0
SPLINE
  5
219
100
AcDbEntity
  8
Calque_1
 62
7
100
AcDbSpline
 70
8
 71
3
 72
8
 73
4
 74
0
 40
0
 40
0
 40
0
 40
0
 40
1
 40
1
 40
1
 40
1
 10
300.607732
 20
871.763720
 30
0.0
 10
300.646432
 20
871.776720
 30
0.0
 10
300.622732
 20
871.774620
 30
0.0
 10
300.513232
 20
871.719620
 30
0.0
  0
SPLINE
  5
21a
100
AcDbEntity
  8
Calque_1
 62
7
100
AcDbSpline
 70
8
 71
3
 72
8
 73
4
 74
0
 40
0
 40
0
 40
0
 40
0
 40
1
 40
1
 40
1
 40
1
 10
300.513232
 20
871.719620
 30
0.0
 10
300.409612
 20
871.669220
 30
0.0
 10
300.118182
 20
871.468200
 30
0.0
 10
300.215792
 20
871.541380
 30
0.0
  0
SPLINE
  5
21b
100
AcDbEntity
  8
Calque_1
 62
7
100
AcDbSpline
 70
8
 71
3
 72
8
 73
4
 74
0
 40
0
 40
0
 40
0
 40
0
 40
1
 40
1
 40
1
 40
1
 10
300.215792
 20
871.541380
 30
0.0
 10
300.312392
 20
871.609680
 30
0.0
 10
300.646052
 20
871.806970
 30
0.0
 10
300.909352
 20
871.890200
 30
0.0
  0
SPLINE
  5
21c
100
AcDbEntity
  8
Calque_1
 62
7
100
AcDbSpline
 70
8
 71
3
 72
8
 73
4
 74
0
 40
0
 40
0
 40
0
 40
0
 40
1
 40
1
 40
1
 40
1
 10
300.909352
 20
871.890200
 30
0.0
 10
301.179942
 20
871.974400
 30
0.0
 10
301.309922
 20
871.979900
 30
0.0
 10
301.378692
 20
871.987600
 30
0.0
  0
SPLINE
  5
21d
100
AcDbEntity
  8
Calque_1
 62
7
100
AcDbSpline
 70
8
 71
3
 72
8
 73
4
 74
0
 40
0
 40
0
 40
0
 40
0
 40
1
 40
1
 40
1
 40
1
 10
301.378692
 20
871.987600
 30
0.0
 10
301.516222
 20
872.002900
 30
0.0
 10
301.510662
 20
871.999900
 30
0.0
 10
301.570732
 20
872.005200
 30
0.0
  0
SPLINE
  5
21e
100
AcDbEntity
  8
Calque_1
 62
7
100
AcDbSpline
 70
8
 71
3
 72
8
 73
4
 74
0
 40
0
 40
0
 40
0
 40
0
 40
1
 40
1
 40
1
 40
1
 10
301.570732
 20
872.005200
 30
0.0
 10
301.690822
 20
872.015500
 30
0.0
 10
301.948522
 20
872.039700
 30
0.0
 10
302.515232
 20
872.107900
 30
0.0
  0
SPLINE
  5
21f
100
AcDbEntity
  8
Calque_1
 62
7
100
AcDbSpline
 70
8
 71
3
 72
8
 73
4
 74
0
 40
0
 40
0
 40
0
 40
0
 40
1
 40
1
 40
1
 40
1
 10
302.515232
 20
872.107900
 30
0.0
 10
303.469482
 20
872.222710
 30
0.0
 10
304.483262
 20
872.383640
 30
0.0
 10
305.566182
 20
872.508490
 30
0.0
  0
SPLINE
  5
220
100
AcDbEntity
  8
Calque_1
 62
7
100
AcDbSpline
 70
8
 71
3
 72
8
 73
4
 74
0
 40
0
 40
0
 40
0
 40
0
 40
1
 40
1
 40
1
 40
1
 10
305.566182
 20
872.508490
 30
0.0
 10
306.726362
 20
872.642240
 30
0.0
 10
307.710592
 20
872.653320
 30
0.0
 10
308.495802
 20
872.761680
 30
0.0
  0
SPLINE
  5
221
100
AcDbEntity
  8
Calque_1
 62
7
100
AcDbSpline
 70
8
 71
3
 72
8
 73
4
 74
0
 40
0
 40
0
 40
0
 40
0
 40
1
 40
1
 40
1
 40
1
 10
308.495802
 20
872.761680
 30
0.0
 10
308.838732
 20
872.809080
 30
0.0
 10
309.375672
 20
872.958350
 30
0.0
 10
310.130112
 20
873.073860
 30
0.0
  0
SPLINE
  5
222
100
AcDbEntity
  8
Calque_1
 62
7
100
AcDbSpline
 70
8
 71
3
 72
8
 73
4
 74
0
 40
0
 40
0
 40
0
 40
0
 40
1
 40
1
 40
1
 40
1
 10
310.130112
 20
873.073860
 30
0.0
 10
311.314552
 20
873.255250
 30
0.0
 10
312.294312
 20
873.289510
 30
0.0
 10
313.030422
 20
873.430620
 30
0.0
  0
SPLINE
  5
223
100
AcDbEntity
  8
Calque_1
 62
7
100
AcDbSpline
 70
8
 71
3
 72
8
 73
4
 74
0
 40
0
 40
0
 40
0
 40
0
 40
1
 40
1
 40
1
 40
1
 10
313.030422
 20
873.430620
 30
0.0
 10
313.416932
 20
873.504720
 30
0.0
 10
313.956582
 20
873.670750
 30
0.0
 10
314.674572
 20
873.814660
 30
0.0
  0
SPLINE
  5
224
100
AcDbEntity
  8
Calque_1
 62
7
100
AcDbSpline
 70
8
 71
3
 72
8
 73
4
 74
0
 40
0
 40
0
 40
0
 40
0
 40
1
 40
1
 40
1
 40
1
 10
314.674572
 20
873.814660
 30
0.0
 10
315.457612
 20
873.971700
 30
0.0
 10
316.031022
 20
874.018420
 30
0.0
 10
316.368202
 20
874.098400
 30
0.0
  0
SPLINE
  5
225
100
AcDbEntity
  8
Calque_1
 62
7
100
AcDbSpline
 70
8
 71
3
 72
8
 73
4
 74
0
 40
0
 40
0
 40
0
 40
0
 40
1
 40
1
 40
1
 40
1
 10
316.368202
 20
874.098400
 30
0.0
 10
316.831682
 20
874.208350
 30
0.0
 10
318.078482
 20
874.666160
 30
0.0
 10
319.127622
 20
874.956640
 30
0.0
  0
SPLINE
  5
226
100
AcDbEntity
  8
Calque_1
 62
7
100
AcDbSpline
 70
8
 71
3
 72
8
 73
4
 74
0
 40
0
 40
0
 40
0
 40
0
 40
1
 40
1
 40
1
 40
1
 10
319.127622
 20
874.956640
 30
0.0
 10
320.609522
 20
875.366920
 30
0.0
 10
322.024152
 20
875.672800
 30
0.0
 10
323.293612
 20
876.047190
 30
0.0
  0
SPLINE
  5
227
100
AcDbEntity
  8
Calque_1
 62
7
100
AcDbSpline
 70
8
 71
3
 72
8
 73
4
 74
0
 40
0
 40
0
 40
0
 40
0
 40
1
 40
1
 40
1
 40
1
 10
323.293612
 20
876.047190
 30
0.0
 10
323.293612
 20
876.047190
 30
0.0
 10
323.571202
 20
876.194390
 30
0.0
 10
324.173302
 20
876.392850
 30
0.0
  0
SPLINE
  5
228
100
AcDbEntity
  8
Calque_1
 62
7
100
AcDbSpline
 70
8
 71
3
 72
8
 73
4
 74
0
 40
0
 40
0
 40
0
 40
0
 40
1
 40
1
 40
1
 40
1
 10
324.173302
 20
876.392850
 30
0.0
 10
324.814202
 20
876.604090
 30
0.0
 10
325.316072
 20
876.714690
 30
0.0
 10
325.648192
 20
876.824330
 30
0.0
  0
SPLINE
  5
229
100
AcDbEntity
  8
Calque_1
 62
7
100
AcDbSpline
 70
8
 71
3
 72
8
 73
4
 74
0
 40
0
 40
0
 40
0
 40
0
 40
1
 40
1
 40
1
 40
1
 10
325.648192
 20
876.824330
 30
0.0
 10
326.044292
 20
876.955080
 30
0.0
 10
325.928012
 20
876.916130
 30
0.0
 10
326.186642
 20
877.005660
 30
0.0
  0
LWPOLYLINE
  5
22a
100
AcDbEntity
  8
Calque_1
 62
7
100
AcDbPolyline
 90
2
 70
0
 10
300.595132
 20
871.759720
 30
0.0
 10
300.607732
 20
871.763720
 30
0.0
  0
SPLINE
  5
22b
100
AcDbEntity
  8
Calque_1
 62
7
100
AcDbSpline
 70
8
 71
3
 72
8
 73
4
 74
0
 40
0
 40
0
 40
0
 40
0
 40
1
 40
1
 40
1
 40
1
 10
326.207342
 20
877.017560
 30
0.0
 10
326.334852
 20
877.102560
 30
0.0
 10
326.400972
 20
877.136000
 30
0.0
 10
326.456172
 20
877.163180
 30
0.0
  0
SPLINE
  5
22c
100
AcDbEntity
  8
Calque_1
 62
7
100
AcDbSpline
 70
8
 71
3
 72
8
 73
4
 74
0
 40
0
 40
0
 40
0
 40
0
 40
1
 40
1
 40
1
 40
1
 10
326.456172
 20
877.163180
 30
0.0
 10
326.565502
 20
877.219280
 30
0.0
 10
326.618732
 20
877.240180
 30
0.0
 10
326.671252
 20
877.261980
 30
0.0
  0
SPLINE
  5
22d
100
AcDbEntity
  8
Calque_1
 62
7
100
AcDbSpline
 70
8
 71
3
 72
8
 73
4
 74
0
 40
0
 40
0
 40
0
 40
0
 40
1
 40
1
 40
1
 40
1
 10
326.671252
 20
877.261980
 30
0.0
 10
327.090772
 20
877.437610
 30
0.0
 10
327.514402
 20
877.575280
 30
0.0
 10
328.750632
 20
877.990930
 30
0.0
  0
SPLINE
  5
22e
100
AcDbEntity
  8
Calque_1
 62
7
100
AcDbSpline
 70
8
 71
3
 72
8
 73
4
 74
0
 40
0
 40
0
 40
0
 40
0
 40
1
 40
1
 40
1
 40
1
 10
328.750632
 20
877.990930
 30
0.0
 10
329.384152
 20
878.203990
 30
0.0
 10
329.824232
 20
878.278630
 30
0.0
 10
330.031442
 20
878.343410
 30
0.0
  0
SPLINE
  5
22f
100
AcDbEntity
  8
Calque_1
 62
7
100
AcDbSpline
 70
8
 71
3
 72
8
 73
4
 74
0
 40
0
 40
0
 40
0
 40
0
 40
1
 40
1
 40
1
 40
1
 10
330.031442
 20
878.343410
 30
0.0
 10
331.747762
 20
878.879880
 30
0.0
 10
333.523202
 20
879.673910
 30
0.0
 10
335.487962
 20
880.400910
 30
0.0
  0
SPLINE
  5
230
100
AcDbEntity
  8
Calque_1
 62
7
100
AcDbSpline
 70
8
 71
3
 72
8
 73
4
 74
0
 40
0
 40
0
 40
0
 40
0
 40
1
 40
1
 40
1
 40
1
 10
335.487962
 20
880.400910
 30
0.0
 10
335.496962
 20
880.403910
 30
0.0
 10
335.503562
 20
880.407910
 30
0.0
 10
335.512362
 20
880.409910
 30
0.0
  0
SPLINE
  5
231
100
AcDbEntity
  8
Calque_1
 62
7
100
AcDbSpline
 70
8
 71
3
 72
8
 73
4
 74
0
 40
0
 40
0
 40
0
 40
0
 40
1
 40
1
 40
1
 40
1
 10
335.512362
 20
880.409910
 30
0.0
 10
337.732122
 20
881.231750
 30
0.0
 10
339.828302
 20
882.074830
 30
0.0
 10
341.823672
 20
883.121360
 30
0.0
  0
SPLINE
  5
232
100
AcDbEntity
  8
Calque_1
 62
7
100
AcDbSpline
 70
8
 71
3
 72
8
 73
4
 74
0
 40
0
 40
0
 40
0
 40
0
 40
1
 40
1
 40
1
 40
1
 10
341.823672
 20
883.121360
 30
0.0
 10
341.831672
 20
883.126360
 30
0.0
 10
341.839672
 20
883.128360
 30
0.0
 10
341.847072
 20
883.131460
 30
0.0
  0
SPLINE
  5
233
100
AcDbEntity
  8
Calque_1
 62
7
100
AcDbSpline
 70
8
 71
3
 72
8
 73
4
 74
0
 40
0
 40
0
 40
0
 40
0
 40
1
 40
1
 40
1
 40
1
 10
341.847072
 20
883.131460
 30
0.0
 10
343.555732
 20
884.029420
 30
0.0
 10
345.297612
 20
885.173850
 30
0.0
 10
347.220502
 20
886.252660
 30
0.0
  0
SPLINE
  5
234
100
AcDbEntity
  8
Calque_1
 62
7
100
AcDbSpline
 70
8
 71
3
 72
8
 73
4
 74
0
 40
0
 40
0
 40
0
 40
0
 40
1
 40
1
 40
1
 40
1
 10
347.220502
 20
886.252660
 30
0.0
 10
348.086122
 20
886.738330
 30
0.0
 10
349.789552
 20
887.634760
 30
0.0
 10
350.205892
 20
887.922700
 30
0.0
  0
SPLINE
  5
235
100
AcDbEntity
  8
Calque_1
 62
7
100
AcDbSpline
 70
8
 71
3
 72
8
 73
4
 74
0
 40
0
 40
0
 40
0
 40
0
 40
1
 40
1
 40
1
 40
1
 10
350.205892
 20
887.922700
 30
0.0
 10
350.538762
 20
888.152630
 30
0.0
 10
351.024102
 20
888.621340
 30
0.0
 10
351.794452
 20
889.147790
 30
0.0
  0
SPLINE
  5
236
100
AcDbEntity
  8
Calque_1
 62
7
100
AcDbSpline
 70
8
 71
3
 72
8
 73
4
 74
0
 40
0
 40
0
 40
0
 40
0
 40
1
 40
1
 40
1
 40
1
 10
351.794452
 20
889.147790
 30
0.0
 10
352.521322
 20
889.644350
 30
0.0
 10
352.965852
 20
889.807840
 30
0.0
 10
353.005772
 20
889.835100
 30
0.0
  0
SPLINE
  5
237
100
AcDbEntity
  8
Calque_1
 62
7
100
AcDbSpline
 70
8
 71
3
 72
8
 73
4
 74
0
 40
0
 40
0
 40
0
 40
0
 40
1
 40
1
 40
1
 40
1
 10
353.005772
 20
889.835100
 30
0.0
 10
353.371272
 20
890.090520
 30
0.0
 10
353.821502
 20
890.496370
 30
0.0
 10
354.416042
 20
890.973020
 30
0.0
  0
SPLINE
  5
238
100
AcDbEntity
  8
Calque_1
 62
7
100
AcDbSpline
 70
8
 71
3
 72
8
 73
4
 74
0
 40
0
 40
0
 40
0
 40
0
 40
1
 40
1
 40
1
 40
1
 10
354.416042
 20
890.973020
 30
0.0
 10
354.440042
 20
890.991420
 30
0.0
 10
354.463542
 20
891.008520
 30
0.0
 10
354.487642
 20
891.026820
 30
0.0
  0
SPLINE
  5
239
100
AcDbEntity
  8
Calque_1
 62
7
100
AcDbSpline
 70
8
 71
3
 72
8
 73
4
 74
0
 40
0
 40
0
 40
0
 40
0
 40
1
 40
1
 40
1
 40
1
 10
354.487642
 20
891.026820
 30
0.0
 10
354.869162
 20
891.309930
 30
0.0
 10
355.301122
 20
891.653310
 30
0.0
 10
355.816542
 20
892.011110
 30
0.0
  0
SPLINE
  5
23a
100
AcDbEntity
  8
Calque_1
 62
7
100
AcDbSpline
 70
8
 71
3
 72
8
 73
4
 74
0
 40
0
 40
0
 40
0
 40
0
 40
1
 40
1
 40
1
 40
1
 10
355.816542
 20
892.011110
 30
0.0
 10
358.134802
 20
893.620230
 30
0.0
 10
360.388782
 20
894.758550
 30
0.0
 10
361.952332
 20
896.206580
 30
0.0
  0
SPLINE
  5
23b
100
AcDbEntity
  8
Calque_1
 62
7
100
AcDbSpline
 70
8
 71
3
 72
8
 73
4
 74
0
 40
0
 40
0
 40
0
 40
0
 40
1
 40
1
 40
1
 40
1
 10
361.952332
 20
896.206580
 30
0.0
 10
361.960332
 20
896.214580
 30
0.0
 10
361.967532
 20
896.224480
 30
0.0
 10
361.976532
 20
896.230880
 30
0.0
  0
SPLINE
  5
23c
100
AcDbEntity
  8
Calque_1
 62
7
100
AcDbSpline
 70
8
 71
3
 72
8
 73
4
 74
0
 40
0
 40
0
 40
0
 40
0
 40
1
 40
1
 40
1
 40
1
 10
361.976532
 20
896.230880
 30
0.0
 10
363.592122
 20
897.732180
 30
0.0
 10
365.045732
 20
899.599700
 30
0.0
 10
366.651332
 20
901.540300
 30
0.0
  0
SPLINE
  5
23d
100
AcDbEntity
  8
Calque_1
 62
7
100
AcDbSpline
 70
8
 71
3
 72
8
 73
4
 74
0
 40
0
 40
0
 40
0
 40
0
 40
1
 40
1
 40
1
 40
1
 10
366.651332
 20
901.540300
 30
0.0
 10
366.658332
 20
901.549300
 30
0.0
 10
366.664632
 20
901.557200
 30
0.0
 10
366.671432
 20
901.565500
 30
0.0
  0
SPLINE
  5
23e
100
AcDbEntity
  8
Calque_1
 62
7
100
AcDbSpline
 70
8
 71
3
 72
8
 73
4
 74
0
 40
0
 40
0
 40
0
 40
0
 40
1
 40
1
 40
1
 40
1
 10
366.671432
 20
901.565500
 30
0.0
 10
367.618962
 20
902.710010
 30
0.0
 10
368.516282
 20
903.837900
 30
0.0
 10
369.194812
 20
904.948720
 30
0.0
  0
SPLINE
  5
23f
100
AcDbEntity
  8
Calque_1
 62
7
100
AcDbSpline
 70
8
 71
3
 72
8
 73
4
 74
0
 40
0
 40
0
 40
0
 40
0
 40
1
 40
1
 40
1
 40
1
 10
369.194812
 20
904.948720
 30
0.0
 10
369.087502
 20
904.773010
 30
0.0
 10
369.576752
 20
905.664640
 30
0.0
 10
369.921492
 20
906.333370
 30
0.0
  0
SPLINE
  5
240
100
AcDbEntity
  8
Calque_1
 62
7
100
AcDbSpline
 70
8
 71
3
 72
8
 73
4
 74
0
 40
0
 40
0
 40
0
 40
0
 40
1
 40
1
 40
1
 40
1
 10
369.921492
 20
906.333370
 30
0.0
 10
370.266252
 20
907.002080
 30
0.0
 10
370.543582
 20
907.552430
 30
0.0
 10
370.696332
 20
907.836410
 30
0.0
  0
SPLINE
  5
241
100
AcDbEntity
  8
Calque_1
 62
7
100
AcDbSpline
 70
8
 71
3
 72
8
 73
4
 74
0
 40
0
 40
0
 40
0
 40
0
 40
1
 40
1
 40
1
 40
1
 10
370.696332
 20
907.836410
 30
0.0
 10
370.872132
 20
908.163110
 30
0.0
 10
371.069562
 20
908.489730
 30
0.0
 10
371.353502
 20
908.999140
 30
0.0
  0
SPLINE
  5
242
100
AcDbEntity
  8
Calque_1
 62
7
100
AcDbSpline
 70
8
 71
3
 72
8
 73
4
 74
0
 40
0
 40
0
 40
0
 40
0
 40
1
 40
1
 40
1
 40
1
 10
371.353502
 20
908.999140
 30
0.0
 10
371.637422
 20
909.508580
 30
0.0
 10
371.993372
 20
910.296110
 30
0.0
 10
371.881482
 20
909.986670
 30
0.0
  0
LWPOLYLINE
  5
243
100
AcDbEntity
  8
Calque_1
 62
7
100
AcDbPolyline
 90
2
 70
0
 10
326.186642
 20
877.005660
 30
0.0
 10
326.207342
 20
877.017560
 30
0.0
  0
SPLINE
  5
244
100
AcDbEntity
  8
Calque_1
 62
7
100
AcDbSpline
 70
8
 71
3
 72
8
 73
4
 74
0
 40
0
 40
0
 40
0
 40
0
 40
1
 40
1
 40
1
 40
1
 10
371.886482
 20
910.005570
 30
0.0
 10
371.868982
 20
909.959970
 30
0.0
 10
371.888482
 20
910.032470
 30
0.0
 10
371.955582
 20
910.286310
 30
0.0
  0
LWPOLYLINE
  5
245
100
AcDbEntity
  8
Calque_1
 62
7
100
AcDbPolyline
 90
2
 70
0
 10
371.881482
 20
909.986670
 30
0.0
 10
371.886482
 20
910.005570
 30
0.0
  0
SPLINE
  5
246
100
AcDbEntity
  8
Calque_1
 62
7
100
AcDbSpline
 70
8
 71
3
 72
8
 73
4
 74
0
 40
0
 40
0
 40
0
 40
0
 40
1
 40
1
 40
1
 40
1
 10
371.963582
 20
910.291310
 30
0.0
 10
372.028582
 20
910.534280
 30
0.0
 10
372.085612
 20
910.791740
 30
0.0
 10
372.229212
 20
911.291140
 30
0.0
  0
SPLINE
  5
247
100
AcDbEntity
  8
Calque_1
 62
7
100
AcDbSpline
 70
8
 71
3
 72
8
 73
4
 74
0
 40
0
 40
0
 40
0
 40
0
 40
1
 40
1
 40
1
 40
1
 10
372.229212
 20
911.291140
 30
0.0
 10
372.462732
 20
912.102470
 30
0.0
 10
372.643822
 20
912.738360
 30
0.0
 10
372.667472
 20
912.852580
 30
0.0
  0
SPLINE
  5
248
100
AcDbEntity
  8
Calque_1
 62
7
100
AcDbSpline
 70
8
 71
3
 72
8
 73
4
 74
0
 40
0
 40
0
 40
0
 40
0
 40
1
 40
1
 40
1
 40
1
 10
372.667472
 20
912.852580
 30
0.0
 10
372.663472
 20
912.858580
 30
0.0
 10
372.663472
 20
912.860580
 30
0.0
 10
372.667972
 20
912.872380
 30
0.0
  0
SPLINE
  5
249
100
AcDbEntity
  8
Calque_1
 62
7
100
AcDbSpline
 70
8
 71
3
 72
8
 73
4
 74
0
 40
0
 40
0
 40
0
 40
0
 40
1
 40
1
 40
1
 40
1
 10
372.667972
 20
912.872380
 30
0.0
 10
372.635272
 20
913.065360
 30
0.0
 10
372.586872
 20
913.332880
 30
0.0
 10
372.537682
 20
913.594660
 30
0.0
  0
SPLINE
  5
24a
100
AcDbEntity
  8
Calque_1
 62
7
100
AcDbSpline
 70
8
 71
3
 72
8
 73
4
 74
0
 40
0
 40
0
 40
0
 40
0
 40
1
 40
1
 40
1
 40
1
 10
372.537682
 20
913.594660
 30
0.0
 10
372.488482
 20
913.856440
 30
0.0
 10
372.438682
 20
914.115170
 30
0.0
 10
372.400972
 20
914.307280
 30
0.0
  0
SPLINE
  5
24b
100
AcDbEntity
  8
Calque_1
 62
7
100
AcDbSpline
 70
8
 71
3
 72
8
 73
4
 74
0
 40
0
 40
0
 40
0
 40
0
 40
1
 40
1
 40
1
 40
1
 10
372.400972
 20
914.307280
 30
0.0
 10
372.385272
 20
914.386580
 30
0.0
 10
372.374372
 20
914.445690
 30
0.0
 10
372.363972
 20
914.497690
 30
0.0
  0
SPLINE
  5
24c
100
AcDbEntity
  8
Calque_1
 62
7
100
AcDbSpline
 70
8
 71
3
 72
8
 73
4
 74
0
 40
0
 40
0
 40
0
 40
0
 40
1
 40
1
 40
1
 40
1
 10
372.363972
 20
914.497690
 30
0.0
 10
372.285972
 20
914.777300
 30
0.0
 10
372.124532
 20
915.244590
 30
0.0
 10
371.954882
 20
915.581800
 30
0.0
  0
LWPOLYLINE
  5
24d
100
AcDbEntity
  8
Calque_1
 62
7
100
AcDbPolyline
 90
2
 70
0
 10
371.955582
 20
910.286310
 30
0.0
 10
371.963582
 20
910.291310
 30
0.0
  0
SPLINE
  5
24e
100
AcDbEntity
  8
Calque_1
 62
7
100
AcDbSpline
 70
8
 71
3
 72
8
 73
4
 74
0
 40
0
 40
0
 40
0
 40
0
 40
1
 40
1
 40
1
 40
1
 10
219.234460
 20
863.879710
 30
0.0
 10
219.071680
 20
863.824810
 30
0.0
 10
218.903820
 20
863.766940
 30
0.0
 10
218.819410
 20
863.722360
 30
0.0
  0
SPLINE
  5
24f
100
AcDbEntity
  8
Calque_1
 62
7
100
AcDbSpline
 70
8
 71
3
 72
8
 73
4
 74
0
 40
0
 40
0
 40
0
 40
0
 40
1
 40
1
 40
1
 40
1
 10
218.819410
 20
863.722360
 30
0.0
 10
218.680640
 20
863.640160
 30
0.0
 10
219.255690
 20
863.881320
 30
0.0
 10
219.243290
 20
863.878800
 30
0.0
  0
LWPOLYLINE
  5
250
100
AcDbEntity
  8
Calque_1
 62
7
100
AcDbPolyline
 90
2
 70
0
 10
371.954882
 20
915.581800
 30
0.0
 10
371.953230
 20
915.587230
 30
0.0
  0
SPLINE
  5
251
100
AcDbEntity
  8
Calque_1
 62
7
100
AcDbSpline
 70
8
 71
3
 72
8
 73
4
 74
0
 40
0
 40
0
 40
0
 40
0
 40
1
 40
1
 40
1
 40
1
 10
257.134240
 20
907.823410
 30
0.0
 10
257.268660
 20
907.856510
 30
0.0
 10
257.302990
 20
907.877510
 30
0.0
 10
257.205340
 20
907.866610
 30
0.0
  0
SPLINE
  5
252
100
AcDbEntity
  8
Calque_1
 62
7
100
AcDbSpline
 70
8
 71
3
 72
8
 73
4
 74
0
 40
0
 40
0
 40
0
 40
0
 40
1
 40
1
 40
1
 40
1
 10
257.205340
 20
907.866610
 30
0.0
 10
257.091020
 20
907.850510
 30
0.0
 10
257.085670
 20
907.834210
 30
0.0
 10
257.134240
 20
907.823410
 30
0.0
  0
LWPOLYLINE
  5
253
100
AcDbEntity
  8
Calque_1
 62
7
100
AcDbPolyline
 90
4
 70
0
 10
219.243290
 20
863.878800
 30
0.0
 10
219.242450
 20
863.880800
 30
0.0
 10
219.235450
 20
863.880340
 30
0.0
 10
219.234460
 20
863.879710
 30
0.0
  0
LWPOLYLINE
  5
254
100
AcDbEntity
  8
Calque_1
 62
7
100
AcDbPolyline
 90
1
 70
1
 10
257.134240
 20
907.823410
 30
0.0
  0
SPLINE
  5
255
100
AcDbEntity
  8
Calque_1
 62
7
100
AcDbSpline
 70
8
 71
3
 72
8
 73
4
 74
0
 40
0
 40
0
 40
0
 40
0
 40
1
 40
1
 40
1
 40
1
 10
323.301150
 20
983.028380
 30
0.0
 10
322.881490
 20
983.254700
 30
0.0
 10
322.389360
 20
983.453950
 30
0.0
 10
321.781370
 20
983.580680
 30
0.0
  0
SPLINE
  5
256
100
AcDbEntity
  8
Calque_1
 62
7
100
AcDbSpline
 70
8
 71
3
 72
8
 73
4
 74
0
 40
0
 40
0
 40
0
 40
0
 40
1
 40
1
 40
1
 40
1
 10
321.781370
 20
983.580680
 30
0.0
 10
320.733520
 20
983.761990
 30
0.0
 10
319.511130
 20
983.592380
 30
0.0
 10
318.291260
 20
983.155550
 30
0.0
  0
SPLINE
  5
257
100
AcDbEntity
  8
Calque_1
 62
7
100
AcDbSpline
 70
8
 71
3
 72
8
 73
4
 74
0
 40
0
 40
0
 40
0
 40
0
 40
1
 40
1
 40
1
 40
1
 10
318.291260
 20
983.155550
 30
0.0
 10
318.233960
 20
983.134850
 30
0.0
 10
318.176360
 20
983.116650
 30
0.0
 10
318.117820
 20
983.100450
 30
0.0
  0
SPLINE
  5
258
100
AcDbEntity
  8
Calque_1
 62
7
100
AcDbSpline
 70
8
 71
3
 72
8
 73
4
 74
0
 40
0
 40
0
 40
0
 40
0
 40
1
 40
1
 40
1
 40
1
 10
318.117820
 20
983.100450
 30
0.0
 10
311.578850
 20
981.304570
 30
0.0
 10
305.003080
 20
978.635340
 30
0.0
 10
297.805550
 20
977.328080
 30
0.0
  0
SPLINE
  5
259
100
AcDbEntity
  8
Calque_1
 62
7
100
AcDbSpline
 70
8
 71
3
 72
8
 73
4
 74
0
 40
0
 40
0
 40
0
 40
0
 40
1
 40
1
 40
1
 40
1
 10
297.805550
 20
977.328080
 30
0.0
 10
297.785650
 20
977.324080
 30
0.0
 10
297.766850
 20
977.321080
 30
0.0
 10
297.746850
 20
977.318080
 30
0.0
  0
SPLINE
  5
25a
100
AcDbEntity
  8
Calque_1
 62
7
100
AcDbSpline
 70
8
 71
3
 72
8
 73
4
 74
0
 40
0
 40
0
 40
0
 40
0
 40
1
 40
1
 40
1
 40
1
 10
297.746850
 20
977.318080
 30
0.0
 10
288.124920
 20
975.815520
 30
0.0
 10
278.126300
 20
977.624110
 30
0.0
 10
269.577530
 20
982.190270
 30
0.0
  0
LWPOLYLINE
  5
25b
100
AcDbEntity
  8
Calque_1
 62
7
100
AcDbPolyline
 90
2
 70
0
 10
323.302020
 20
983.028880
 30
0.0
 10
323.301150
 20
983.028380
 30
0.0
  0
SPLINE
  5
25c
100
AcDbEntity
  8
Calque_1
 62
7
100
AcDbSpline
 70
8
 71
3
 72
8
 73
4
 74
0
 40
0
 40
0
 40
0
 40
0
 40
1
 40
1
 40
1
 40
1
 10
269.574530
 20
982.194270
 30
0.0
 10
267.785410
 20
983.120390
 30
0.0
 10
266.024580
 20
984.095380
 30
0.0
 10
264.292560
 20
985.111910
 30
0.0
  0
SPLINE
  5
25d
100
AcDbEntity
  8
Calque_1
 62
7
100
AcDbSpline
 70
8
 71
3
 72
8
 73
4
 74
0
 40
0
 40
0
 40
0
 40
0
 40
1
 40
1
 40
1
 40
1
 10
264.292560
 20
985.111910
 30
0.0
 10
263.948790
 20
985.314450
 30
0.0
 10
263.660120
 20
985.599030
 30
0.0
 10
263.453810
 20
985.940800
 30
0.0
  0
SPLINE
  5
25e
100
AcDbEntity
  8
Calque_1
 62
7
100
AcDbSpline
 70
8
 71
3
 72
8
 73
4
 74
0
 40
0
 40
0
 40
0
 40
0
 40
1
 40
1
 40
1
 40
1
 10
263.453810
 20
985.940800
 30
0.0
 10
263.094830
 20
986.533990
 30
0.0
 10
262.925240
 20
987.153996
 30
0.0
 10
262.911950
 20
987.752306
 30
0.0
  0
LWPOLYLINE
  5
25f
100
AcDbEntity
  8
Calque_1
 62
7
100
AcDbPolyline
 90
2
 70
0
 10
269.577530
 20
982.190270
 30
0.0
 10
269.574530
 20
982.194270
 30
0.0
  0
SPLINE
  5
260
100
AcDbEntity
  8
Calque_1
 62
7
100
AcDbSpline
 70
8
 71
3
 72
8
 73
4
 74
0
 40
0
 40
0
 40
0
 40
0
 40
1
 40
1
 40
1
 40
1
 10
262.911100
 20
987.754306
 30
0.0
 10
262.872900
 20
989.551856
 30
0.0
 10
264.252680
 20
991.158086
 30
0.0
 10
266.204710
 20
991.294336
 30
0.0
  0
SPLINE
  5
261
100
AcDbEntity
  8
Calque_1
 62
7
100
AcDbSpline
 70
8
 71
3
 72
8
 73
4
 74
0
 40
0
 40
0
 40
0
 40
0
 40
1
 40
1
 40
1
 40
1
 10
266.204710
 20
991.294336
 30
0.0
 10
269.420490
 20
991.895606
 30
0.0
 10
272.867380
 20
992.278956
 30
0.0
 10
276.256980
 20
992.646196
 30
0.0
  0
LWPOLYLINE
  5
262
100
AcDbEntity
  8
Calque_1
 62
7
100
AcDbPolyline
 90
2
 70
0
 10
262.911950
 20
987.752306
 30
0.0
 10
262.911100
 20
987.754306
 30
0.0
  0
SPLINE
  5
263
100
AcDbEntity
  8
Calque_1
 62
7
100
AcDbSpline
 70
8
 71
3
 72
8
 73
4
 74
0
 40
0
 40
0
 40
0
 40
0
 40
1
 40
1
 40
1
 40
1
 10
276.268880
 20
992.647196
 30
0.0
 10
279.644670
 20
993.012936
 30
0.0
 10
282.962350
 20
993.363176
 30
0.0
 10
285.939050
 20
993.895276
 30
0.0
  0
SPLINE
  5
264
100
AcDbEntity
  8
Calque_1
 62
7
100
AcDbSpline
 70
8
 71
3
 72
8
 73
4
 74
0
 40
0
 40
0
 40
0
 40
0
 40
1
 40
1
 40
1
 40
1
 10
285.939050
 20
993.895276
 30
0.0
 10
285.949250
 20
993.897276
 30
0.0
 10
285.957150
 20
993.898276
 30
0.0
 10
285.966650
 20
993.899276
 30
0.0
  0
SPLINE
  5
265
100
AcDbEntity
  8
Calque_1
 62
7
100
AcDbSpline
 70
8
 71
3
 72
8
 73
4
 74
0
 40
0
 40
0
 40
0
 40
0
 40
1
 40
1
 40
1
 40
1
 10
285.966650
 20
993.899276
 30
0.0
 10
286.336090
 20
994.201736
 30
0.0
 10
286.741580
 20
994.823096
 30
0.0
 10
287.363240
 20
995.894616
 30
0.0
  0
LWPOLYLINE
  5
266
100
AcDbEntity
  8
Calque_1
 62
7
100
AcDbPolyline
 90
2
 70
0
 10
276.256980
 20
992.646196
 30
0.0
 10
276.268880
 20
992.647196
 30
0.0
  0
SPLINE
  5
267
100
AcDbEntity
  8
Calque_1
 62
7
100
AcDbSpline
 70
8
 71
3
 72
8
 73
4
 74
0
 40
0
 40
0
 40
0
 40
0
 40
1
 40
1
 40
1
 40
1
 10
292.548400
 20
1004.831016
 30
0.0
 10
292.517000
 20
1004.823016
 30
0.0
 10
292.496300
 20
1004.823016
 30
0.0
 10
292.465100
 20
1004.815216
 30
0.0
  0
SPLINE
  5
268
100
AcDbEntity
  8
Calque_1
 62
7
100
AcDbSpline
 70
8
 71
3
 72
8
 73
4
 74
0
 40
0
 40
0
 40
0
 40
0
 40
1
 40
1
 40
1
 40
1
 10
292.465100
 20
1004.815216
 30
0.0
 10
289.540900
 20
1004.076756
 30
0.0
 10
285.675630
 20
1002.687906
 30
0.0
 10
282.928450
 20
1002.197286
 30
0.0
  0
SPLINE
  5
269
100
AcDbEntity
  8
Calque_1
 62
7
100
AcDbSpline
 70
8
 71
3
 72
8
 73
4
 74
0
 40
0
 40
0
 40
0
 40
0
 40
1
 40
1
 40
1
 40
1
 10
282.928450
 20
1002.197286
 30
0.0
 10
276.027240
 20
1000.893296
 30
0.0
 10
268.962560
 20
999.364006
 30
0.0
 10
261.608510
 20
999.071996
 30
0.0
  0
SPLINE
  5
26a
100
AcDbEntity
  8
Calque_1
 62
7
100
AcDbSpline
 70
8
 71
3
 72
8
 73
4
 74
0
 40
0
 40
0
 40
0
 40
0
 40
1
 40
1
 40
1
 40
1
 10
261.608510
 20
999.071996
 30
0.0
 10
261.561210
 20
999.070996
 30
0.0
 10
261.514010
 20
999.069996
 30
0.0
 10
261.467100
 20
999.071096
 30
0.0
  0
SPLINE
  5
26b
100
AcDbEntity
  8
Calque_1
 62
7
100
AcDbSpline
 70
8
 71
3
 72
8
 73
4
 74
0
 40
0
 40
0
 40
0
 40
0
 40
1
 40
1
 40
1
 40
1
 10
261.467100
 20
999.071096
 30
0.0
 10
256.918350
 20
999.158396
 30
0.0
 10
252.391900
 20
999.310736
 30
0.0
 10
247.887540
 20
999.402276
 30
0.0
  0
SPLINE
  5
26c
100
AcDbEntity
  8
Calque_1
 62
7
100
AcDbSpline
 70
8
 71
3
 72
8
 73
4
 74
0
 40
0
 40
0
 40
0
 40
0
 40
1
 40
1
 40
1
 40
1
 10
247.887540
 20
999.402276
 30
0.0
 10
243.444910
 20
999.492676
 30
0.0
 10
239.023200
 20
999.522456
 30
0.0
 10
234.624250
 20
999.372876
 30
0.0
  0
SPLINE
  5
26d
100
AcDbEntity
  8
Calque_1
 62
7
100
AcDbSpline
 70
8
 71
3
 72
8
 73
4
 74
0
 40
0
 40
0
 40
0
 40
0
 40
1
 40
1
 40
1
 40
1
 10
234.624250
 20
999.372876
 30
0.0
 10
234.600450
 20
999.371876
 30
0.0
 10
234.577150
 20
999.372436
 30
0.0
 10
234.553550
 20
999.370876
 30
0.0
  0
SPLINE
  5
26e
100
AcDbEntity
  8
Calque_1
 62
7
100
AcDbSpline
 70
8
 71
3
 72
8
 73
4
 74
0
 40
0
 40
0
 40
0
 40
0
 40
1
 40
1
 40
1
 40
1
 10
234.553550
 20
999.370876
 30
0.0
 10
234.542350
 20
999.369876
 30
0.0
 10
234.530650
 20
999.370606
 30
0.0
 10
234.519350
 20
999.370466
 30
0.0
  0
SPLINE
  5
26f
100
AcDbEntity
  8
Calque_1
 62
7
100
AcDbSpline
 70
8
 71
3
 72
8
 73
4
 74
0
 40
0
 40
0
 40
0
 40
0
 40
1
 40
1
 40
1
 40
1
 10
234.519350
 20
999.370466
 30
0.0
 10
222.027160
 20
999.117736
 30
0.0
 10
209.399150
 20
998.393536
 30
0.0
 10
196.667890
 20
999.127476
 30
0.0
  0
LWPOLYLINE
  5
270
100
AcDbEntity
  8
Calque_1
 62
7
100
AcDbPolyline
 90
2
 70
0
 10
287.363240
 20
995.894616
 30
0.0
 10
292.548400
 20
1004.831016
 30
0.0
  0
SPLINE
  5
271
100
AcDbEntity
  8
Calque_1
 62
7
100
AcDbSpline
 70
8
 71
3
 72
8
 73
4
 74
0
 40
0
 40
0
 40
0
 40
0
 40
1
 40
1
 40
1
 40
1
 10
196.656790
 20
999.127316
 30
0.0
 10
189.053680
 20
999.522786
 30
0.0
 10
181.440820
 20
1000.018936
 30
0.0
 10
173.834380
 20
1000.746546
 30
0.0
  0
SPLINE
  5
272
100
AcDbEntity
  8
Calque_1
 62
7
100
AcDbSpline
 70
8
 71
3
 72
8
 73
4
 74
0
 40
0
 40
0
 40
0
 40
0
 40
1
 40
1
 40
1
 40
1
 10
173.834380
 20
1000.746546
 30
0.0
 10
173.813380
 20
1000.748546
 30
0.0
 10
173.791280
 20
1000.750546
 30
0.0
 10
173.770080
 20
1000.753546
 30
0.0
  0
SPLINE
  5
273
100
AcDbEntity
  8
Calque_1
 62
7
100
AcDbSpline
 70
8
 71
3
 72
8
 73
4
 74
0
 40
0
 40
0
 40
0
 40
0
 40
1
 40
1
 40
1
 40
1
 10
173.770080
 20
1000.753546
 30
0.0
 10
163.452980
 20
1002.021716
 30
0.0
 10
153.446670
 20
1004.384196
 30
0.0
 10
143.483320
 20
1006.212496
 30
0.0
  0
SPLINE
  5
274
100
AcDbEntity
  8
Calque_1
 62
7
100
AcDbSpline
 70
8
 71
3
 72
8
 73
4
 74
0
 40
0
 40
0
 40
0
 40
0
 40
1
 40
1
 40
1
 40
1
 10
143.483320
 20
1006.212496
 30
0.0
 10
143.472120
 20
1006.211496
 30
0.0
 10
143.469220
 20
1006.214496
 30
0.0
 10
143.462420
 20
1006.216496
 30
0.0
  0
SPLINE
  5
275
100
AcDbEntity
  8
Calque_1
 62
7
100
AcDbSpline
 70
8
 71
3
 72
8
 73
4
 74
0
 40
0
 40
0
 40
0
 40
0
 40
1
 40
1
 40
1
 40
1
 10
143.462420
 20
1006.216496
 30
0.0
 10
124.615550
 20
1009.849806
 30
0.0
 10
105.690310
 20
1013.247506
 30
0.0
 10
86.829591
 20
1017.127256
 30
0.0
  0
SPLINE
  5
276
100
AcDbEntity
  8
Calque_1
 62
7
100
AcDbSpline
 70
8
 71
3
 72
8
 73
4
 74
0
 40
0
 40
0
 40
0
 40
0
 40
1
 40
1
 40
1
 40
1
 10
86.829591
 20
1017.127256
 30
0.0
 10
86.808481
 20
1017.132256
 30
0.0
 10
86.786271
 20
1017.136256
 30
0.0
 10
86.764861
 20
1017.141156
 30
0.0
  0
SPLINE
  5
277
100
AcDbEntity
  8
Calque_1
 62
7
100
AcDbSpline
 70
8
 71
3
 72
8
 73
4
 74
0
 40
0
 40
0
 40
0
 40
0
 40
1
 40
1
 40
1
 40
1
 10
86.764861
 20
1017.141156
 30
0.0
 10
75.526790
 20
1019.775466
 30
0.0
 10
64.917139
 20
1024.541656
 30
0.0
 10
55.203076
 20
1030.559956
 30
0.0
  0
LWPOLYLINE
  5
278
100
AcDbEntity
  8
Calque_1
 62
7
100
AcDbPolyline
 90
2
 70
0
 10
196.667890
 20
999.127476
 30
0.0
 10
196.656790
 20
999.127316
 30
0.0
  0
SPLINE
  5
279
100
AcDbEntity
  8
Calque_1
 62
7
100
AcDbSpline
 70
8
 71
3
 72
8
 73
4
 74
0
 40
0
 40
0
 40
0
 40
0
 40
1
 40
1
 40
1
 40
1
 10
55.199576
 20
1030.565956
 30
0.0
 10
52.891032
 20
1032.006196
 30
0.0
 10
50.664115
 20
1033.686396
 30
0.0
 10
48.696709
 20
1035.712066
 30
0.0
  0
LWPOLYLINE
  5
27a
100
AcDbEntity
  8
Calque_1
 62
7
100
AcDbPolyline
 90
2
 70
0
 10
55.203076
 20
1030.559956
 30
0.0
 10
55.199576
 20
1030.565956
 30
0.0
  0
SPLINE
  5
27b
100
AcDbEntity
  8
Calque_1
 62
7
100
AcDbSpline
 70
8
 71
3
 72
8
 73
4
 74
0
 40
0
 40
0
 40
0
 40
0
 40
1
 40
1
 40
1
 40
1
 10
48.722859
 20
1035.686566
 30
0.0
 10
48.706389
 20
1035.696866
 30
0.0
 10
48.696769
 20
1035.710166
 30
0.0
 10
48.684179
 20
1035.722666
 30
0.0
  0
SPLINE
  5
27c
100
AcDbEntity
  8
Calque_1
 62
7
100
AcDbSpline
 70
8
 71
3
 72
8
 73
4
 74
0
 40
0
 40
0
 40
0
 40
0
 40
1
 40
1
 40
1
 40
1
 10
48.684179
 20
1035.722666
 30
0.0
 10
47.076882
 20
1037.295616
 30
0.0
 10
45.476624
 20
1038.793256
 30
0.0
 10
43.792955
 20
1040.092686
 30
0.0
  0
SPLINE
  5
27d
100
AcDbEntity
  8
Calque_1
 62
7
100
AcDbSpline
 70
8
 71
3
 72
8
 73
4
 74
0
 40
0
 40
0
 40
0
 40
0
 40
1
 40
1
 40
1
 40
1
 10
43.792955
 20
1040.092686
 30
0.0
 10
43.775285
 20
1040.103086
 30
0.0
 10
43.762825
 20
1040.118486
 30
0.0
 10
43.746945
 20
1040.129986
 30
0.0
  0
SPLINE
  5
27e
100
AcDbEntity
  8
Calque_1
 62
7
100
AcDbSpline
 70
8
 71
3
 72
8
 73
4
 74
0
 40
0
 40
0
 40
0
 40
0
 40
1
 40
1
 40
1
 40
1
 10
43.746945
 20
1040.129986
 30
0.0
 10
43.730425
 20
1040.137986
 30
0.0
 10
43.719925
 20
1040.150586
 30
0.0
 10
43.706995
 20
1040.161186
 30
0.0
  0
SPLINE
  5
27f
100
AcDbEntity
  8
Calque_1
 62
7
100
AcDbSpline
 70
8
 71
3
 72
8
 73
4
 74
0
 40
0
 40
0
 40
0
 40
0
 40
1
 40
1
 40
1
 40
1
 10
43.706995
 20
1040.161186
 30
0.0
 10
43.629845
 20
1040.222886
 30
0.0
 10
43.602740
 20
1040.248786
 30
0.0
 10
43.527183
 20
1040.309866
 30
0.0
  0
SPLINE
  5
280
100
AcDbEntity
  8
Calque_1
 62
7
100
AcDbSpline
 70
8
 71
3
 72
8
 73
4
 74
0
 40
0
 40
0
 40
0
 40
0
 40
1
 40
1
 40
1
 40
1
 10
43.527183
 20
1040.309866
 30
0.0
 10
38.919392
 20
1044.021516
 30
0.0
 10
34.730689
 20
1047.434526
 30
0.0
 10
34.730689
 20
1047.434526
 30
0.0
  0
LWPOLYLINE
  5
281
100
AcDbEntity
  8
Calque_1
 62
7
100
AcDbPolyline
 90
2
 70
0
 10
48.696709
 20
1035.712066
 30
0.0
 10
48.722859
 20
1035.686566
 30
0.0
  0
SPLINE
  5
282
100
AcDbEntity
  8
Calque_1
 62
7
100
AcDbSpline
 70
8
 71
3
 72
8
 73
4
 74
0
 40
0
 40
0
 40
0
 40
0
 40
1
 40
1
 40
1
 40
1
 10
52.537674
 20
988.924306
 30
0.0
 10
52.537674
 20
988.924306
 30
0.0
 10
60.138037
 20
983.755720
 30
0.0
 10
63.960711
 20
981.302190
 30
0.0
  0
SPLINE
  5
283
100
AcDbEntity
  8
Calque_1
 62
7
100
AcDbSpline
 70
8
 71
3
 72
8
 73
4
 74
0
 40
0
 40
0
 40
0
 40
0
 40
1
 40
1
 40
1
 40
1
 10
63.960711
 20
981.302190
 30
0.0
 10
63.963311
 20
981.297190
 30
0.0
 10
63.975161
 20
981.297190
 30
0.0
 10
63.978181
 20
981.291790
 30
0.0
  0
SPLINE
  5
284
100
AcDbEntity
  8
Calque_1
 62
7
100
AcDbSpline
 70
8
 71
3
 72
8
 73
4
 74
0
 40
0
 40
0
 40
0
 40
0
 40
1
 40
1
 40
1
 40
1
 10
63.978181
 20
981.291790
 30
0.0
 10
67.008105
 20
979.311190
 30
0.0
 10
69.981697
 20
977.174540
 30
0.0
 10
72.805562
 20
974.803950
 30
0.0
  0
SPLINE
  5
285
100
AcDbEntity
  8
Calque_1
 62
7
100
AcDbSpline
 70
8
 71
3
 72
8
 73
4
 74
0
 40
0
 40
0
 40
0
 40
0
 40
1
 40
1
 40
1
 40
1
 10
72.805562
 20
974.803950
 30
0.0
 10
72.926404
 20
974.702410
 30
0.0
 10
73.055977
 20
974.614830
 30
0.0
 10
73.176277
 20
974.512360
 30
0.0
  0
SPLINE
  5
286
100
AcDbEntity
  8
Calque_1
 62
7
100
AcDbSpline
 70
8
 71
3
 72
8
 73
4
 74
0
 40
0
 40
0
 40
0
 40
0
 40
1
 40
1
 40
1
 40
1
 10
73.176277
 20
974.512360
 30
0.0
 10
73.182477
 20
974.501860
 30
0.0
 10
73.196397
 20
974.497360
 30
0.0
 10
73.206727
 20
974.489360
 30
0.0
  0
LWPOLYLINE
  5
287
100
AcDbEntity
  8
Calque_1
 62
7
100
AcDbPolyline
 90
7
 70
0
 10
34.730689
 20
1047.434526
 30
0.0
 10
34.661389
 20
1047.488726
 30
0.0
 10
25.906969
 20
1054.831426
 30
0.0
 10
3.299929
 20
1076.190896
 30
0.0
 10
35.843578
 20
998.200716
 30
0.0
 10
46.301831
 20
992.389246
 30
0.0
 10
52.537674
 20
988.924306
 30
0.0
  0
SPLINE
  5
288
100
AcDbEntity
  8
Calque_1
 62
7
100
AcDbSpline
 70
8
 71
3
 72
8
 73
4
 74
0
 40
0
 40
0
 40
0
 40
0
 40
1
 40
1
 40
1
 40
1
 10
73.177527
 20
974.514260
 30
0.0
 10
75.888052
 20
972.352890
 30
0.0
 10
78.511889
 20
970.335390
 30
0.0
 10
81.350057
 20
969.139520
 30
0.0
  0
SPLINE
  5
289
100
AcDbEntity
  8
Calque_1
 62
7
100
AcDbSpline
 70
8
 71
3
 72
8
 73
4
 74
0
 40
0
 40
0
 40
0
 40
0
 40
1
 40
1
 40
1
 40
1
 10
81.350057
 20
969.139520
 30
0.0
 10
82.088668
 20
968.894200
 30
0.0
 10
82.948097
 20
968.707020
 30
0.0
 10
83.920804
 20
968.487660
 30
0.0
  0
SPLINE
  5
28a
100
AcDbEntity
  8
Calque_1
 62
7
100
AcDbSpline
 70
8
 71
3
 72
8
 73
4
 74
0
 40
0
 40
0
 40
0
 40
0
 40
1
 40
1
 40
1
 40
1
 10
83.920804
 20
968.487660
 30
0.0
 10
84.616814
 20
968.294280
 30
0.0
 10
85.188631
 20
967.797590
 30
0.0
 10
85.477734
 20
967.135580
 30
0.0
  0
SPLINE
  5
28b
100
AcDbEntity
  8
Calque_1
 62
7
100
AcDbSpline
 70
8
 71
3
 72
8
 73
4
 74
0
 40
0
 40
0
 40
0
 40
0
 40
1
 40
1
 40
1
 40
1
 10
85.477734
 20
967.135580
 30
0.0
 10
97.721603
 20
963.505570
 30
0.0
 10
110.088650
 20
960.330510
 30
0.0
 10
122.597570
 20
957.954580
 30
0.0
  0
SPLINE
  5
28c
100
AcDbEntity
  8
Calque_1
 62
7
100
AcDbSpline
 70
8
 71
3
 72
8
 73
4
 74
0
 40
0
 40
0
 40
0
 40
0
 40
1
 40
1
 40
1
 40
1
 10
122.597570
 20
957.954580
 30
0.0
 10
134.052730
 20
955.817530
 30
0.0
 10
145.643080
 20
954.445940
 30
0.0
 10
157.227450
 20
954.424720
 30
0.0
  0
SPLINE
  5
28d
100
AcDbEntity
  8
Calque_1
 62
7
100
AcDbSpline
 70
8
 71
3
 72
8
 73
4
 74
0
 40
0
 40
0
 40
0
 40
0
 40
1
 40
1
 40
1
 40
1
 10
157.227450
 20
954.424720
 30
0.0
 10
161.981100
 20
954.436520
 30
0.0
 10
166.765190
 20
954.797360
 30
0.0
 10
171.571150
 20
955.278520
 30
0.0
  0
SPLINE
  5
28e
100
AcDbEntity
  8
Calque_1
 62
7
100
AcDbSpline
 70
8
 71
3
 72
8
 73
4
 74
0
 40
0
 40
0
 40
0
 40
0
 40
1
 40
1
 40
1
 40
1
 10
171.571150
 20
955.278520
 30
0.0
 10
171.581350
 20
955.280520
 30
0.0
 10
171.585550
 20
955.279430
 30
0.0
 10
171.593150
 20
955.280520
 30
0.0
  0
SPLINE
  5
28f
100
AcDbEntity
  8
Calque_1
 62
7
100
AcDbSpline
 70
8
 71
3
 72
8
 73
4
 74
0
 40
0
 40
0
 40
0
 40
0
 40
1
 40
1
 40
1
 40
1
 10
171.593150
 20
955.280520
 30
0.0
 10
175.986000
 20
955.679890
 30
0.0
 10
180.402620
 20
956.086870
 30
0.0
 10
184.843040
 20
956.397650
 30
0.0
  0
SPLINE
  5
290
100
AcDbEntity
  8
Calque_1
 62
7
100
AcDbSpline
 70
8
 71
3
 72
8
 73
4
 74
0
 40
0
 40
0
 40
0
 40
0
 40
1
 40
1
 40
1
 40
1
 10
184.843040
 20
956.397650
 30
0.0
 10
189.183100
 20
956.701330
 30
0.0
 10
193.547340
 20
956.910540
 30
0.0
 10
197.936710
 20
956.923270
 30
0.0
  0
SPLINE
  5
291
100
AcDbEntity
  8
Calque_1
 62
7
100
AcDbSpline
 70
8
 71
3
 72
8
 73
4
 74
0
 40
0
 40
0
 40
0
 40
0
 40
1
 40
1
 40
1
 40
1
 10
197.936710
 20
956.923270
 30
0.0
 10
197.964510
 20
956.923160
 30
0.0
 10
197.992510
 20
956.927270
 30
0.0
 10
198.020110
 20
956.927270
 30
0.0
  0
SPLINE
  5
292
100
AcDbEntity
  8
Calque_1
 62
7
100
AcDbSpline
 70
8
 71
3
 72
8
 73
4
 74
0
 40
0
 40
0
 40
0
 40
0
 40
1
 40
1
 40
1
 40
1
 10
198.020110
 20
956.927270
 30
0.0
 10
202.827170
 20
956.977570
 30
0.0
 10
207.701060
 20
957.008970
 30
0.0
 10
212.616970
 20
956.650120
 30
0.0
  0
SPLINE
  5
293
100
AcDbEntity
  8
Calque_1
 62
7
100
AcDbSpline
 70
8
 71
3
 72
8
 73
4
 74
0
 40
0
 40
0
 40
0
 40
0
 40
1
 40
1
 40
1
 40
1
 10
212.616970
 20
956.650120
 30
0.0
 10
212.642070
 20
956.649120
 30
0.0
 10
212.666570
 20
956.646120
 30
0.0
 10
212.691870
 20
956.644120
 30
0.0
  0
SPLINE
  5
294
100
AcDbEntity
  8
Calque_1
 62
7
100
AcDbSpline
 70
8
 71
3
 72
8
 73
4
 74
0
 40
0
 40
0
 40
0
 40
0
 40
1
 40
1
 40
1
 40
1
 10
212.691870
 20
956.644120
 30
0.0
 10
212.706270
 20
956.643170
 30
0.0
 10
212.718070
 20
956.637120
 30
0.0
 10
212.732570
 20
956.635120
 30
0.0
  0
SPLINE
  5
295
100
AcDbEntity
  8
Calque_1
 62
7
100
AcDbSpline
 70
8
 71
3
 72
8
 73
4
 74
0
 40
0
 40
0
 40
0
 40
0
 40
1
 40
1
 40
1
 40
1
 10
212.732570
 20
956.635120
 30
0.0
 10
215.157490
 20
956.378750
 30
0.0
 10
217.473800
 20
955.845220
 30
0.0
 10
219.707490
 20
955.197110
 30
0.0
  0
SPLINE
  5
296
100
AcDbEntity
  8
Calque_1
 62
7
100
AcDbSpline
 70
8
 71
3
 72
8
 73
4
 74
0
 40
0
 40
0
 40
0
 40
0
 40
1
 40
1
 40
1
 40
1
 10
219.707490
 20
955.197110
 30
0.0
 10
221.979490
 20
954.537790
 30
0.0
 10
224.168060
 20
953.763450
 30
0.0
 10
226.298670
 20
953.043090
 30
0.0
  0
SPLINE
  5
297
100
AcDbEntity
  8
Calque_1
 62
7
100
AcDbSpline
 70
8
 71
3
 72
8
 73
4
 74
0
 40
0
 40
0
 40
0
 40
0
 40
1
 40
1
 40
1
 40
1
 10
226.298670
 20
953.043090
 30
0.0
 10
226.299510
 20
953.041090
 30
0.0
 10
226.300670
 20
953.040090
 30
0.0
 10
226.310270
 20
953.042880
 30
0.0
  0
SPLINE
  5
298
100
AcDbEntity
  8
Calque_1
 62
7
100
AcDbSpline
 70
8
 71
3
 72
8
 73
4
 74
0
 40
0
 40
0
 40
0
 40
0
 40
1
 40
1
 40
1
 40
1
 10
226.310270
 20
953.042880
 30
0.0
 10
230.655730
 20
951.557230
 30
0.0
 10
234.982520
 20
949.881800
 30
0.0
 10
239.173500
 20
947.822870
 30
0.0
  0
LWPOLYLINE
  5
299
100
AcDbEntity
  8
Calque_1
 62
7
100
AcDbPolyline
 90
2
 70
0
 10
73.206727
 20
974.489360
 30
0.0
 10
73.177527
 20
974.514260
 30
0.0
  0
SPLINE
  5
29a
100
AcDbEntity
  8
Calque_1
 62
7
100
AcDbSpline
 70
8
 71
3
 72
8
 73
4
 74
0
 40
0
 40
0
 40
0
 40
0
 40
1
 40
1
 40
1
 40
1
 10
239.175500
 20
947.819870
 30
0.0
 10
239.209300
 20
947.803170
 30
0.0
 10
239.241300
 20
947.783670
 30
0.0
 10
239.275200
 20
947.766970
 30
0.0
  0
SPLINE
  5
29b
100
AcDbEntity
  8
Calque_1
 62
7
100
AcDbSpline
 70
8
 71
3
 72
8
 73
4
 74
0
 40
0
 40
0
 40
0
 40
0
 40
1
 40
1
 40
1
 40
1
 10
239.275200
 20
947.766970
 30
0.0
 10
242.767610
 20
946.079360
 30
0.0
 10
246.113470
 20
944.219020
 30
0.0
 10
249.423300
 20
942.404820
 30
0.0
  0
SPLINE
  5
29c
100
AcDbEntity
  8
Calque_1
 62
7
100
AcDbSpline
 70
8
 71
3
 72
8
 73
4
 74
0
 40
0
 40
0
 40
0
 40
0
 40
1
 40
1
 40
1
 40
1
 10
249.423300
 20
942.404820
 30
0.0
 10
249.447200
 20
942.391520
 30
0.0
 10
249.473300
 20
942.379020
 30
0.0
 10
249.497200
 20
942.365720
 30
0.0
  0
LWPOLYLINE
  5
29d
100
AcDbEntity
  8
Calque_1
 62
7
100
AcDbPolyline
 90
2
 70
0
 10
239.173500
 20
947.822870
 30
0.0
 10
239.175500
 20
947.819870
 30
0.0
  0
SPLINE
  5
29e
100
AcDbEntity
  8
Calque_1
 62
7
100
AcDbSpline
 70
8
 71
3
 72
8
 73
4
 74
0
 40
0
 40
0
 40
0
 40
0
 40
1
 40
1
 40
1
 40
1
 10
249.499200
 20
942.363720
 30
0.0
 10
250.796870
 20
941.668740
 30
0.0
 10
252.128970
 20
941.078050
 30
0.0
 10
253.447550
 20
940.444340
 30
0.0
  0
SPLINE
  5
29f
100
AcDbEntity
  8
Calque_1
 62
7
100
AcDbSpline
 70
8
 71
3
 72
8
 73
4
 74
0
 40
0
 40
0
 40
0
 40
0
 40
1
 40
1
 40
1
 40
1
 10
253.447550
 20
940.444340
 30
0.0
 10
254.451230
 20
939.962030
 30
0.0
 10
255.436640
 20
939.421670
 30
0.0
 10
256.453580
 20
938.984660
 30
0.0
  0
SPLINE
  5
2a0
100
AcDbEntity
  8
Calque_1
 62
7
100
AcDbSpline
 70
8
 71
3
 72
8
 73
4
 74
0
 40
0
 40
0
 40
0
 40
0
 40
1
 40
1
 40
1
 40
1
 10
256.453580
 20
938.984660
 30
0.0
 10
258.803190
 20
937.974830
 30
0.0
 10
261.189650
 20
937.097750
 30
0.0
 10
263.619280
 20
936.404770
 30
0.0
  0
LWPOLYLINE
  5
2a1
100
AcDbEntity
  8
Calque_1
 62
7
100
AcDbPolyline
 90
2
 70
0
 10
249.497200
 20
942.365720
 30
0.0
 10
249.499200
 20
942.363720
 30
0.0
  0
SPLINE
  5
2a2
100
AcDbEntity
  8
Calque_1
 62
7
100
AcDbSpline
 70
8
 71
3
 72
8
 73
4
 74
0
 40
0
 40
0
 40
0
 40
0
 40
1
 40
1
 40
1
 40
1
 10
263.620120
 20
936.402770
 30
0.0
 10
263.635620
 20
936.397770
 30
0.0
 10
263.651520
 20
936.393770
 30
0.0
 10
263.667120
 20
936.388570
 30
0.0
  0
SPLINE
  5
2a3
100
AcDbEntity
  8
Calque_1
 62
7
100
AcDbSpline
 70
8
 71
3
 72
8
 73
4
 74
0
 40
0
 40
0
 40
0
 40
0
 40
1
 40
1
 40
1
 40
1
 10
263.667120
 20
936.388570
 30
0.0
 10
268.473610
 20
934.903930
 30
0.0
 10
273.296470
 20
933.733670
 30
0.0
 10
278.065250
 20
933.726000
 30
0.0
  0
LWPOLYLINE
  5
2a4
100
AcDbEntity
  8
Calque_1
 62
7
100
AcDbPolyline
 90
2
 70
0
 10
263.619280
 20
936.404770
 30
0.0
 10
263.620120
 20
936.402770
 30
0.0
  0
SPLINE
  5
2a5
100
AcDbEntity
  8
Calque_1
 62
7
100
AcDbSpline
 70
8
 71
3
 72
8
 73
4
 74
0
 40
0
 40
0
 40
0
 40
0
 40
1
 40
1
 40
1
 40
1
 10
278.076750
 20
933.727000
 30
0.0
 10
283.608290
 20
933.693600
 30
0.0
 10
289.177370
 20
934.595730
 30
0.0
 10
294.657350
 20
935.976580
 30
0.0
  0
SPLINE
  5
2a6
100
AcDbEntity
  8
Calque_1
 62
7
100
AcDbSpline
 70
8
 71
3
 72
8
 73
4
 74
0
 40
0
 40
0
 40
0
 40
0
 40
1
 40
1
 40
1
 40
1
 10
294.657350
 20
935.976580
 30
0.0
 10
296.979340
 20
936.580670
 30
0.0
 10
299.282170
 20
937.323000
 30
0.0
 10
301.572730
 20
938.152760
 30
0.0
  0
LWPOLYLINE
  5
2a7
100
AcDbEntity
  8
Calque_1
 62
7
100
AcDbPolyline
 90
2
 70
0
 10
278.065250
 20
933.726000
 30
0.0
 10
278.076750
 20
933.727000
 30
0.0
  0
SPLINE
  5
2a8
100
AcDbEntity
  8
Calque_1
 62
7
100
AcDbSpline
 70
8
 71
3
 72
8
 73
4
 74
0
 40
0
 40
0
 40
0
 40
0
 40
1
 40
1
 40
1
 40
1
 10
301.573580
 20
938.150760
 30
0.0
 10
302.912040
 20
938.635970
 30
0.0
 10
304.252690
 20
939.118170
 30
0.0
 10
305.541610
 20
939.696810
 30
0.0
  0
SPLINE
  5
2a9
100
AcDbEntity
  8
Calque_1
 62
7
100
AcDbSpline
 70
8
 71
3
 72
8
 73
4
 74
0
 40
0
 40
0
 40
0
 40
0
 40
1
 40
1
 40
1
 40
1
 10
305.541610
 20
939.696810
 30
0.0
 10
309.670760
 20
941.707860
 30
0.0
 10
313.586280
 20
944.404150
 30
0.0
 10
317.702520
 20
947.032270
 30
0.0
  0
SPLINE
  5
2aa
100
AcDbEntity
  8
Calque_1
 62
7
100
AcDbSpline
 70
8
 71
3
 72
8
 73
4
 74
0
 40
0
 40
0
 40
0
 40
0
 40
1
 40
1
 40
1
 40
1
 10
317.702520
 20
947.032270
 30
0.0
 10
319.142550
 20
948.017540
 30
0.0
 10
320.336560
 20
948.833280
 30
0.0
 10
321.026710
 20
949.728180
 30
0.0
  0
SPLINE
  5
2ab
100
AcDbEntity
  8
Calque_1
 62
7
100
AcDbSpline
 70
8
 71
3
 72
8
 73
4
 74
0
 40
0
 40
0
 40
0
 40
0
 40
1
 40
1
 40
1
 40
1
 10
321.026710
 20
949.728180
 30
0.0
 10
321.117410
 20
949.924450
 30
0.0
 10
321.078810
 20
950.282800
 30
0.0
 10
321.093810
 20
950.267190
 30
0.0
  0
SPLINE
  5
2ac
100
AcDbEntity
  8
Calque_1
 62
7
100
AcDbSpline
 70
8
 71
3
 72
8
 73
4
 74
0
 40
0
 40
0
 40
0
 40
0
 40
1
 40
1
 40
1
 40
1
 10
321.093810
 20
950.267190
 30
0.0
 10
321.064610
 20
950.295990
 30
0.0
 10
321.036410
 20
950.325790
 30
0.0
 10
321.009510
 20
950.356390
 30
0.0
  0
SPLINE
  5
2ad
100
AcDbEntity
  8
Calque_1
 62
7
100
AcDbSpline
 70
8
 71
3
 72
8
 73
4
 74
0
 40
0
 40
0
 40
0
 40
0
 40
1
 40
1
 40
1
 40
1
 10
321.009510
 20
950.356390
 30
0.0
 10
320.743560
 20
950.653810
 30
0.0
 10
319.969790
 20
950.852370
 30
0.0
 10
319.368430
 20
950.670060
 30
0.0
  0
SPLINE
  5
2ae
100
AcDbEntity
  8
Calque_1
 62
7
100
AcDbSpline
 70
8
 71
3
 72
8
 73
4
 74
0
 40
0
 40
0
 40
0
 40
0
 40
1
 40
1
 40
1
 40
1
 10
319.368430
 20
950.670060
 30
0.0
 10
319.285930
 20
950.645060
 30
0.0
 10
319.201620
 20
950.624060
 30
0.0
 10
319.116740
 20
950.607960
 30
0.0
  0
SPLINE
  5
2af
100
AcDbEntity
  8
Calque_1
 62
7
100
AcDbSpline
 70
8
 71
3
 72
8
 73
4
 74
0
 40
0
 40
0
 40
0
 40
0
 40
1
 40
1
 40
1
 40
1
 10
319.116740
 20
950.607960
 30
0.0
 10
315.872940
 20
949.996810
 30
0.0
 10
312.500010
 20
948.254850
 30
0.0
 10
308.410330
 20
947.362190
 30
0.0
  0
SPLINE
  5
2b0
100
AcDbEntity
  8
Calque_1
 62
7
100
AcDbSpline
 70
8
 71
3
 72
8
 73
4
 74
0
 40
0
 40
0
 40
0
 40
0
 40
1
 40
1
 40
1
 40
1
 10
308.410330
 20
947.362190
 30
0.0
 10
305.531650
 20
946.684150
 30
0.0
 10
302.641460
 20
946.502150
 30
0.0
 10
299.844870
 20
946.510080
 30
0.0
  0
SPLINE
  5
2b1
100
AcDbEntity
  8
Calque_1
 62
7
100
AcDbSpline
 70
8
 71
3
 72
8
 73
4
 74
0
 40
0
 40
0
 40
0
 40
0
 40
1
 40
1
 40
1
 40
1
 10
299.844870
 20
946.510080
 30
0.0
 10
296.413570
 20
946.450280
 30
0.0
 10
292.903920
 20
946.566580
 30
0.0
 10
289.395700
 20
946.999550
 30
0.0
  0
SPLINE
  5
2b2
100
AcDbEntity
  8
Calque_1
 62
7
100
AcDbSpline
 70
8
 71
3
 72
8
 73
4
 74
0
 40
0
 40
0
 40
0
 40
0
 40
1
 40
1
 40
1
 40
1
 10
289.395700
 20
946.999550
 30
0.0
 10
287.218040
 20
947.268260
 30
0.0
 10
285.040580
 20
947.631810
 30
0.0
 10
282.883290
 20
948.234040
 30
0.0
  0
SPLINE
  5
2b3
100
AcDbEntity
  8
Calque_1
 62
7
100
AcDbSpline
 70
8
 71
3
 72
8
 73
4
 74
0
 40
0
 40
0
 40
0
 40
0
 40
1
 40
1
 40
1
 40
1
 10
282.883290
 20
948.234040
 30
0.0
 10
282.882440
 20
948.236040
 30
0.0
 10
282.881290
 20
948.237040
 30
0.0
 10
282.872090
 20
948.233040
 30
0.0
  0
SPLINE
  5
2b4
100
AcDbEntity
  8
Calque_1
 62
7
100
AcDbSpline
 70
8
 71
3
 72
8
 73
4
 74
0
 40
0
 40
0
 40
0
 40
0
 40
1
 40
1
 40
1
 40
1
 10
282.872090
 20
948.233040
 30
0.0
 10
281.312970
 20
948.674100
 30
0.0
 10
279.723860
 20
949.255570
 30
0.0
 10
278.211130
 20
950.053880
 30
0.0
  0
SPLINE
  5
2b5
100
AcDbEntity
  8
Calque_1
 62
7
100
AcDbSpline
 70
8
 71
3
 72
8
 73
4
 74
0
 40
0
 40
0
 40
0
 40
0
 40
1
 40
1
 40
1
 40
1
 10
278.211130
 20
950.053880
 30
0.0
 10
276.698260
 20
950.852220
 30
0.0
 10
275.261350
 20
951.867280
 30
0.0
 10
274.007610
 20
953.175230
 30
0.0
  0
SPLINE
  5
2b6
100
AcDbEntity
  8
Calque_1
 62
7
100
AcDbSpline
 70
8
 71
3
 72
8
 73
4
 74
0
 40
0
 40
0
 40
0
 40
0
 40
1
 40
1
 40
1
 40
1
 10
274.007610
 20
953.175230
 30
0.0
 10
272.164910
 20
955.074540
 30
0.0
 10
270.745880
 20
957.113040
 30
0.0
 10
269.323880
 20
958.918300
 30
0.0
  0
LWPOLYLINE
  5
2b7
100
AcDbEntity
  8
Calque_1
 62
7
100
AcDbPolyline
 90
2
 70
0
 10
301.572730
 20
938.152760
 30
0.0
 10
301.573580
 20
938.150760
 30
0.0
  0
SPLINE
  5
2b8
100
AcDbEntity
  8
Calque_1
 62
7
100
AcDbSpline
 70
8
 71
3
 72
8
 73
4
 74
0
 40
0
 40
0
 40
0
 40
0
 40
1
 40
1
 40
1
 40
1
 10
269.301680
 20
958.957400
 30
0.0
 10
267.524000
 20
961.264350
 30
0.0
 10
265.668030
 20
963.498660
 30
0.0
 10
263.711650
 20
965.627000
 30
0.0
  0
SPLINE
  5
2b9
100
AcDbEntity
  8
Calque_1
 62
7
100
AcDbSpline
 70
8
 71
3
 72
8
 73
4
 74
0
 40
0
 40
0
 40
0
 40
0
 40
1
 40
1
 40
1
 40
1
 10
263.711650
 20
965.627000
 30
0.0
 10
263.431590
 20
965.930910
 30
0.0
 10
263.235000
 20
966.302050
 30
0.0
 10
263.140640
 20
966.704310
 30
0.0
  0
SPLINE
  5
2ba
100
AcDbEntity
  8
Calque_1
 62
7
100
AcDbSpline
 70
8
 71
3
 72
8
 73
4
 74
0
 40
0
 40
0
 40
0
 40
0
 40
1
 40
1
 40
1
 40
1
 10
263.140640
 20
966.704310
 30
0.0
 10
262.987760
 20
967.357820
 30
0.0
 10
263.030270
 20
967.969450
 30
0.0
 10
263.215640
 20
968.504960
 30
0.0
  0
SPLINE
  5
2bb
100
AcDbEntity
  8
Calque_1
 62
7
100
AcDbSpline
 70
8
 71
3
 72
8
 73
4
 74
0
 40
0
 40
0
 40
0
 40
0
 40
1
 40
1
 40
1
 40
1
 10
263.215640
 20
968.504960
 30
0.0
 10
263.586430
 20
969.574630
 30
0.0
 10
264.527140
 20
970.341080
 30
0.0
 10
265.621700
 20
970.533680
 30
0.0
  0
SPLINE
  5
2bc
100
AcDbEntity
  8
Calque_1
 62
7
100
AcDbSpline
 70
8
 71
3
 72
8
 73
4
 74
0
 40
0
 40
0
 40
0
 40
0
 40
1
 40
1
 40
1
 40
1
 10
265.621700
 20
970.533680
 30
0.0
 10
266.168720
 20
970.629380
 30
0.0
 10
266.754230
 20
970.582180
 30
0.0
 10
267.325600
 20
970.357610
 30
0.0
  0
SPLINE
  5
2bd
100
AcDbEntity
  8
Calque_1
 62
7
100
AcDbSpline
 70
8
 71
3
 72
8
 73
4
 74
0
 40
0
 40
0
 40
0
 40
0
 40
1
 40
1
 40
1
 40
1
 10
267.325600
 20
970.357610
 30
0.0
 10
269.785260
 20
969.762790
 30
0.0
 10
272.283240
 20
969.317210
 30
0.0
 10
274.797570
 20
969.004920
 30
0.0
  0
SPLINE
  5
2be
100
AcDbEntity
  8
Calque_1
 62
7
100
AcDbSpline
 70
8
 71
3
 72
8
 73
4
 74
0
 40
0
 40
0
 40
0
 40
0
 40
1
 40
1
 40
1
 40
1
 10
274.797570
 20
969.004920
 30
0.0
 10
275.267480
 20
968.945720
 30
0.0
 10
275.741640
 20
968.945520
 30
0.0
 10
276.212700
 20
968.896500
 30
0.0
  0
SPLINE
  5
2bf
100
AcDbEntity
  8
Calque_1
 62
7
100
AcDbSpline
 70
8
 71
3
 72
8
 73
4
 74
0
 40
0
 40
0
 40
0
 40
0
 40
1
 40
1
 40
1
 40
1
 10
276.212700
 20
968.896500
 30
0.0
 10
278.263260
 20
968.686000
 30
0.0
 10
280.319770
 20
968.527390
 30
0.0
 10
282.380250
 20
968.508180
 30
0.0
  0
SPLINE
  5
2c0
100
AcDbEntity
  8
Calque_1
 62
7
100
AcDbSpline
 70
8
 71
3
 72
8
 73
4
 74
0
 40
0
 40
0
 40
0
 40
0
 40
1
 40
1
 40
1
 40
1
 10
282.380250
 20
968.508180
 30
0.0
 10
286.937380
 20
968.464680
 30
0.0
 10
291.491440
 20
968.868430
 30
0.0
 10
295.931820
 20
969.836650
 30
0.0
  0
SPLINE
  5
2c1
100
AcDbEntity
  8
Calque_1
 62
7
100
AcDbSpline
 70
8
 71
3
 72
8
 73
4
 74
0
 40
0
 40
0
 40
0
 40
0
 40
1
 40
1
 40
1
 40
1
 10
295.931820
 20
969.836650
 30
0.0
 10
301.738190
 20
971.243650
 30
0.0
 10
307.452780
 20
973.251210
 30
0.0
 10
313.199190
 20
975.337750
 30
0.0
  0
SPLINE
  5
2c2
100
AcDbEntity
  8
Calque_1
 62
7
100
AcDbSpline
 70
8
 71
3
 72
8
 73
4
 74
0
 40
0
 40
0
 40
0
 40
0
 40
1
 40
1
 40
1
 40
1
 10
313.199190
 20
975.337750
 30
0.0
 10
316.206730
 20
976.516560
 30
0.0
 10
318.991730
 20
978.008210
 30
0.0
 10
321.032810
 20
980.109790
 30
0.0
  0
SPLINE
  5
2c3
100
AcDbEntity
  8
Calque_1
 62
7
100
AcDbSpline
 70
8
 71
3
 72
8
 73
4
 74
0
 40
0
 40
0
 40
0
 40
0
 40
1
 40
1
 40
1
 40
1
 10
321.032810
 20
980.109790
 30
0.0
 10
321.041810
 20
980.119790
 30
0.0
 10
321.053010
 20
980.129490
 30
0.0
 10
321.062210
 20
980.139890
 30
0.0
  0
SPLINE
  5
2c4
100
AcDbEntity
  8
Calque_1
 62
7
100
AcDbSpline
 70
8
 71
3
 72
8
 73
4
 74
0
 40
0
 40
0
 40
0
 40
0
 40
1
 40
1
 40
1
 40
1
 10
321.062210
 20
980.139890
 30
0.0
 10
321.949950
 20
981.022720
 30
0.0
 10
322.712060
 20
981.995660
 30
0.0
 10
323.302380
 20
983.029010
 30
0.0
  0
LWPOLYLINE
  5
2c5
100
AcDbEntity
  8
Calque_1
 62
7
100
AcDbPolyline
 90
3
 70
0
 10
269.323880
 20
958.918300
 30
0.0
 10
269.314880
 20
958.934500
 30
0.0
 10
269.301680
 20
958.957400
 30
0.0
  0
SPLINE
  5
2c6
100
AcDbEntity
  8
Calque_1
 62
7
100
AcDbSpline
 70
8
 71
3
 72
8
 73
4
 74
0
 40
0
 40
0
 40
0
 40
0
 40
1
 40
1
 40
1
 40
1
 10
307.273460
 20
820.502510
 30
0.0
 10
306.936410
 20
820.502710
 30
0.0
 10
306.598700
 20
820.493510
 30
0.0
 10
306.262150
 20
820.497510
 30
0.0
  0
SPLINE
  5
2c7
100
AcDbEntity
  8
Calque_1
 62
7
100
AcDbSpline
 70
8
 71
3
 72
8
 73
4
 74
0
 40
0
 40
0
 40
0
 40
0
 40
1
 40
1
 40
1
 40
1
 10
306.262150
 20
820.497510
 30
0.0
 10
304.816550
 20
820.512510
 30
0.0
 10
302.931430
 20
820.487510
 30
0.0
 10
301.511530
 20
820.454610
 30
0.0
  0
SPLINE
  5
2c8
100
AcDbEntity
  8
Calque_1
 62
7
100
AcDbSpline
 70
8
 71
3
 72
8
 73
4
 74
0
 40
0
 40
0
 40
0
 40
0
 40
1
 40
1
 40
1
 40
1
 10
301.511530
 20
820.454610
 30
0.0
 10
297.433440
 20
820.345610
 30
0.0
 10
291.666090
 20
820.440610
 30
0.0
 10
289.041490
 20
816.638810
 30
0.0
  0
SPLINE
  5
2c9
100
AcDbEntity
  8
Calque_1
 62
7
100
AcDbSpline
 70
8
 71
3
 72
8
 73
4
 74
0
 40
0
 40
0
 40
0
 40
0
 40
1
 40
1
 40
1
 40
1
 10
289.041490
 20
816.638810
 30
0.0
 10
288.315890
 20
815.587710
 30
0.0
 10
288.032450
 20
814.529710
 30
0.0
 10
288.081350
 20
813.496310
 30
0.0
  0
SPLINE
  5
2ca
100
AcDbEntity
  8
Calque_1
 62
7
100
AcDbSpline
 70
8
 71
3
 72
8
 73
4
 74
0
 40
0
 40
0
 40
0
 40
0
 40
1
 40
1
 40
1
 40
1
 10
288.081350
 20
813.496310
 30
0.0
 10
288.293040
 20
809.018410
 30
0.0
 10
294.743600
 20
804.998410
 30
0.0
 10
298.483290
 20
803.955810
 30
0.0
  0
SPLINE
  5
2cb
100
AcDbEntity
  8
Calque_1
 62
7
100
AcDbSpline
 70
8
 71
3
 72
8
 73
4
 74
0
 40
0
 40
0
 40
0
 40
0
 40
1
 40
1
 40
1
 40
1
 10
298.483290
 20
803.955810
 30
0.0
 10
304.060290
 20
802.400910
 30
0.0
 10
308.086810
 20
803.248410
 30
0.0
 10
312.814200
 20
806.319010
 30
0.0
  0
SPLINE
  5
2cc
100
AcDbEntity
  8
Calque_1
 62
7
100
AcDbSpline
 70
8
 71
3
 72
8
 73
4
 74
0
 40
0
 40
0
 40
0
 40
0
 40
1
 40
1
 40
1
 40
1
 10
312.814200
 20
806.319010
 30
0.0
 10
313.418200
 20
806.711310
 30
0.0
 10
314.039530
 20
807.079410
 30
0.0
 10
314.615130
 20
807.511210
 30
0.0
  0
SPLINE
  5
2cd
100
AcDbEntity
  8
Calque_1
 62
7
100
AcDbSpline
 70
8
 71
3
 72
8
 73
4
 74
0
 40
0
 40
0
 40
0
 40
0
 40
1
 40
1
 40
1
 40
1
 10
314.615130
 20
807.511210
 30
0.0
 10
316.465120
 20
808.899010
 30
0.0
 10
318.108910
 20
810.998510
 30
0.0
 10
317.703310
 20
813.430210
 30
0.0
  0
SPLINE
  5
2ce
100
AcDbEntity
  8
Calque_1
 62
7
100
AcDbSpline
 70
8
 71
3
 72
8
 73
4
 74
0
 40
0
 40
0
 40
0
 40
0
 40
1
 40
1
 40
1
 40
1
 10
317.703310
 20
813.430210
 30
0.0
 10
317.585910
 20
814.134410
 30
0.0
 10
317.060220
 20
815.778410
 30
0.0
 10
316.535420
 20
816.357110
 30
0.0
  0
SPLINE
  5
2cf
100
AcDbEntity
  8
Calque_1
 62
7
100
AcDbSpline
 70
8
 71
3
 72
8
 73
4
 74
0
 40
0
 40
0
 40
0
 40
0
 40
1
 40
1
 40
1
 40
1
 10
316.535420
 20
816.357110
 30
0.0
 10
315.783020
 20
817.187010
 30
0.0
 10
314.925580
 20
817.918110
 30
0.0
 10
314.120580
 20
818.698610
 30
0.0
  0
SPLINE
  5
2d0
100
AcDbEntity
  8
Calque_1
 62
7
100
AcDbSpline
 70
8
 71
3
 72
8
 73
4
 74
0
 40
0
 40
0
 40
0
 40
0
 40
1
 40
1
 40
1
 40
1
 10
314.120580
 20
818.698610
 30
0.0
 10
312.258780
 20
819.349910
 30
0.0
 10
310.293540
 20
820.219210
 30
0.0
 10
308.281150
 20
820.454610
 30
0.0
  0
SPLINE
  5
2d1
100
AcDbEntity
  8
Calque_1
 62
7
100
AcDbSpline
 70
8
 71
3
 72
8
 73
4
 74
0
 40
0
 40
0
 40
0
 40
0
 40
1
 40
1
 40
1
 40
1
 10
308.281150
 20
820.454610
 30
0.0
 10
307.946900
 20
820.493610
 30
0.0
 10
307.610500
 20
820.502510
 30
0.0
 10
307.273460
 20
820.502610
 30
0.0
  0
LWPOLYLINE
  5
2d2
100
AcDbEntity
  8
Calque_1
 62
7
100
AcDbPolyline
 90
2
 70
0
 10
323.302380
 20
983.029010
 30
0.0
 10
323.302020
 20
983.028880
 30
0.0
  0
SPLINE
  5
2d3
100
AcDbEntity
  8
Calque_1
 62
7
100
AcDbSpline
 70
8
 71
3
 72
8
 73
4
 74
0
 40
0
 40
0
 40
0
 40
0
 40
1
 40
1
 40
1
 40
1
 10
38.404078
 20
813.399610
 30
0.0
 10
35.788223
 20
813.375110
 30
0.0
 10
32.931234
 20
812.572710
 30
0.0
 10
31.057239
 20
811.194610
 30
0.0
  0
SPLINE
  5
2d4
100
AcDbEntity
  8
Calque_1
 62
7
100
AcDbSpline
 70
8
 71
3
 72
8
 73
4
 74
0
 40
0
 40
0
 40
0
 40
0
 40
1
 40
1
 40
1
 40
1
 10
31.057239
 20
811.194610
 30
0.0
 10
29.569741
 20
810.100810
 30
0.0
 10
27.940175
 20
807.533610
 30
0.0
 10
27.454875
 20
805.731310
 30
0.0
  0
SPLINE
  5
2d5
100
AcDbEntity
  8
Calque_1
 62
7
100
AcDbSpline
 70
8
 71
3
 72
8
 73
4
 74
0
 40
0
 40
0
 40
0
 40
0
 40
1
 40
1
 40
1
 40
1
 10
27.454875
 20
805.731310
 30
0.0
 10
27.302275
 20
805.164610
 30
0.0
 10
27.223836
 20
804.578710
 30
0.0
 10
27.157736
 20
803.996010
 30
0.0
  0
SPLINE
  5
2d6
100
AcDbEntity
  8
Calque_1
 62
7
100
AcDbSpline
 70
8
 71
3
 72
8
 73
4
 74
0
 40
0
 40
0
 40
0
 40
0
 40
1
 40
1
 40
1
 40
1
 10
27.157736
 20
803.996010
 30
0.0
 10
27.123736
 20
803.694810
 30
0.0
 10
27.103896
 20
803.386210
 30
0.0
 10
27.100896
 20
803.074110
 30
0.0
  0
SPLINE
  5
2d7
100
AcDbEntity
  8
Calque_1
 62
7
100
AcDbSpline
 70
8
 71
3
 72
8
 73
4
 74
0
 40
0
 40
0
 40
0
 40
0
 40
1
 40
1
 40
1
 40
1
 10
27.100896
 20
803.074110
 30
0.0
 10
27.090896
 20
802.138010
 30
0.0
 10
27.246237
 20
801.179210
 30
0.0
 10
27.672437
 20
800.354410
 30
0.0
  0
SPLINE
  5
2d8
100
AcDbEntity
  8
Calque_1
 62
7
100
AcDbSpline
 70
8
 71
3
 72
8
 73
4
 74
0
 40
0
 40
0
 40
0
 40
0
 40
1
 40
1
 40
1
 40
1
 10
27.672437
 20
800.354410
 30
0.0
 10
28.389236
 20
798.967410
 30
0.0
 10
29.904207
 20
798.181410
 30
0.0
 10
31.037606
 20
797.189210
 30
0.0
  0
LWPOLYLINE
  5
2d9
100
AcDbEntity
  8
Calque_1
 62
7
100
AcDbPolyline
 90
1
 70
1
 10
307.273460
 20
820.502610
 30
0.0
  0
SPLINE
  5
2da
100
AcDbEntity
  8
Calque_1
 62
7
100
AcDbSpline
 70
8
 71
3
 72
8
 73
4
 74
0
 40
0
 40
0
 40
0
 40
0
 40
1
 40
1
 40
1
 40
1
 10
29.236166
 20
795.303010
 30
0.0
 10
33.349962
 20
794.461210
 30
0.0
 10
37.552738
 20
793.871310
 30
0.0
 10
41.765634
 20
794.218310
 30
0.0
  0
SPLINE
  5
2db
100
AcDbEntity
  8
Calque_1
 62
7
100
AcDbSpline
 70
8
 71
3
 72
8
 73
4
 74
0
 40
0
 40
0
 40
0
 40
0
 40
1
 40
1
 40
1
 40
1
 10
41.765634
 20
794.218310
 30
0.0
 10
43.840131
 20
794.389210
 30
0.0
 10
45.019954
 20
794.633110
 30
0.0
 10
46.892452
 20
795.628110
 30
0.0
  0
SPLINE
  5
2dc
100
AcDbEntity
  8
Calque_1
 62
7
100
AcDbSpline
 70
8
 71
3
 72
8
 73
4
 74
0
 40
0
 40
0
 40
0
 40
0
 40
1
 40
1
 40
1
 40
1
 10
46.892452
 20
795.628110
 30
0.0
 10
47.415952
 20
795.906310
 30
0.0
 10
47.871952
 20
796.303210
 30
0.0
 10
48.298051
 20
796.712310
 30
0.0
  0
SPLINE
  5
2dd
100
AcDbEntity
  8
Calque_1
 62
7
100
AcDbSpline
 70
8
 71
3
 72
8
 73
4
 74
0
 40
0
 40
0
 40
0
 40
0
 40
1
 40
1
 40
1
 40
1
 10
48.298051
 20
796.712310
 30
0.0
 10
48.787151
 20
797.182110
 30
0.0
 10
49.286269
 20
797.666110
 30
0.0
 10
49.624069
 20
798.251210
 30
0.0
  0
SPLINE
  5
2de
100
AcDbEntity
  8
Calque_1
 62
7
100
AcDbSpline
 70
8
 71
3
 72
8
 73
4
 74
0
 40
0
 40
0
 40
0
 40
0
 40
1
 40
1
 40
1
 40
1
 10
49.624069
 20
798.251210
 30
0.0
 10
51.080367
 20
800.773510
 30
0.0
 10
51.396179
 20
804.263210
 30
0.0
 10
49.861780
 20
806.836710
 30
0.0
  0
SPLINE
  5
2df
100
AcDbEntity
  8
Calque_1
 62
7
100
AcDbSpline
 70
8
 71
3
 72
8
 73
4
 74
0
 40
0
 40
0
 40
0
 40
0
 40
1
 40
1
 40
1
 40
1
 10
49.861780
 20
806.836710
 30
0.0
 10
47.987982
 20
809.979310
 30
0.0
 10
44.803524
 20
812.092810
 30
0.0
 10
41.290727
 20
813.058510
 30
0.0
  0
SPLINE
  5
2e0
100
AcDbEntity
  8
Calque_1
 62
7
100
AcDbSpline
 70
8
 71
3
 72
8
 73
4
 74
0
 40
0
 40
0
 40
0
 40
0
 40
1
 40
1
 40
1
 40
1
 10
41.290727
 20
813.058510
 30
0.0
 10
40.414297
 20
813.299510
 30
0.0
 10
39.427677
 20
813.409210
 30
0.0
 10
38.404082
 20
813.399610
 30
0.0
  0
LWPOLYLINE
  5
2e1
100
AcDbEntity
  8
Calque_1
 62
7
100
AcDbPolyline
 90
2
 70
0
 10
31.037606
 20
797.189210
 30
0.0
 10
29.236166
 20
795.303010
 30
0.0
  0
SPLINE
  5
2e2
100
AcDbEntity
  8
Calque_1
 62
7
100
AcDbSpline
 70
8
 71
3
 72
8
 73
4
 74
0
 40
0
 40
0
 40
0
 40
0
 40
1
 40
1
 40
1
 40
1
 10
150.190540
 20
795.581110
 30
0.0
 10
150.031790
 20
795.580110
 30
0.0
 10
149.880870
 20
795.578110
 30
0.0
 10
149.739400
 20
795.574110
 30
0.0
  0
SPLINE
  5
2e3
100
AcDbEntity
  8
Calque_1
 62
7
100
AcDbSpline
 70
8
 71
3
 72
8
 73
4
 74
0
 40
0
 40
0
 40
0
 40
0
 40
1
 40
1
 40
1
 40
1
 10
149.739400
 20
795.574110
 30
0.0
 10
147.607200
 20
795.523110
 30
0.0
 10
144.097160
 20
795.265110
 30
0.0
 10
142.673170
 20
793.362910
 30
0.0
  0
SPLINE
  5
2e4
100
AcDbEntity
  8
Calque_1
 62
7
100
AcDbSpline
 70
8
 71
3
 72
8
 73
4
 74
0
 40
0
 40
0
 40
0
 40
0
 40
1
 40
1
 40
1
 40
1
 10
142.673170
 20
793.362910
 30
0.0
 10
142.275760
 20
792.832010
 30
0.0
 10
142.144280
 20
792.088910
 30
0.0
 10
142.150720
 20
791.338210
 30
0.0
  0
SPLINE
  5
2e5
100
AcDbEntity
  8
Calque_1
 62
7
100
AcDbSpline
 70
8
 71
3
 72
8
 73
4
 74
0
 40
0
 40
0
 40
0
 40
0
 40
1
 40
1
 40
1
 40
1
 10
142.150720
 20
791.338210
 30
0.0
 10
142.160820
 20
790.587510
 30
0.0
 10
142.301630
 20
789.829010
 30
0.0
 10
142.455090
 20
789.266010
 30
0.0
  0
SPLINE
  5
2e6
100
AcDbEntity
  8
Calque_1
 62
7
100
AcDbSpline
 70
8
 71
3
 72
8
 73
4
 74
0
 40
0
 40
0
 40
0
 40
0
 40
1
 40
1
 40
1
 40
1
 10
142.455090
 20
789.266010
 30
0.0
 10
142.628690
 20
788.629210
 30
0.0
 10
143.372500
 20
787.155310
 30
0.0
 10
143.820900
 20
786.664110
 30
0.0
  0
SPLINE
  5
2e7
100
AcDbEntity
  8
Calque_1
 62
7
100
AcDbSpline
 70
8
 71
3
 72
8
 73
4
 74
0
 40
0
 40
0
 40
0
 40
0
 40
1
 40
1
 40
1
 40
1
 10
143.820900
 20
786.664110
 30
0.0
 10
145.346700
 20
784.992910
 30
0.0
 10
148.141920
 20
783.544310
 30
0.0
 10
150.353320
 20
783.087010
 30
0.0
  0
SPLINE
  5
2e8
100
AcDbEntity
  8
Calque_1
 62
7
100
AcDbSpline
 70
8
 71
3
 72
8
 73
4
 74
0
 40
0
 40
0
 40
0
 40
0
 40
1
 40
1
 40
1
 40
1
 10
150.353320
 20
783.087010
 30
0.0
 10
151.888220
 20
782.769610
 30
0.0
 10
154.717530
 20
782.901710
 30
0.0
 10
156.232030
 20
783.064810
 30
0.0
  0
SPLINE
  5
2e9
100
AcDbEntity
  8
Calque_1
 62
7
100
AcDbSpline
 70
8
 71
3
 72
8
 73
4
 74
0
 40
0
 40
0
 40
0
 40
0
 40
1
 40
1
 40
1
 40
1
 10
156.232030
 20
783.064810
 30
0.0
 10
158.260130
 20
783.283710
 30
0.0
 10
160.180830
 20
784.105510
 30
0.0
 10
161.774330
 20
785.362910
 30
0.0
  0
SPLINE
  5
2ea
100
AcDbEntity
  8
Calque_1
 62
7
100
AcDbSpline
 70
8
 71
3
 72
8
 73
4
 74
0
 40
0
 40
0
 40
0
 40
0
 40
1
 40
1
 40
1
 40
1
 10
161.774330
 20
785.362910
 30
0.0
 10
162.076730
 20
785.601610
 30
0.0
 10
162.341570
 20
785.884010
 30
0.0
 10
162.645070
 20
786.121510
 30
0.0
  0
SPLINE
  5
2eb
100
AcDbEntity
  8
Calque_1
 62
7
100
AcDbSpline
 70
8
 71
3
 72
8
 73
4
 74
0
 40
0
 40
0
 40
0
 40
0
 40
1
 40
1
 40
1
 40
1
 10
162.645070
 20
786.121510
 30
0.0
 10
162.896770
 20
786.318410
 30
0.0
 10
163.220770
 20
786.429610
 30
0.0
 10
163.437270
 20
786.663610
 30
0.0
  0
SPLINE
  5
2ec
100
AcDbEntity
  8
Calque_1
 62
7
100
AcDbSpline
 70
8
 71
3
 72
8
 73
4
 74
0
 40
0
 40
0
 40
0
 40
0
 40
1
 40
1
 40
1
 40
1
 10
163.437270
 20
786.663610
 30
0.0
 10
164.104970
 20
787.385110
 30
0.0
 10
164.529270
 20
788.427610
 30
0.0
 10
164.802560
 20
789.351810
 30
0.0
  0
SPLINE
  5
2ed
100
AcDbEntity
  8
Calque_1
 62
7
100
AcDbSpline
 70
8
 71
3
 72
8
 73
4
 74
0
 40
0
 40
0
 40
0
 40
0
 40
1
 40
1
 40
1
 40
1
 10
164.802560
 20
789.351810
 30
0.0
 10
164.879560
 20
789.610810
 30
0.0
 10
164.996440
 20
789.863810
 30
0.0
 10
165.020640
 20
790.132610
 30
0.0
  0
SPLINE
  5
2ee
100
AcDbEntity
  8
Calque_1
 62
7
100
AcDbSpline
 70
8
 71
3
 72
8
 73
4
 74
0
 40
0
 40
0
 40
0
 40
0
 40
1
 40
1
 40
1
 40
1
 10
165.020640
 20
790.132610
 30
0.0
 10
165.075640
 20
790.744910
 30
0.0
 10
164.625770
 20
791.443110
 30
0.0
 10
164.149370
 20
791.780110
 30
0.0
  0
SPLINE
  5
2ef
100
AcDbEntity
  8
Calque_1
 62
7
100
AcDbSpline
 70
8
 71
3
 72
8
 73
4
 74
0
 40
0
 40
0
 40
0
 40
0
 40
1
 40
1
 40
1
 40
1
 10
164.149370
 20
791.780110
 30
0.0
 10
164.031270
 20
791.864110
 30
0.0
 10
163.872500
 20
791.867010
 30
0.0
 10
163.733900
 20
791.910310
 30
0.0
  0
LWPOLYLINE
  5
2f0
100
AcDbEntity
  8
Calque_1
 62
7
100
AcDbPolyline
 90
1
 70
1
 10
38.404082
 20
813.399610
 30
0.0
  0
SPLINE
  5
2f1
100
AcDbEntity
  8
Calque_1
 62
7
100
AcDbSpline
 70
8
 71
3
 72
8
 73
4
 74
0
 40
0
 40
0
 40
0
 40
0
 40
1
 40
1
 40
1
 40
1
 10
161.160930
 20
792.777410
 30
0.0
 10
160.309730
 20
793.305010
 30
0.0
 10
159.493380
 20
793.892310
 30
0.0
 10
158.607080
 20
794.360310
 30
0.0
  0
SPLINE
  5
2f2
100
AcDbEntity
  8
Calque_1
 62
7
100
AcDbSpline
 70
8
 71
3
 72
8
 73
4
 74
0
 40
0
 40
0
 40
0
 40
0
 40
1
 40
1
 40
1
 40
1
 10
158.607080
 20
794.360310
 30
0.0
 10
156.758240
 20
795.336410
 30
0.0
 10
152.571720
 20
795.596810
 30
0.0
 10
150.190540
 20
795.580910
 30
0.0
  0
LWPOLYLINE
  5
2f3
100
AcDbEntity
  8
Calque_1
 62
7
100
AcDbPolyline
 90
2
 70
0
 10
163.733900
 20
791.910310
 30
0.0
 10
161.160930
 20
792.777410
 30
0.0
  0
SPLINE
  5
2f4
100
AcDbEntity
  8
Calque_1
 62
7
100
AcDbSpline
 70
8
 71
3
 72
8
 73
4
 74
0
 40
0
 40
0
 40
0
 40
0
 40
1
 40
1
 40
1
 40
1
 10
354.505710
 20
791.308410
 30
0.0
 10
352.054490
 20
791.321910
 30
0.0
 10
349.749140
 20
790.840010
 30
0.0
 10
347.555230
 20
789.319410
 30
0.0
  0
SPLINE
  5
2f5
100
AcDbEntity
  8
Calque_1
 62
7
100
AcDbSpline
 70
8
 71
3
 72
8
 73
4
 74
0
 40
0
 40
0
 40
0
 40
0
 40
1
 40
1
 40
1
 40
1
 10
347.555230
 20
789.319410
 30
0.0
 10
347.084330
 20
788.993110
 30
0.0
 10
346.692510
 20
788.552310
 30
0.0
 10
346.367710
 20
788.083810
 30
0.0
  0
SPLINE
  5
2f6
100
AcDbEntity
  8
Calque_1
 62
7
100
AcDbSpline
 70
8
 71
3
 72
8
 73
4
 74
0
 40
0
 40
0
 40
0
 40
0
 40
1
 40
1
 40
1
 40
1
 10
346.367710
 20
788.083810
 30
0.0
 10
345.681410
 20
787.093910
 30
0.0
 10
345.410830
 20
786.038610
 30
0.0
 10
345.437530
 20
784.986410
 30
0.0
  0
SPLINE
  5
2f7
100
AcDbEntity
  8
Calque_1
 62
7
100
AcDbSpline
 70
8
 71
3
 72
8
 73
4
 74
0
 40
0
 40
0
 40
0
 40
0
 40
1
 40
1
 40
1
 40
1
 10
345.437530
 20
784.986410
 30
0.0
 10
345.481530
 20
783.232810
 30
0.0
 10
346.351920
 20
781.487110
 30
0.0
 10
347.496320
 20
780.062110
 30
0.0
  0
SPLINE
  5
2f8
100
AcDbEntity
  8
Calque_1
 62
7
100
AcDbSpline
 70
8
 71
3
 72
8
 73
4
 74
0
 40
0
 40
0
 40
0
 40
0
 40
1
 40
1
 40
1
 40
1
 10
347.496320
 20
780.062110
 30
0.0
 10
348.576820
 20
778.716610
 30
0.0
 10
349.700440
 20
777.494710
 30
0.0
 10
351.217540
 20
776.636510
 30
0.0
  0
SPLINE
  5
2f9
100
AcDbEntity
  8
Calque_1
 62
7
100
AcDbSpline
 70
8
 71
3
 72
8
 73
4
 74
0
 40
0
 40
0
 40
0
 40
0
 40
1
 40
1
 40
1
 40
1
 10
351.217540
 20
776.636510
 30
0.0
 10
354.599740
 20
774.723110
 30
0.0
 10
361.124150
 20
774.371610
 30
0.0
 10
364.796040
 20
775.791010
 30
0.0
  0
SPLINE
  5
2fa
100
AcDbEntity
  8
Calque_1
 62
7
100
AcDbSpline
 70
8
 71
3
 72
8
 73
4
 74
0
 40
0
 40
0
 40
0
 40
0
 40
1
 40
1
 40
1
 40
1
 10
364.796040
 20
775.791010
 30
0.0
 10
365.700240
 20
776.140610
 30
0.0
 10
366.346460
 20
776.779010
 30
0.0
 10
367.012960
 20
777.438510
 30
0.0
  0
SPLINE
  5
2fb
100
AcDbEntity
  8
Calque_1
 62
7
100
AcDbSpline
 70
8
 71
3
 72
8
 73
4
 74
0
 40
0
 40
0
 40
0
 40
0
 40
1
 40
1
 40
1
 40
1
 10
367.012960
 20
777.438510
 30
0.0
 10
368.465860
 20
778.876310
 30
0.0
 10
370.598740
 20
781.310510
 30
0.0
 10
369.823640
 20
783.574610
 30
0.0
  0
SPLINE
  5
2fc
100
AcDbEntity
  8
Calque_1
 62
7
100
AcDbSpline
 70
8
 71
3
 72
8
 73
4
 74
0
 40
0
 40
0
 40
0
 40
0
 40
1
 40
1
 40
1
 40
1
 10
369.823640
 20
783.574610
 30
0.0
 10
369.593340
 20
784.247210
 30
0.0
 10
368.318390
 20
785.819110
 30
0.0
 10
368.200490
 20
785.980610
 30
0.0
  0
SPLINE
  5
2fd
100
AcDbEntity
  8
Calque_1
 62
7
100
AcDbSpline
 70
8
 71
3
 72
8
 73
4
 74
0
 40
0
 40
0
 40
0
 40
0
 40
1
 40
1
 40
1
 40
1
 10
368.200490
 20
785.980610
 30
0.0
 10
367.052490
 20
786.862310
 30
0.0
 10
365.980850
 20
787.850710
 30
0.0
 10
364.756250
 20
788.625910
 30
0.0
  0
SPLINE
  5
2fe
100
AcDbEntity
  8
Calque_1
 62
7
100
AcDbSpline
 70
8
 71
3
 72
8
 73
4
 74
0
 40
0
 40
0
 40
0
 40
0
 40
1
 40
1
 40
1
 40
1
 10
364.756250
 20
788.625910
 30
0.0
 10
362.952350
 20
789.767810
 30
0.0
 10
359.604500
 20
790.831210
 30
0.0
 10
357.452300
 20
791.097610
 30
0.0
  0
SPLINE
  5
2ff
100
AcDbEntity
  8
Calque_1
 62
7
100
AcDbSpline
 70
8
 71
3
 72
8
 73
4
 74
0
 40
0
 40
0
 40
0
 40
0
 40
1
 40
1
 40
1
 40
1
 10
357.452300
 20
791.097610
 30
0.0
 10
356.446300
 20
791.222110
 30
0.0
 10
355.464890
 20
791.303210
 30
0.0
 10
354.505710
 20
791.308410
 30
0.0
  0
LWPOLYLINE
  5
300
100
AcDbEntity
  8
Calque_1
 62
7
100
AcDbPolyline
 90
2
 70
0
 10
150.190540
 20
795.580910
 30
0.0
 10
150.190540
 20
795.581110
 30
0.0
  0
SPLINE
  5
301
100
AcDbEntity
  8
Calque_1
 62
7
100
AcDbSpline
 70
8
 71
3
 72
8
 73
4
 74
0
 40
0
 40
0
 40
0
 40
0
 40
1
 40
1
 40
1
 40
1
 10
305.615680
 20
790.933810
 30
0.0
 10
303.919510
 20
790.959010
 30
0.0
 10
302.241520
 20
790.466210
 30
0.0
 10
300.617010
 20
790.024810
 30
0.0
  0
SPLINE
  5
302
100
AcDbEntity
  8
Calque_1
 62
7
100
AcDbSpline
 70
8
 71
3
 72
8
 73
4
 74
0
 40
0
 40
0
 40
0
 40
0
 40
1
 40
1
 40
1
 40
1
 10
300.617010
 20
790.024810
 30
0.0
 10
298.814320
 20
789.534910
 30
0.0
 10
297.528270
 20
789.216210
 30
0.0
 10
295.905670
 20
788.442010
 30
0.0
  0
SPLINE
  5
303
100
AcDbEntity
  8
Calque_1
 62
7
100
AcDbSpline
 70
8
 71
3
 72
8
 73
4
 74
0
 40
0
 40
0
 40
0
 40
0
 40
1
 40
1
 40
1
 40
1
 10
295.905670
 20
788.442010
 30
0.0
 10
293.398480
 20
787.245810
 30
0.0
 10
292.298300
 20
785.714910
 30
0.0
 10
290.937500
 20
783.455210
 30
0.0
  0
SPLINE
  5
304
100
AcDbEntity
  8
Calque_1
 62
7
100
AcDbSpline
 70
8
 71
3
 72
8
 73
4
 74
0
 40
0
 40
0
 40
0
 40
0
 40
1
 40
1
 40
1
 40
1
 10
290.937500
 20
783.455210
 30
0.0
 10
290.555200
 20
782.820210
 30
0.0
 10
290.035910
 20
781.727410
 30
0.0
 10
290.086910
 20
780.876510
 30
0.0
  0
SPLINE
  5
305
100
AcDbEntity
  8
Calque_1
 62
7
100
AcDbSpline
 70
8
 71
3
 72
8
 73
4
 74
0
 40
0
 40
0
 40
0
 40
0
 40
1
 40
1
 40
1
 40
1
 10
290.086910
 20
780.876510
 30
0.0
 10
290.096910
 20
780.754910
 30
0.0
 10
290.112810
 20
780.638310
 30
0.0
 10
290.145810
 20
780.528710
 30
0.0
  0
SPLINE
  5
306
100
AcDbEntity
  8
Calque_1
 62
7
100
AcDbSpline
 70
8
 71
3
 72
8
 73
4
 74
0
 40
0
 40
0
 40
0
 40
0
 40
1
 40
1
 40
1
 40
1
 10
290.145810
 20
780.528710
 30
0.0
 10
290.406710
 20
779.652610
 30
0.0
 10
291.561040
 20
779.287310
 30
0.0
 10
292.184440
 20
778.880810
 30
0.0
  0
SPLINE
  5
307
100
AcDbEntity
  8
Calque_1
 62
7
100
AcDbSpline
 70
8
 71
3
 72
8
 73
4
 74
0
 40
0
 40
0
 40
0
 40
0
 40
1
 40
1
 40
1
 40
1
 10
292.184440
 20
778.880810
 30
0.0
 10
292.454940
 20
777.883510
 30
0.0
 10
292.532880
 20
776.814910
 30
0.0
 10
292.996280
 20
775.889210
 30
0.0
  0
SPLINE
  5
308
100
AcDbEntity
  8
Calque_1
 62
7
100
AcDbSpline
 70
8
 71
3
 72
8
 73
4
 74
0
 40
0
 40
0
 40
0
 40
0
 40
1
 40
1
 40
1
 40
1
 10
292.996280
 20
775.889210
 30
0.0
 10
293.339280
 20
775.204310
 30
0.0
 10
294.002660
 20
774.726110
 30
0.0
 10
294.539860
 20
774.175610
 30
0.0
  0
SPLINE
  5
309
100
AcDbEntity
  8
Calque_1
 62
7
100
AcDbSpline
 70
8
 71
3
 72
8
 73
4
 74
0
 40
0
 40
0
 40
0
 40
0
 40
1
 40
1
 40
1
 40
1
 10
294.539860
 20
774.175610
 30
0.0
 10
296.737750
 20
771.923610
 30
0.0
 10
298.304880
 20
770.926710
 30
0.0
 10
301.170980
 20
769.428110
 30
0.0
  0
SPLINE
  5
30a
100
AcDbEntity
  8
Calque_1
 62
7
100
AcDbSpline
 70
8
 71
3
 72
8
 73
4
 74
0
 40
0
 40
0
 40
0
 40
0
 40
1
 40
1
 40
1
 40
1
 10
301.170980
 20
769.428110
 30
0.0
 10
303.677870
 20
768.117410
 30
0.0
 10
306.295780
 20
767.227010
 30
0.0
 10
309.108480
 20
766.805010
 30
0.0
  0
SPLINE
  5
30b
100
AcDbEntity
  8
Calque_1
 62
7
100
AcDbSpline
 70
8
 71
3
 72
8
 73
4
 74
0
 40
0
 40
0
 40
0
 40
0
 40
1
 40
1
 40
1
 40
1
 10
309.108480
 20
766.805010
 30
0.0
 10
310.153470
 20
766.648310
 30
0.0
 10
313.481860
 20
766.246510
 30
0.0
 10
314.829060
 20
766.522410
 30
0.0
  0
SPLINE
  5
30c
100
AcDbEntity
  8
Calque_1
 62
7
100
AcDbSpline
 70
8
 71
3
 72
8
 73
4
 74
0
 40
0
 40
0
 40
0
 40
0
 40
1
 40
1
 40
1
 40
1
 10
314.829060
 20
766.522410
 30
0.0
 10
316.544750
 20
766.873910
 30
0.0
 10
318.272250
 20
767.629910
 30
0.0
 10
319.618940
 20
768.755810
 30
0.0
  0
SPLINE
  5
30d
100
AcDbEntity
  8
Calque_1
 62
7
100
AcDbSpline
 70
8
 71
3
 72
8
 73
4
 74
0
 40
0
 40
0
 40
0
 40
0
 40
1
 40
1
 40
1
 40
1
 10
319.618940
 20
768.755810
 30
0.0
 10
321.385540
 20
770.232810
 30
0.0
 10
322.312740
 20
772.233410
 30
0.0
 10
322.667340
 20
774.457810
 30
0.0
  0
SPLINE
  5
30e
100
AcDbEntity
  8
Calque_1
 62
7
100
AcDbSpline
 70
8
 71
3
 72
8
 73
4
 74
0
 40
0
 40
0
 40
0
 40
0
 40
1
 40
1
 40
1
 40
1
 10
322.667340
 20
774.457810
 30
0.0
 10
323.330940
 20
778.621110
 30
0.0
 10
320.192920
 20
782.461410
 30
0.0
 10
317.303320
 20
785.059710
 30
0.0
  0
SPLINE
  5
30f
100
AcDbEntity
  8
Calque_1
 62
7
100
AcDbSpline
 70
8
 71
3
 72
8
 73
4
 74
0
 40
0
 40
0
 40
0
 40
0
 40
1
 40
1
 40
1
 40
1
 10
317.303320
 20
785.059710
 30
0.0
 10
314.105330
 20
787.935210
 30
0.0
 10
311.132530
 20
790.075110
 30
0.0
 10
306.792340
 20
790.826810
 30
0.0
  0
SPLINE
  5
310
100
AcDbEntity
  8
Calque_1
 62
7
100
AcDbSpline
 70
8
 71
3
 72
8
 73
4
 74
0
 40
0
 40
0
 40
0
 40
0
 40
1
 40
1
 40
1
 40
1
 10
306.792340
 20
790.826810
 30
0.0
 10
306.399410
 20
790.894910
 30
0.0
 10
306.007090
 20
790.928010
 30
0.0
 10
305.615670
 20
790.933810
 30
0.0
  0
LWPOLYLINE
  5
311
100
AcDbEntity
  8
Calque_1
 62
7
100
AcDbPolyline
 90
1
 70
1
 10
354.505710
 20
791.308410
 30
0.0
  0
SPLINE
  5
312
100
AcDbEntity
  8
Calque_1
 62
7
100
AcDbSpline
 70
8
 71
3
 72
8
 73
4
 74
0
 40
0
 40
0
 40
0
 40
0
 40
1
 40
1
 40
1
 40
1
 10
250.188570
 20
750.894410
 30
0.0
 10
246.325140
 20
750.902410
 30
0.0
 10
242.769310
 20
749.939710
 30
0.0
 10
239.854830
 20
747.334910
 30
0.0
  0
SPLINE
  5
313
100
AcDbEntity
  8
Calque_1
 62
7
100
AcDbSpline
 70
8
 71
3
 72
8
 73
4
 74
0
 40
0
 40
0
 40
0
 40
0
 40
1
 40
1
 40
1
 40
1
 10
239.854830
 20
747.334910
 30
0.0
 10
239.302030
 20
746.840910
 30
0.0
 10
238.576310
 20
746.076210
 30
0.0
 10
238.251310
 20
745.383610
 30
0.0
  0
SPLINE
  5
314
100
AcDbEntity
  8
Calque_1
 62
7
100
AcDbSpline
 70
8
 71
3
 72
8
 73
4
 74
0
 40
0
 40
0
 40
0
 40
0
 40
1
 40
1
 40
1
 40
1
 10
238.251310
 20
745.383610
 30
0.0
 10
238.086810
 20
745.033110
 30
0.0
 10
237.668650
 20
743.556110
 30
0.0
 10
237.558850
 20
743.063810
 30
0.0
  0
SPLINE
  5
315
100
AcDbEntity
  8
Calque_1
 62
7
100
AcDbSpline
 70
8
 71
3
 72
8
 73
4
 74
0
 40
0
 40
0
 40
0
 40
0
 40
1
 40
1
 40
1
 40
1
 10
237.558850
 20
743.063810
 30
0.0
 10
237.474850
 20
742.686610
 30
0.0
 10
237.203080
 20
741.363910
 30
0.0
 10
237.177480
 20
740.773510
 30
0.0
  0
LWPOLYLINE
  5
316
100
AcDbEntity
  8
Calque_1
 62
7
100
AcDbPolyline
 90
1
 70
1
 10
305.615670
 20
790.933810
 30
0.0
  0
SPLINE
  5
317
100
AcDbEntity
  8
Calque_1
 62
7
100
AcDbSpline
 70
8
 71
3
 72
8
 73
4
 74
0
 40
0
 40
0
 40
0
 40
0
 40
1
 40
1
 40
1
 40
1
 10
237.172480
 20
740.773510
 30
0.0
 10
237.172480
 20
740.689510
 30
0.0
 10
237.172300
 20
740.619510
 30
0.0
 10
237.182480
 20
740.569910
 30
0.0
  0
SPLINE
  5
318
100
AcDbEntity
  8
Calque_1
 62
7
100
AcDbSpline
 70
8
 71
3
 72
8
 73
4
 74
0
 40
0
 40
0
 40
0
 40
0
 40
1
 40
1
 40
1
 40
1
 10
237.182480
 20
740.569910
 30
0.0
 10
237.291080
 20
739.866910
 30
0.0
 10
238.084930
 20
738.454210
 30
0.0
 10
238.567930
 20
737.925110
 30
0.0
  0
SPLINE
  5
319
100
AcDbEntity
  8
Calque_1
 62
7
100
AcDbSpline
 70
8
 71
3
 72
8
 73
4
 74
0
 40
0
 40
0
 40
0
 40
0
 40
1
 40
1
 40
1
 40
1
 10
238.567930
 20
737.925110
 30
0.0
 10
238.751830
 20
737.723810
 30
0.0
 10
238.981980
 20
737.568310
 30
0.0
 10
239.201480
 20
737.405310
 30
0.0
  0
SPLINE
  5
31a
100
AcDbEntity
  8
Calque_1
 62
7
100
AcDbSpline
 70
8
 71
3
 72
8
 73
4
 74
0
 40
0
 40
0
 40
0
 40
0
 40
1
 40
1
 40
1
 40
1
 10
239.201480
 20
737.405310
 30
0.0
 10
239.371880
 20
737.278710
 30
0.0
 10
239.708320
 20
737.267010
 30
0.0
 10
239.735820
 20
737.058510
 30
0.0
  0
SPLINE
  5
31b
100
AcDbEntity
  8
Calque_1
 62
7
100
AcDbSpline
 70
8
 71
3
 72
8
 73
4
 74
0
 40
0
 40
0
 40
0
 40
0
 40
1
 40
1
 40
1
 40
1
 10
239.735820
 20
737.058510
 30
0.0
 10
239.812820
 20
736.472010
 30
0.0
 10
239.564170
 20
735.887410
 30
0.0
 10
239.478470
 20
735.302010
 30
0.0
  0
SPLINE
  5
31c
100
AcDbEntity
  8
Calque_1
 62
7
100
AcDbSpline
 70
8
 71
3
 72
8
 73
4
 74
0
 40
0
 40
0
 40
0
 40
0
 40
1
 40
1
 40
1
 40
1
 10
239.478470
 20
735.302010
 30
0.0
 10
240.415370
 20
734.680510
 30
0.0
 10
241.277450
 20
733.931810
 30
0.0
 10
242.289150
 20
733.437010
 30
0.0
  0
SPLINE
  5
31d
100
AcDbEntity
  8
Calque_1
 62
7
100
AcDbSpline
 70
8
 71
3
 72
8
 73
4
 74
0
 40
0
 40
0
 40
0
 40
0
 40
1
 40
1
 40
1
 40
1
 10
242.289150
 20
733.437010
 30
0.0
 10
242.725550
 20
733.223610
 30
0.0
 10
243.248440
 20
733.252310
 30
0.0
 10
243.734540
 20
733.221010
 30
0.0
  0
SPLINE
  5
31e
100
AcDbEntity
  8
Calque_1
 62
7
100
AcDbSpline
 70
8
 71
3
 72
8
 73
4
 74
0
 40
0
 40
0
 40
0
 40
0
 40
1
 40
1
 40
1
 40
1
 10
243.734540
 20
733.221010
 30
0.0
 10
246.165740
 20
733.064410
 30
0.0
 10
248.482710
 20
733.632910
 30
0.0
 10
250.820410
 20
734.196710
 30
0.0
  0
SPLINE
  5
31f
100
AcDbEntity
  8
Calque_1
 62
7
100
AcDbSpline
 70
8
 71
3
 72
8
 73
4
 74
0
 40
0
 40
0
 40
0
 40
0
 40
1
 40
1
 40
1
 40
1
 10
250.820410
 20
734.196710
 30
0.0
 10
253.151710
 20
734.758910
 30
0.0
 10
256.735160
 20
735.272910
 30
0.0
 10
258.401860
 20
737.188210
 30
0.0
  0
SPLINE
  5
320
100
AcDbEntity
  8
Calque_1
 62
7
100
AcDbSpline
 70
8
 71
3
 72
8
 73
4
 74
0
 40
0
 40
0
 40
0
 40
0
 40
1
 40
1
 40
1
 40
1
 10
258.401860
 20
737.188210
 30
0.0
 10
260.760660
 20
739.898910
 30
0.0
 10
260.767060
 20
743.804310
 30
0.0
 10
258.876770
 20
746.749410
 30
0.0
  0
SPLINE
  5
321
100
AcDbEntity
  8
Calque_1
 62
7
100
AcDbSpline
 70
8
 71
3
 72
8
 73
4
 74
0
 40
0
 40
0
 40
0
 40
0
 40
1
 40
1
 40
1
 40
1
 10
258.876770
 20
746.749410
 30
0.0
 10
258.050070
 20
748.037310
 30
0.0
 10
257.322090
 20
748.930110
 30
0.0
 10
256.026290
 20
749.698110
 30
0.0
  0
SPLINE
  5
322
100
AcDbEntity
  8
Calque_1
 62
7
100
AcDbSpline
 70
8
 71
3
 72
8
 73
4
 74
0
 40
0
 40
0
 40
0
 40
0
 40
1
 40
1
 40
1
 40
1
 10
256.026290
 20
749.698110
 30
0.0
 10
254.352700
 20
750.689910
 30
0.0
 10
252.465460
 20
750.856210
 30
0.0
 10
250.563060
 20
750.890210
 30
0.0
  0
SPLINE
  5
323
100
AcDbEntity
  8
Calque_1
 62
7
100
AcDbSpline
 70
8
 71
3
 72
8
 73
4
 74
0
 40
0
 40
0
 40
0
 40
0
 40
1
 40
1
 40
1
 40
1
 10
250.563060
 20
750.890210
 30
0.0
 10
250.437810
 20
750.892210
 30
0.0
 10
250.313030
 20
750.894210
 30
0.0
 10
250.188410
 20
750.894210
 30
0.0
  0
LWPOLYLINE
  5
324
100
AcDbEntity
  8
Calque_1
 62
7
100
AcDbPolyline
 90
2
 70
0
 10
237.177480
 20
740.773510
 30
0.0
 10
237.172480
 20
740.773510
 30
0.0
  0
SPLINE
  5
325
100
AcDbEntity
  8
Calque_1
 62
7
100
AcDbSpline
 70
8
 71
3
 72
8
 73
4
 74
0
 40
0
 40
0
 40
0
 40
0
 40
1
 40
1
 40
1
 40
1
 10
121.069320
 20
669.144310
 30
0.0
 10
120.551550
 20
669.145310
 30
0.0
 10
120.090920
 20
669.119310
 30
0.0
 10
119.754140
 20
669.050310
 30
0.0
  0
SPLINE
  5
326
100
AcDbEntity
  8
Calque_1
 62
7
100
AcDbSpline
 70
8
 71
3
 72
8
 73
4
 74
0
 40
0
 40
0
 40
0
 40
0
 40
1
 40
1
 40
1
 40
1
 10
119.754140
 20
669.050310
 30
0.0
 10
118.038440
 20
668.698810
 30
0.0
 10
116.310850
 20
667.942710
 30
0.0
 10
114.964250
 20
666.816810
 30
0.0
  0
SPLINE
  5
327
100
AcDbEntity
  8
Calque_1
 62
7
100
AcDbSpline
 70
8
 71
3
 72
8
 73
4
 74
0
 40
0
 40
0
 40
0
 40
0
 40
1
 40
1
 40
1
 40
1
 10
114.964250
 20
666.816810
 30
0.0
 10
113.197560
 20
665.339810
 30
0.0
 10
112.269940
 20
663.339210
 30
0.0
 10
111.915340
 20
661.114810
 30
0.0
  0
SPLINE
  5
328
100
AcDbEntity
  8
Calque_1
 62
7
100
AcDbSpline
 70
8
 71
3
 72
8
 73
4
 74
0
 40
0
 40
0
 40
0
 40
0
 40
1
 40
1
 40
1
 40
1
 10
111.915340
 20
661.114810
 30
0.0
 10
111.874340
 20
660.854610
 30
0.0
 10
111.847740
 20
660.595610
 30
0.0
 10
111.834740
 20
660.338110
 30
0.0
  0
LWPOLYLINE
  5
329
100
AcDbEntity
  8
Calque_1
 62
7
100
AcDbPolyline
 90
2
 70
0
 10
250.188410
 20
750.894210
 30
0.0
 10
250.188570
 20
750.894410
 30
0.0
  0
SPLINE
  5
32a
100
AcDbEntity
  8
Calque_1
 62
7
100
AcDbSpline
 70
8
 71
3
 72
8
 73
4
 74
0
 40
0
 40
0
 40
0
 40
0
 40
1
 40
1
 40
1
 40
1
 10
111.835260
 20
660.338110
 30
0.0
 10
111.643760
 20
656.476310
 30
0.0
 10
114.570790
 20
652.949310
 30
0.0
 10
117.279880
 20
650.513410
 30
0.0
  0
SPLINE
  5
32b
100
AcDbEntity
  8
Calque_1
 62
7
100
AcDbSpline
 70
8
 71
3
 72
8
 73
4
 74
0
 40
0
 40
0
 40
0
 40
0
 40
1
 40
1
 40
1
 40
1
 10
117.279880
 20
650.513410
 30
0.0
 10
120.477880
 20
647.638010
 30
0.0
 10
123.450070
 20
645.498010
 30
0.0
 10
127.790360
 20
644.746310
 30
0.0
  0
SPLINE
  5
32c
100
AcDbEntity
  8
Calque_1
 62
7
100
AcDbSpline
 70
8
 71
3
 72
8
 73
4
 74
0
 40
0
 40
0
 40
0
 40
0
 40
1
 40
1
 40
1
 40
1
 10
127.790360
 20
644.746310
 30
0.0
 10
129.885860
 20
644.383410
 30
0.0
 10
131.966820
 20
645.005110
 30
0.0
 10
133.966210
 20
645.548410
 30
0.0
  0
SPLINE
  5
32d
100
AcDbEntity
  8
Calque_1
 62
7
100
AcDbSpline
 70
8
 71
3
 72
8
 73
4
 74
0
 40
0
 40
0
 40
0
 40
0
 40
1
 40
1
 40
1
 40
1
 10
133.966210
 20
645.548410
 30
0.0
 10
135.769010
 20
646.038310
 30
0.0
 10
137.054960
 20
646.357010
 30
0.0
 10
138.677550
 20
647.131210
 30
0.0
  0
SPLINE
  5
32e
100
AcDbEntity
  8
Calque_1
 62
7
100
AcDbSpline
 70
8
 71
3
 72
8
 73
4
 74
0
 40
0
 40
0
 40
0
 40
0
 40
1
 40
1
 40
1
 40
1
 10
138.677550
 20
647.131210
 30
0.0
 10
141.184750
 20
648.327410
 30
0.0
 10
142.284510
 20
649.857210
 30
0.0
 10
143.645210
 20
652.116910
 30
0.0
  0
SPLINE
  5
32f
100
AcDbEntity
  8
Calque_1
 62
7
100
AcDbSpline
 70
8
 71
3
 72
8
 73
4
 74
0
 40
0
 40
0
 40
0
 40
0
 40
1
 40
1
 40
1
 40
1
 10
143.645210
 20
652.116910
 30
0.0
 10
144.082210
 20
652.842610
 30
0.0
 10
144.697990
 20
654.167410
 30
0.0
 10
144.436890
 20
655.044410
 30
0.0
  0
SPLINE
  5
330
100
AcDbEntity
  8
Calque_1
 62
7
100
AcDbSpline
 70
8
 71
3
 72
8
 73
4
 74
0
 40
0
 40
0
 40
0
 40
0
 40
1
 40
1
 40
1
 40
1
 10
144.436890
 20
655.044410
 30
0.0
 10
144.176090
 20
655.920510
 30
0.0
 10
143.022070
 20
656.285410
 30
0.0
 10
142.398770
 20
656.691910
 30
0.0
  0
SPLINE
  5
331
100
AcDbEntity
  8
Calque_1
 62
7
100
AcDbSpline
 70
8
 71
3
 72
8
 73
4
 74
0
 40
0
 40
0
 40
0
 40
0
 40
1
 40
1
 40
1
 40
1
 10
142.398770
 20
656.691910
 30
0.0
 10
142.128270
 20
657.689210
 30
0.0
 10
142.050850
 20
658.758210
 30
0.0
 10
141.587450
 20
659.683910
 30
0.0
  0
SPLINE
  5
332
100
AcDbEntity
  8
Calque_1
 62
7
100
AcDbSpline
 70
8
 71
3
 72
8
 73
4
 74
0
 40
0
 40
0
 40
0
 40
0
 40
1
 40
1
 40
1
 40
1
 10
141.587450
 20
659.683910
 30
0.0
 10
141.244450
 20
660.368810
 30
0.0
 10
140.580460
 20
660.846610
 30
0.0
 10
140.043360
 20
661.397010
 30
0.0
  0
SPLINE
  5
333
100
AcDbEntity
  8
Calque_1
 62
7
100
AcDbSpline
 70
8
 71
3
 72
8
 73
4
 74
0
 40
0
 40
0
 40
0
 40
0
 40
1
 40
1
 40
1
 40
1
 10
140.043360
 20
661.397010
 30
0.0
 10
137.845360
 20
663.649010
 30
0.0
 10
136.278240
 20
664.646410
 30
0.0
 10
133.412240
 20
666.145010
 30
0.0
  0
SPLINE
  5
334
100
AcDbEntity
  8
Calque_1
 62
7
100
AcDbSpline
 70
8
 71
3
 72
8
 73
4
 74
0
 40
0
 40
0
 40
0
 40
0
 40
1
 40
1
 40
1
 40
1
 10
133.412240
 20
666.145010
 30
0.0
 10
130.905250
 20
667.455810
 30
0.0
 10
128.287020
 20
668.346110
 30
0.0
 10
125.474230
 20
668.768110
 30
0.0
  0
SPLINE
  5
335
100
AcDbEntity
  8
Calque_1
 62
7
100
AcDbSpline
 70
8
 71
3
 72
8
 73
4
 74
0
 40
0
 40
0
 40
0
 40
0
 40
1
 40
1
 40
1
 40
1
 10
125.474230
 20
668.768110
 30
0.0
 10
124.690480
 20
668.885610
 30
0.0
 10
122.622590
 20
669.140510
 30
0.0
 10
121.069330
 20
669.144310
 30
0.0
  0
LWPOLYLINE
  5
336
100
AcDbEntity
  8
Calque_1
 62
7
100
AcDbPolyline
 90
2
 70
0
 10
111.834740
 20
660.338110
 30
0.0
 10
111.835260
 20
660.338110
 30
0.0
  0
SPLINE
  5
337
100
AcDbEntity
  8
Calque_1
 62
7
100
AcDbSpline
 70
8
 71
3
 72
8
 73
4
 74
0
 40
0
 40
0
 40
0
 40
0
 40
1
 40
1
 40
1
 40
1
 10
31.829802
 20
650.151210
 30
0.0
 10
29.989195
 20
650.146210
 30
0.0
 10
28.167942
 20
649.906610
 30
0.0
 10
26.439950
 20
649.237010
 30
0.0
  0
SPLINE
  5
338
100
AcDbEntity
  8
Calque_1
 62
7
100
AcDbSpline
 70
8
 71
3
 72
8
 73
4
 74
0
 40
0
 40
0
 40
0
 40
0
 40
1
 40
1
 40
1
 40
1
 10
26.439950
 20
649.237010
 30
0.0
 10
24.657852
 20
648.546410
 30
0.0
 10
23.617999
 20
647.998210
 30
0.0
 10
22.381800
 20
646.483210
 30
0.0
  0
SPLINE
  5
339
100
AcDbEntity
  8
Calque_1
 62
7
100
AcDbSpline
 70
8
 71
3
 72
8
 73
4
 74
0
 40
0
 40
0
 40
0
 40
0
 40
1
 40
1
 40
1
 40
1
 10
22.381800
 20
646.483210
 30
0.0
 10
21.822300
 20
645.797510
 30
0.0
 10
20.976718
 20
643.846110
 30
0.0
 10
20.976718
 20
642.927810
 30
0.0
  0
SPLINE
  5
33a
100
AcDbEntity
  8
Calque_1
 62
7
100
AcDbSpline
 70
8
 71
3
 72
8
 73
4
 74
0
 40
0
 40
0
 40
0
 40
0
 40
1
 40
1
 40
1
 40
1
 10
20.976718
 20
642.927810
 30
0.0
 10
20.976718
 20
640.381510
 30
0.0
 10
22.332295
 20
637.926710
 30
0.0
 10
24.024594
 20
636.098310
 30
0.0
  0
SPLINE
  5
33b
100
AcDbEntity
  8
Calque_1
 62
7
100
AcDbSpline
 70
8
 71
3
 72
8
 73
4
 74
0
 40
0
 40
0
 40
0
 40
0
 40
1
 40
1
 40
1
 40
1
 10
24.024594
 20
636.098310
 30
0.0
 10
24.894393
 20
635.158510
 30
0.0
 10
25.820239
 20
634.263110
 30
0.0
 10
26.815638
 20
633.453510
 30
0.0
  0
SPLINE
  5
33c
100
AcDbEntity
  8
Calque_1
 62
7
100
AcDbSpline
 70
8
 71
3
 72
8
 73
4
 74
0
 40
0
 40
0
 40
0
 40
0
 40
1
 40
1
 40
1
 40
1
 10
26.815638
 20
633.453510
 30
0.0
 10
30.595634
 20
630.378810
 30
0.0
 10
36.629918
 20
628.344410
 30
0.0
 10
41.503113
 20
628.466710
 30
0.0
  0
SPLINE
  5
33d
100
AcDbEntity
  8
Calque_1
 62
7
100
AcDbSpline
 70
8
 71
3
 72
8
 73
4
 74
0
 40
0
 40
0
 40
0
 40
0
 40
1
 40
1
 40
1
 40
1
 10
41.503113
 20
628.466710
 30
0.0
 10
43.204212
 20
628.509710
 30
0.0
 10
45.300191
 20
628.895610
 30
0.0
 10
46.847490
 20
629.550910
 30
0.0
  0
SPLINE
  5
33e
100
AcDbEntity
  8
Calque_1
 62
7
100
AcDbSpline
 70
8
 71
3
 72
8
 73
4
 74
0
 40
0
 40
0
 40
0
 40
0
 40
1
 40
1
 40
1
 40
1
 10
46.847490
 20
629.550910
 30
0.0
 10
49.614187
 20
630.722610
 30
0.0
 10
52.009597
 20
635.139110
 30
0.0
 10
52.349996
 20
637.984010
 30
0.0
  0
SPLINE
  5
33f
100
AcDbEntity
  8
Calque_1
 62
7
100
AcDbSpline
 70
8
 71
3
 72
8
 73
4
 74
0
 40
0
 40
0
 40
0
 40
0
 40
1
 40
1
 40
1
 40
1
 10
52.349996
 20
637.984010
 30
0.0
 10
52.488896
 20
639.145110
 30
0.0
 10
52.498196
 20
640.437210
 30
0.0
 10
51.736597
 20
641.410110
 30
0.0
  0
LWPOLYLINE
  5
340
100
AcDbEntity
  8
Calque_1
 62
7
100
AcDbPolyline
 90
1
 70
1
 10
121.069330
 20
669.144310
 30
0.0
  0
SPLINE
  5
341
100
AcDbEntity
  8
Calque_1
 62
7
100
AcDbSpline
 70
8
 71
3
 72
8
 73
4
 74
0
 40
0
 40
0
 40
0
 40
0
 40
1
 40
1
 40
1
 40
1
 10
51.300965
 20
643.816710
 30
0.0
 10
50.594966
 20
644.575510
 30
0.0
 10
50.003264
 20
645.455310
 30
0.0
 10
49.183265
 20
646.093010
 30
0.0
  0
SPLINE
  5
342
100
AcDbEntity
  8
Calque_1
 62
7
100
AcDbSpline
 70
8
 71
3
 72
8
 73
4
 74
0
 40
0
 40
0
 40
0
 40
0
 40
1
 40
1
 40
1
 40
1
 10
49.183265
 20
646.093010
 30
0.0
 10
47.457566
 20
647.434910
 30
0.0
 10
43.901597
 20
648.420210
 30
0.0
 10
41.780099
 20
648.889810
 30
0.0
  0
SPLINE
  5
343
100
AcDbEntity
  8
Calque_1
 62
7
100
AcDbSpline
 70
8
 71
3
 72
8
 73
4
 74
0
 40
0
 40
0
 40
0
 40
0
 40
1
 40
1
 40
1
 40
1
 10
41.780099
 20
648.889810
 30
0.0
 10
40.818300
 20
649.102810
 30
0.0
 10
39.843298
 20
649.254810
 30
0.0
 10
38.870199
 20
649.410110
 30
0.0
  0
SPLINE
  5
344
100
AcDbEntity
  8
Calque_1
 62
7
100
AcDbSpline
 70
8
 71
3
 72
8
 73
4
 74
0
 40
0
 40
0
 40
0
 40
0
 40
1
 40
1
 40
1
 40
1
 10
38.870199
 20
649.410110
 30
0.0
 10
36.595001
 20
649.773310
 30
0.0
 10
34.196297
 20
650.157010
 30
0.0
 10
31.829802
 20
650.151210
 30
0.0
  0
LWPOLYLINE
  5
345
100
AcDbEntity
  8
Calque_1
 62
7
100
AcDbPolyline
 90
2
 70
0
 10
51.736597
 20
641.410110
 30
0.0
 10
51.300965
 20
643.816710
 30
0.0
  0
SPLINE
  5
346
100
AcDbEntity
  8
Calque_1
 62
7
100
AcDbSpline
 70
8
 71
3
 72
8
 73
4
 74
0
 40
0
 40
0
 40
0
 40
0
 40
1
 40
1
 40
1
 40
1
 10
68.938128
 20
642.690610
 30
0.0
 10
67.429448
 20
642.668510
 30
0.0
 10
65.837828
 20
642.417410
 30
0.0
 10
64.095018
 20
641.931510
 30
0.0
  0
SPLINE
  5
347
100
AcDbEntity
  8
Calque_1
 62
7
100
AcDbSpline
 70
8
 71
3
 72
8
 73
4
 74
0
 40
0
 40
0
 40
0
 40
0
 40
1
 40
1
 40
1
 40
1
 10
64.095018
 20
641.931510
 30
0.0
 10
60.355320
 20
640.888910
 30
0.0
 10
53.905383
 20
636.868410
 30
0.0
 10
53.693584
 20
632.390510
 30
0.0
  0
SPLINE
  5
348
100
AcDbEntity
  8
Calque_1
 62
7
100
AcDbSpline
 70
8
 71
3
 72
8
 73
4
 74
0
 40
0
 40
0
 40
0
 40
0
 40
1
 40
1
 40
1
 40
1
 10
53.693584
 20
632.390510
 30
0.0
 10
53.644584
 20
631.357110
 30
0.0
 10
53.928232
 20
630.299710
 30
0.0
 10
54.653732
 20
629.248610
 30
0.0
  0
SPLINE
  5
349
100
AcDbEntity
  8
Calque_1
 62
7
100
AcDbSpline
 70
8
 71
3
 72
8
 73
4
 74
0
 40
0
 40
0
 40
0
 40
0
 40
1
 40
1
 40
1
 40
1
 10
54.653732
 20
629.248610
 30
0.0
 10
57.278429
 20
625.446410
 30
0.0
 10
63.045678
 20
625.541810
 30
0.0
 10
67.123768
 20
625.432810
 30
0.0
  0
SPLINE
  5
34a
100
AcDbEntity
  8
Calque_1
 62
7
100
AcDbSpline
 70
8
 71
3
 72
8
 73
4
 74
0
 40
0
 40
0
 40
0
 40
0
 40
1
 40
1
 40
1
 40
1
 10
67.123768
 20
625.432810
 30
0.0
 10
68.543668
 20
625.394810
 30
0.0
 10
70.428788
 20
625.374410
 30
0.0
 10
71.874388
 20
625.389410
 30
0.0
  0
SPLINE
  5
34b
100
AcDbEntity
  8
Calque_1
 62
7
100
AcDbSpline
 70
8
 71
3
 72
8
 73
4
 74
0
 40
0
 40
0
 40
0
 40
0
 40
1
 40
1
 40
1
 40
1
 10
71.874388
 20
625.389410
 30
0.0
 10
72.547488
 20
625.399410
 30
0.0
 10
73.224888
 20
625.354810
 30
0.0
 10
73.893388
 20
625.432810
 30
0.0
  0
SPLINE
  5
34c
100
AcDbEntity
  8
Calque_1
 62
7
100
AcDbSpline
 70
8
 71
3
 72
8
 73
4
 74
0
 40
0
 40
0
 40
0
 40
0
 40
1
 40
1
 40
1
 40
1
 10
73.893388
 20
625.432810
 30
0.0
 10
75.905778
 20
625.668210
 30
0.0
 10
77.871018
 20
626.537610
 30
0.0
 10
79.732818
 20
627.188810
 30
0.0
  0
SPLINE
  5
34d
100
AcDbEntity
  8
Calque_1
 62
7
100
AcDbSpline
 70
8
 71
3
 72
8
 73
4
 74
0
 40
0
 40
0
 40
0
 40
0
 40
1
 40
1
 40
1
 40
1
 10
79.732818
 20
627.188810
 30
0.0
 10
80.537818
 20
627.969310
 30
0.0
 10
81.395158
 20
628.700410
 30
0.0
 10
82.147658
 20
629.530210
 30
0.0
  0
SPLINE
  5
34e
100
AcDbEntity
  8
Calque_1
 62
7
100
AcDbSpline
 70
8
 71
3
 72
8
 73
4
 74
0
 40
0
 40
0
 40
0
 40
0
 40
1
 40
1
 40
1
 40
1
 10
82.147658
 20
629.530210
 30
0.0
 10
82.672358
 20
630.108910
 30
0.0
 10
83.198568
 20
631.752410
 30
0.0
 10
83.316068
 20
632.456610
 30
0.0
  0
SPLINE
  5
34f
100
AcDbEntity
  8
Calque_1
 62
7
100
AcDbSpline
 70
8
 71
3
 72
8
 73
4
 74
0
 40
0
 40
0
 40
0
 40
0
 40
1
 40
1
 40
1
 40
1
 10
83.316068
 20
632.456610
 30
0.0
 10
83.721668
 20
634.888310
 30
0.0
 10
82.077358
 20
636.987910
 30
0.0
 10
80.227368
 20
638.375710
 30
0.0
  0
SPLINE
  5
350
100
AcDbEntity
  8
Calque_1
 62
7
100
AcDbSpline
 70
8
 71
3
 72
8
 73
4
 74
0
 40
0
 40
0
 40
0
 40
0
 40
1
 40
1
 40
1
 40
1
 10
80.227368
 20
638.375710
 30
0.0
 10
79.651768
 20
638.807510
 30
0.0
 10
79.029928
 20
639.176210
 30
0.0
 10
78.425928
 20
639.568410
 30
0.0
  0
SPLINE
  5
351
100
AcDbEntity
  8
Calque_1
 62
7
100
AcDbSpline
 70
8
 71
3
 72
8
 73
4
 74
0
 40
0
 40
0
 40
0
 40
0
 40
1
 40
1
 40
1
 40
1
 10
78.425928
 20
639.568410
 30
0.0
 10
75.175838
 20
641.679410
 30
0.0
 10
72.257238
 20
642.739410
 30
0.0
 10
68.938128
 20
642.690610
 30
0.0
  0
LWPOLYLINE
  5
352
100
AcDbEntity
  8
Calque_1
 62
7
100
AcDbPolyline
 90
1
 70
1
 10
31.829802
 20
650.151210
 30
0.0
  0
SPLINE
  5
353
100
AcDbEntity
  8
Calque_1
 62
7
100
AcDbSpline
 70
8
 71
3
 72
8
 73
4
 74
0
 40
0
 40
0
 40
0
 40
0
 40
1
 40
1
 40
1
 40
1
 10
223.946240
 20
632.575510
 30
0.0
 10
223.538110
 20
632.575110
 30
0.0
 10
223.127930
 20
632.556610
 30
0.0
 10
222.719960
 20
632.523310
 30
0.0
  0
SPLINE
  5
354
100
AcDbEntity
  8
Calque_1
 62
7
100
AcDbSpline
 70
8
 71
3
 72
8
 73
4
 74
0
 40
0
 40
0
 40
0
 40
0
 40
1
 40
1
 40
1
 40
1
 10
222.719960
 20
632.523310
 30
0.0
 10
221.814160
 20
632.449310
 30
0.0
 10
220.902900
 20
632.401010
 30
0.0
 10
220.008500
 20
632.241210
 30
0.0
  0
SPLINE
  5
355
100
AcDbEntity
  8
Calque_1
 62
7
100
AcDbSpline
 70
8
 71
3
 72
8
 73
4
 74
0
 40
0
 40
0
 40
0
 40
0
 40
1
 40
1
 40
1
 40
1
 10
220.008500
 20
632.241210
 30
0.0
 10
217.083800
 20
631.718710
 30
0.0
 10
214.268340
 20
629.807610
 30
0.0
 10
212.466840
 20
627.515310
 30
0.0
  0
SPLINE
  5
356
100
AcDbEntity
  8
Calque_1
 62
7
100
AcDbSpline
 70
8
 71
3
 72
8
 73
4
 74
0
 40
0
 40
0
 40
0
 40
0
 40
1
 40
1
 40
1
 40
1
 10
212.466840
 20
627.515310
 30
0.0
 10
211.239740
 20
625.953910
 30
0.0
 10
210.554420
 20
624.106610
 30
0.0
 10
210.607520
 20
622.180810
 30
0.0
  0
SPLINE
  5
357
100
AcDbEntity
  8
Calque_1
 62
7
100
AcDbSpline
 70
8
 71
3
 72
8
 73
4
 74
0
 40
0
 40
0
 40
0
 40
0
 40
1
 40
1
 40
1
 40
1
 10
210.607520
 20
622.180810
 30
0.0
 10
210.619520
 20
621.736310
 30
0.0
 10
210.671520
 20
621.288010
 30
0.0
 10
210.764620
 20
620.837710
 30
0.0
  0
SPLINE
  5
358
100
AcDbEntity
  8
Calque_1
 62
7
100
AcDbSpline
 70
8
 71
3
 72
8
 73
4
 74
0
 40
0
 40
0
 40
0
 40
0
 40
1
 40
1
 40
1
 40
1
 10
210.764620
 20
620.837710
 30
0.0
 10
210.899520
 20
620.186810
 30
0.0
 10
211.077510
 20
619.525010
 30
0.0
 10
211.417810
 20
618.951510
 30
0.0
  0
SPLINE
  5
359
100
AcDbEntity
  8
Calque_1
 62
7
100
AcDbSpline
 70
8
 71
3
 72
8
 73
4
 74
0
 40
0
 40
0
 40
0
 40
0
 40
1
 40
1
 40
1
 40
1
 10
211.417810
 20
618.951510
 30
0.0
 10
212.764710
 20
616.682010
 30
0.0
 10
215.984240
 20
614.616210
 30
0.0
 10
218.622540
 20
614.203510
 30
0.0
  0
SPLINE
  5
35a
100
AcDbEntity
  8
Calque_1
 62
7
100
AcDbSpline
 70
8
 71
3
 72
8
 73
4
 74
0
 40
0
 40
0
 40
0
 40
0
 40
1
 40
1
 40
1
 40
1
 10
218.622540
 20
614.203510
 30
0.0
 10
222.926930
 20
613.530010
 30
0.0
 10
226.031090
 20
616.229510
 30
0.0
 10
229.311290
 20
618.517410
 30
0.0
  0
LWPOLYLINE
  5
35b
100
AcDbEntity
  8
Calque_1
 62
7
100
AcDbPolyline
 90
1
 70
1
 10
68.938128
 20
642.690610
 30
0.0
  0
SPLINE
  5
35c
100
AcDbEntity
  8
Calque_1
 62
7
100
AcDbSpline
 70
8
 71
3
 72
8
 73
4
 74
0
 40
0
 40
0
 40
0
 40
0
 40
1
 40
1
 40
1
 40
1
 10
228.618820
 20
620.533910
 30
0.0
 10
229.320520
 20
620.661910
 30
0.0
 10
229.473840
 20
621.105910
 30
0.0
 10
229.846140
 20
621.704810
 30
0.0
  0
SPLINE
  5
35d
100
AcDbEntity
  8
Calque_1
 62
7
100
AcDbSpline
 70
8
 71
3
 72
8
 73
4
 74
0
 40
0
 40
0
 40
0
 40
0
 40
1
 40
1
 40
1
 40
1
 10
229.846140
 20
621.704810
 30
0.0
 10
230.202640
 20
622.278310
 30
0.0
 10
230.872370
 20
623.304710
 30
0.0
 10
231.132370
 20
623.981210
 30
0.0
  0
SPLINE
  5
35e
100
AcDbEntity
  8
Calque_1
 62
7
100
AcDbSpline
 70
8
 71
3
 72
8
 73
4
 74
0
 40
0
 40
0
 40
0
 40
0
 40
1
 40
1
 40
1
 40
1
 10
231.132370
 20
623.981210
 30
0.0
 10
231.948370
 20
626.103910
 30
0.0
 10
231.342740
 20
628.635510
 30
0.0
 10
229.846140
 20
630.311610
 30
0.0
  0
SPLINE
  5
35f
100
AcDbEntity
  8
Calque_1
 62
7
100
AcDbSpline
 70
8
 71
3
 72
8
 73
4
 74
0
 40
0
 40
0
 40
0
 40
0
 40
1
 40
1
 40
1
 40
1
 10
229.846140
 20
630.311610
 30
0.0
 10
228.304020
 20
632.038610
 30
0.0
 10
226.150150
 20
632.577410
 30
0.0
 10
223.946240
 20
632.575510
 30
0.0
  0
LWPOLYLINE
  5
360
100
AcDbEntity
  8
Calque_1
 62
7
100
AcDbPolyline
 90
2
 70
0
 10
229.311290
 20
618.517410
 30
0.0
 10
228.618820
 20
620.533910
 30
0.0
  0
SPLINE
  5
361
100
AcDbEntity
  8
Calque_1
 62
7
100
AcDbSpline
 70
8
 71
3
 72
8
 73
4
 74
0
 40
0
 40
0
 40
0
 40
0
 40
1
 40
1
 40
1
 40
1
 10
246.894710
 20
630.518810
 30
0.0
 10
245.085610
 20
630.508810
 30
0.0
 10
243.304190
 20
630.121610
 30
0.0
 10
241.684690
 20
629.204610
 30
0.0
  0
SPLINE
  5
362
100
AcDbEntity
  8
Calque_1
 62
7
100
AcDbSpline
 70
8
 71
3
 72
8
 73
4
 74
0
 40
0
 40
0
 40
0
 40
0
 40
1
 40
1
 40
1
 40
1
 10
241.684690
 20
629.204610
 30
0.0
 10
241.286290
 20
628.979010
 30
0.0
 10
240.936400
 20
628.678710
 30
0.0
 10
240.556600
 20
628.423810
 30
0.0
  0
SPLINE
  5
363
100
AcDbEntity
  8
Calque_1
 62
7
100
AcDbSpline
 70
8
 71
3
 72
8
 73
4
 74
0
 40
0
 40
0
 40
0
 40
0
 40
1
 40
1
 40
1
 40
1
 10
240.556600
 20
628.423810
 30
0.0
 10
240.322700
 20
628.266710
 30
0.0
 10
240.067180
 20
628.140010
 30
0.0
 10
239.843980
 20
627.968510
 30
0.0
  0
SPLINE
  5
364
100
AcDbEntity
  8
Calque_1
 62
7
100
AcDbSpline
 70
8
 71
3
 72
8
 73
4
 74
0
 40
0
 40
0
 40
0
 40
0
 40
1
 40
1
 40
1
 40
1
 10
239.843980
 20
627.968510
 30
0.0
 10
239.164380
 20
627.446410
 30
0.0
 10
238.478470
 20
626.720410
 30
0.0
 10
237.963470
 20
626.038910
 30
0.0
  0
SPLINE
  5
365
100
AcDbEntity
  8
Calque_1
 62
7
100
AcDbSpline
 70
8
 71
3
 72
8
 73
4
 74
0
 40
0
 40
0
 40
0
 40
0
 40
1
 40
1
 40
1
 40
1
 10
237.963470
 20
626.038910
 30
0.0
 10
237.886470
 20
625.937510
 30
0.0
 10
237.831550
 20
625.822310
 30
0.0
 10
237.765550
 20
625.713910
 30
0.0
  0
SPLINE
  5
366
100
AcDbEntity
  8
Calque_1
 62
7
100
AcDbSpline
 70
8
 71
3
 72
8
 73
4
 74
0
 40
0
 40
0
 40
0
 40
0
 40
1
 40
1
 40
1
 40
1
 10
237.765550
 20
625.713910
 30
0.0
 10
237.692550
 20
625.562110
 30
0.0
 10
237.648180
 20
625.394010
 30
0.0
 10
237.547480
 20
625.258610
 30
0.0
  0
SPLINE
  5
367
100
AcDbEntity
  8
Calque_1
 62
7
100
AcDbSpline
 70
8
 71
3
 72
8
 73
4
 74
0
 40
0
 40
0
 40
0
 40
0
 40
1
 40
1
 40
1
 40
1
 10
237.547480
 20
625.258610
 30
0.0
 10
237.497480
 20
625.190610
 30
0.0
 10
237.034580
 20
624.848410
 30
0.0
 10
236.934080
 20
624.738310
 30
0.0
  0
SPLINE
  5
368
100
AcDbEntity
  8
Calque_1
 62
7
100
AcDbSpline
 70
8
 71
3
 72
8
 73
4
 74
0
 40
0
 40
0
 40
0
 40
0
 40
1
 40
1
 40
1
 40
1
 10
236.934080
 20
624.738310
 30
0.0
 10
236.578480
 20
624.348810
 30
0.0
 10
236.340910
 20
623.762710
 30
0.0
 10
235.865410
 20
623.502210
 30
0.0
  0
SPLINE
  5
369
100
AcDbEntity
  8
Calque_1
 62
7
100
AcDbSpline
 70
8
 71
3
 72
8
 73
4
 74
0
 40
0
 40
0
 40
0
 40
0
 40
1
 40
1
 40
1
 40
1
 10
235.865410
 20
623.502210
 30
0.0
 10
235.319310
 20
623.203110
 30
0.0
 10
234.637380
 20
623.731310
 30
0.0
 10
234.024180
 20
623.849410
 30
0.0
  0
SPLINE
  5
36a
100
AcDbEntity
  8
Calque_1
 62
7
100
AcDbSpline
 70
8
 71
3
 72
8
 73
4
 74
0
 40
0
 40
0
 40
0
 40
0
 40
1
 40
1
 40
1
 40
1
 10
234.024180
 20
623.849410
 30
0.0
 10
235.114480
 20
621.750910
 30
0.0
 10
236.233110
 20
619.620910
 30
0.0
 10
238.121600
 20
618.104010
 30
0.0
  0
SPLINE
  5
36b
100
AcDbEntity
  8
Calque_1
 62
7
100
AcDbSpline
 70
8
 71
3
 72
8
 73
4
 74
0
 40
0
 40
0
 40
0
 40
0
 40
1
 40
1
 40
1
 40
1
 10
238.121600
 20
618.104010
 30
0.0
 10
239.340500
 20
617.125010
 30
0.0
 10
240.349430
 20
616.707710
 30
0.0
 10
241.842820
 20
616.087610
 30
0.0
  0
SPLINE
  5
36c
100
AcDbEntity
  8
Calque_1
 62
7
100
AcDbSpline
 70
8
 71
3
 72
8
 73
4
 74
0
 40
0
 40
0
 40
0
 40
0
 40
1
 40
1
 40
1
 40
1
 10
241.842820
 20
616.087610
 30
0.0
 10
242.465220
 20
615.829110
 30
0.0
 10
243.088280
 20
615.555810
 30
0.0
 10
243.743480
 20
615.394110
 30
0.0
  0
SPLINE
  5
36d
100
AcDbEntity
  8
Calque_1
 62
7
100
AcDbSpline
 70
8
 71
3
 72
8
 73
4
 74
0
 40
0
 40
0
 40
0
 40
0
 40
1
 40
1
 40
1
 40
1
 10
243.743480
 20
615.394110
 30
0.0
 10
245.147980
 20
615.047410
 30
0.0
 10
248.111050
 20
614.861610
 30
0.0
 10
249.364850
 20
614.852010
 30
0.0
  0
SPLINE
  5
36e
100
AcDbEntity
  8
Calque_1
 62
7
100
AcDbSpline
 70
8
 71
3
 72
8
 73
4
 74
0
 40
0
 40
0
 40
0
 40
0
 40
1
 40
1
 40
1
 40
1
 10
249.364850
 20
614.852010
 30
0.0
 10
250.569440
 20
614.842010
 30
0.0
 10
252.513170
 20
615.018810
 30
0.0
 10
253.699460
 20
615.415810
 30
0.0
  0
SPLINE
  5
36f
100
AcDbEntity
  8
Calque_1
 62
7
100
AcDbSpline
 70
8
 71
3
 72
8
 73
4
 74
0
 40
0
 40
0
 40
0
 40
0
 40
1
 40
1
 40
1
 40
1
 10
253.699460
 20
615.415810
 30
0.0
 10
255.034560
 20
615.862610
 30
0.0
 10
256.291510
 20
616.564510
 30
0.0
 10
257.480110
 20
617.302010
 30
0.0
  0
SPLINE
  5
370
100
AcDbEntity
  8
Calque_1
 62
7
100
AcDbSpline
 70
8
 71
3
 72
8
 73
4
 74
0
 40
0
 40
0
 40
0
 40
0
 40
1
 40
1
 40
1
 40
1
 10
257.480110
 20
617.302010
 30
0.0
 10
258.539210
 20
617.959110
 30
0.0
 10
259.285200
 20
618.408610
 30
0.0
 10
260.053600
 20
619.426410
 30
0.0
  0
SPLINE
  5
371
100
AcDbEntity
  8
Calque_1
 62
7
100
AcDbSpline
 70
8
 71
3
 72
8
 73
4
 74
0
 40
0
 40
0
 40
0
 40
0
 40
1
 40
1
 40
1
 40
1
 10
260.053600
 20
619.426410
 30
0.0
 10
262.700700
 20
622.932510
 30
0.0
 10
256.756960
 20
627.934910
 30
0.0
 10
253.976970
 20
629.139510
 30
0.0
  0
SPLINE
  5
372
100
AcDbEntity
  8
Calque_1
 62
7
100
AcDbSpline
 70
8
 71
3
 72
8
 73
4
 74
0
 40
0
 40
0
 40
0
 40
0
 40
1
 40
1
 40
1
 40
1
 10
253.976970
 20
629.139510
 30
0.0
 10
253.284570
 20
629.439610
 30
0.0
 10
250.344650
 20
630.129310
 30
0.0
 10
249.741050
 20
630.244910
 30
0.0
  0
SPLINE
  5
373
100
AcDbEntity
  8
Calque_1
 62
7
100
AcDbSpline
 70
8
 71
3
 72
8
 73
4
 74
0
 40
0
 40
0
 40
0
 40
0
 40
1
 40
1
 40
1
 40
1
 10
249.741050
 20
630.244910
 30
0.0
 10
248.797530
 20
630.425510
 30
0.0
 10
247.842340
 20
630.523910
 30
0.0
 10
246.894710
 20
630.518810
 30
0.0
  0
LWPOLYLINE
  5
374
100
AcDbEntity
  8
Calque_1
 62
7
100
AcDbPolyline
 90
1
 70
1
 10
223.946240
 20
632.575510
 30
0.0
  0
SPLINE
  5
375
100
AcDbEntity
  8
Calque_1
 62
7
100
AcDbSpline
 70
8
 71
3
 72
8
 73
4
 74
0
 40
0
 40
0
 40
0
 40
0
 40
1
 40
1
 40
1
 40
1
 10
58.658655
 20
614.176610
 30
0.0
 10
58.534030
 20
614.176410
 30
0.0
 10
58.408737
 20
614.175610
 30
0.0
 10
58.283484
 20
614.172610
 30
0.0
  0
SPLINE
  5
376
100
AcDbEntity
  8
Calque_1
 62
7
100
AcDbSpline
 70
8
 71
3
 72
8
 73
4
 74
0
 40
0
 40
0
 40
0
 40
0
 40
1
 40
1
 40
1
 40
1
 10
58.283484
 20
614.172610
 30
0.0
 10
56.381086
 20
614.138610
 30
0.0
 10
54.494367
 20
613.972310
 30
0.0
 10
52.820769
 20
612.980410
 30
0.0
  0
SPLINE
  5
377
100
AcDbEntity
  8
Calque_1
 62
7
100
AcDbSpline
 70
8
 71
3
 72
8
 73
4
 74
0
 40
0
 40
0
 40
0
 40
0
 40
1
 40
1
 40
1
 40
1
 10
52.820769
 20
612.980410
 30
0.0
 10
51.524970
 20
612.212410
 30
0.0
 10
50.796896
 20
611.319210
 30
0.0
 10
49.970297
 20
610.031310
 30
0.0
  0
SPLINE
  5
378
100
AcDbEntity
  8
Calque_1
 62
7
100
AcDbSpline
 70
8
 71
3
 72
8
 73
4
 74
0
 40
0
 40
0
 40
0
 40
0
 40
1
 40
1
 40
1
 40
1
 10
49.970297
 20
610.031310
 30
0.0
 10
49.025098
 20
608.558810
 30
0.0
 10
48.554107
 20
606.846610
 30
0.0
 10
48.614307
 20
605.163310
 30
0.0
  0
SPLINE
  5
379
100
AcDbEntity
  8
Calque_1
 62
7
100
AcDbSpline
 70
8
 71
3
 72
8
 73
4
 74
0
 40
0
 40
0
 40
0
 40
0
 40
1
 40
1
 40
1
 40
1
 10
48.614307
 20
605.163310
 30
0.0
 10
48.674307
 20
603.480010
 30
0.0
 10
49.265804
 20
601.825910
 30
0.0
 10
50.445203
 20
600.470610
 30
0.0
  0
SPLINE
  5
37a
100
AcDbEntity
  8
Calque_1
 62
7
100
AcDbSpline
 70
8
 71
3
 72
8
 73
4
 74
0
 40
0
 40
0
 40
0
 40
0
 40
1
 40
1
 40
1
 40
1
 10
50.445203
 20
600.470610
 30
0.0
 10
52.111901
 20
598.555210
 30
0.0
 10
55.695255
 20
598.041410
 30
0.0
 10
58.026652
 20
597.479110
 30
0.0
  0
SPLINE
  5
37b
100
AcDbEntity
  8
Calque_1
 62
7
100
AcDbSpline
 70
8
 71
3
 72
8
 73
4
 74
0
 40
0
 40
0
 40
0
 40
0
 40
1
 40
1
 40
1
 40
1
 10
58.026652
 20
597.479110
 30
0.0
 10
60.364350
 20
596.915310
 30
0.0
 10
62.681427
 20
596.346810
 30
0.0
 10
65.112528
 20
596.503410
 30
0.0
  0
SPLINE
  5
37c
100
AcDbEntity
  8
Calque_1
 62
7
100
AcDbSpline
 70
8
 71
3
 72
8
 73
4
 74
0
 40
0
 40
0
 40
0
 40
0
 40
1
 40
1
 40
1
 40
1
 10
65.112528
 20
596.503410
 30
0.0
 10
65.598728
 20
596.534410
 30
0.0
 10
66.121518
 20
596.503410
 30
0.0
 10
66.557918
 20
596.719910
 30
0.0
  0
SPLINE
  5
37d
100
AcDbEntity
  8
Calque_1
 62
7
100
AcDbSpline
 70
8
 71
3
 72
8
 73
4
 74
0
 40
0
 40
0
 40
0
 40
0
 40
1
 40
1
 40
1
 40
1
 10
66.557918
 20
596.719910
 30
0.0
 10
67.569618
 20
597.214710
 30
0.0
 10
68.431698
 20
597.962910
 30
0.0
 10
69.368598
 20
598.584410
 30
0.0
  0
SPLINE
  5
37e
100
AcDbEntity
  8
Calque_1
 62
7
100
AcDbSpline
 70
8
 71
3
 72
8
 73
4
 74
0
 40
0
 40
0
 40
0
 40
0
 40
1
 40
1
 40
1
 40
1
 10
69.368598
 20
598.584410
 30
0.0
 10
69.282598
 20
599.169710
 30
0.0
 10
69.033948
 20
599.754410
 30
0.0
 10
69.111248
 20
600.340910
 30
0.0
  0
SPLINE
  5
37f
100
AcDbEntity
  8
Calque_1
 62
7
100
AcDbSpline
 70
8
 71
3
 72
8
 73
4
 74
0
 40
0
 40
0
 40
0
 40
0
 40
1
 40
1
 40
1
 40
1
 10
69.111248
 20
600.340910
 30
0.0
 10
69.138248
 20
600.549410
 30
0.0
 10
69.475178
 20
600.561110
 30
0.0
 10
69.645578
 20
600.687610
 30
0.0
  0
SPLINE
  5
380
100
AcDbEntity
  8
Calque_1
 62
7
100
AcDbSpline
 70
8
 71
3
 72
8
 73
4
 74
0
 40
0
 40
0
 40
0
 40
0
 40
1
 40
1
 40
1
 40
1
 10
69.645578
 20
600.687610
 30
0.0
 10
69.865078
 20
600.850710
 30
0.0
 10
70.095338
 20
601.006610
 30
0.0
 10
70.279138
 20
601.208010
 30
0.0
  0
SPLINE
  5
381
100
AcDbEntity
  8
Calque_1
 62
7
100
AcDbSpline
 70
8
 71
3
 72
8
 73
4
 74
0
 40
0
 40
0
 40
0
 40
0
 40
1
 40
1
 40
1
 40
1
 10
70.279138
 20
601.208010
 30
0.0
 10
70.762138
 20
601.737010
 30
0.0
 10
71.555978
 20
603.149810
 30
0.0
 10
71.664578
 20
603.852810
 30
0.0
  0
SPLINE
  5
382
100
AcDbEntity
  8
Calque_1
 62
7
100
AcDbSpline
 70
8
 71
3
 72
8
 73
4
 74
0
 40
0
 40
0
 40
0
 40
0
 40
1
 40
1
 40
1
 40
1
 10
71.664578
 20
603.852810
 30
0.0
 10
71.725578
 20
604.249210
 30
0.0
 10
71.384478
 20
605.915110
 30
0.0
 10
71.288378
 20
606.346210
 30
0.0
  0
SPLINE
  5
383
100
AcDbEntity
  8
Calque_1
 62
7
100
AcDbSpline
 70
8
 71
3
 72
8
 73
4
 74
0
 40
0
 40
0
 40
0
 40
0
 40
1
 40
1
 40
1
 40
1
 10
71.288378
 20
606.346210
 30
0.0
 10
71.178578
 20
606.838410
 30
0.0
 10
70.759898
 20
608.315510
 30
0.0
 10
70.595398
 20
608.666010
 30
0.0
  0
SPLINE
  5
384
100
AcDbEntity
  8
Calque_1
 62
7
100
AcDbSpline
 70
8
 71
3
 72
8
 73
4
 74
0
 40
0
 40
0
 40
0
 40
0
 40
1
 40
1
 40
1
 40
1
 10
70.595398
 20
608.666010
 30
0.0
 10
70.270398
 20
609.358510
 30
0.0
 10
69.545088
 20
610.122810
 30
0.0
 10
68.992388
 20
610.616810
 30
0.0
  0
SPLINE
  5
385
100
AcDbEntity
  8
Calque_1
 62
7
100
AcDbSpline
 70
8
 71
3
 72
8
 73
4
 74
0
 40
0
 40
0
 40
0
 40
0
 40
1
 40
1
 40
1
 40
1
 10
68.992388
 20
610.616810
 30
0.0
 10
66.077908
 20
613.221610
 30
0.0
 10
62.522029
 20
614.183810
 30
0.0
 10
58.658655
 20
614.176210
 30
0.0
  0
LWPOLYLINE
  5
386
100
AcDbEntity
  8
Calque_1
 62
7
100
AcDbPolyline
 90
1
 70
1
 10
246.894710
 20
630.518810
 30
0.0
  0
SPLINE
  5
387
100
AcDbEntity
  8
Calque_1
 62
7
100
AcDbSpline
 70
8
 71
3
 72
8
 73
4
 74
0
 40
0
 40
0
 40
0
 40
0
 40
1
 40
1
 40
1
 40
1
 10
101.706150
 20
594.623310
 30
0.0
 10
101.188340
 20
594.624310
 30
0.0
 10
100.727270
 20
594.598210
 30
0.0
 10
100.390470
 20
594.529210
 30
0.0
  0
SPLINE
  5
388
100
AcDbEntity
  8
Calque_1
 62
7
100
AcDbSpline
 70
8
 71
3
 72
8
 73
4
 74
0
 40
0
 40
0
 40
0
 40
0
 40
1
 40
1
 40
1
 40
1
 10
100.390470
 20
594.529210
 30
0.0
 10
98.674770
 20
594.177710
 30
0.0
 10
96.947289
 20
593.422210
 30
0.0
 10
95.600588
 20
592.296310
 30
0.0
  0
SPLINE
  5
389
100
AcDbEntity
  8
Calque_1
 62
7
100
AcDbSpline
 70
8
 71
3
 72
8
 73
4
 74
0
 40
0
 40
0
 40
0
 40
0
 40
1
 40
1
 40
1
 40
1
 10
95.600588
 20
592.296310
 30
0.0
 10
93.833988
 20
590.819310
 30
0.0
 10
92.906788
 20
588.818710
 30
0.0
 10
92.552188
 20
586.594310
 30
0.0
  0
SPLINE
  5
38a
100
AcDbEntity
  8
Calque_1
 62
7
100
AcDbSpline
 70
8
 71
3
 72
8
 73
4
 74
0
 40
0
 40
0
 40
0
 40
0
 40
1
 40
1
 40
1
 40
1
 10
92.552188
 20
586.594310
 30
0.0
 10
92.511188
 20
586.334110
 30
0.0
 10
92.484588
 20
586.075110
 30
0.0
 10
92.471588
 20
585.817610
 30
0.0
  0
LWPOLYLINE
  5
38b
100
AcDbEntity
  8
Calque_1
 62
7
100
AcDbPolyline
 90
2
 70
0
 10
58.658655
 20
614.176210
 30
0.0
 10
58.658655
 20
614.176610
 30
0.0
  0
SPLINE
  5
38c
100
AcDbEntity
  8
Calque_1
 62
7
100
AcDbSpline
 70
8
 71
3
 72
8
 73
4
 74
0
 40
0
 40
0
 40
0
 40
0
 40
1
 40
1
 40
1
 40
1
 10
92.471068
 20
585.817610
 30
0.0
 10
92.279568
 20
581.955710
 30
0.0
 10
95.207118
 20
578.428310
 30
0.0
 10
97.916216
 20
575.992410
 30
0.0
  0
SPLINE
  5
38d
100
AcDbEntity
  8
Calque_1
 62
7
100
AcDbSpline
 70
8
 71
3
 72
8
 73
4
 74
0
 40
0
 40
0
 40
0
 40
0
 40
1
 40
1
 40
1
 40
1
 10
97.916216
 20
575.992410
 30
0.0
 10
101.114210
 20
573.116910
 30
0.0
 10
104.087000
 20
570.977010
 30
0.0
 10
108.427190
 20
570.225310
 30
0.0
  0
SPLINE
  5
38e
100
AcDbEntity
  8
Calque_1
 62
7
100
AcDbSpline
 70
8
 71
3
 72
8
 73
4
 74
0
 40
0
 40
0
 40
0
 40
0
 40
1
 40
1
 40
1
 40
1
 10
108.427190
 20
570.225310
 30
0.0
 10
110.522790
 20
569.862410
 30
0.0
 10
112.603650
 20
570.484510
 30
0.0
 10
114.603050
 20
571.027810
 30
0.0
  0
SPLINE
  5
38f
100
AcDbEntity
  8
Calque_1
 62
7
100
AcDbSpline
 70
8
 71
3
 72
8
 73
4
 74
0
 40
0
 40
0
 40
0
 40
0
 40
1
 40
1
 40
1
 40
1
 10
114.603050
 20
571.027810
 30
0.0
 10
116.405840
 20
571.517710
 30
0.0
 10
117.691270
 20
571.836010
 30
0.0
 10
119.313870
 20
572.610210
 30
0.0
  0
SPLINE
  5
390
100
AcDbEntity
  8
Calque_1
 62
7
100
AcDbSpline
 70
8
 71
3
 72
8
 73
4
 74
0
 40
0
 40
0
 40
0
 40
0
 40
1
 40
1
 40
1
 40
1
 10
119.313870
 20
572.610210
 30
0.0
 10
121.821080
 20
573.806310
 30
0.0
 10
122.921770
 20
575.337210
 30
0.0
 10
124.282570
 20
577.596910
 30
0.0
  0
SPLINE
  5
391
100
AcDbEntity
  8
Calque_1
 62
7
100
AcDbSpline
 70
8
 71
3
 72
8
 73
4
 74
0
 40
0
 40
0
 40
0
 40
0
 40
1
 40
1
 40
1
 40
1
 10
124.282570
 20
577.596910
 30
0.0
 10
124.719470
 20
578.322610
 30
0.0
 10
125.335350
 20
579.646910
 30
0.0
 10
125.074250
 20
580.523910
 30
0.0
  0
SPLINE
  5
392
100
AcDbEntity
  8
Calque_1
 62
7
100
AcDbSpline
 70
8
 71
3
 72
8
 73
4
 74
0
 40
0
 40
0
 40
0
 40
0
 40
1
 40
1
 40
1
 40
1
 10
125.074250
 20
580.523910
 30
0.0
 10
124.813350
 20
581.400010
 30
0.0
 10
123.658400
 20
581.764810
 30
0.0
 10
123.035100
 20
582.171310
 30
0.0
  0
SPLINE
  5
393
100
AcDbEntity
  8
Calque_1
 62
7
100
AcDbSpline
 70
8
 71
3
 72
8
 73
4
 74
0
 40
0
 40
0
 40
0
 40
0
 40
1
 40
1
 40
1
 40
1
 10
123.035100
 20
582.171310
 30
0.0
 10
122.764600
 20
583.168610
 30
0.0
 10
122.686660
 20
584.237710
 30
0.0
 10
122.223260
 20
585.163410
 30
0.0
  0
SPLINE
  5
394
100
AcDbEntity
  8
Calque_1
 62
7
100
AcDbSpline
 70
8
 71
3
 72
8
 73
4
 74
0
 40
0
 40
0
 40
0
 40
0
 40
1
 40
1
 40
1
 40
1
 10
122.223260
 20
585.163410
 30
0.0
 10
121.880360
 20
585.848310
 30
0.0
 10
121.216790
 20
586.325010
 30
0.0
 10
120.679680
 20
586.875410
 30
0.0
  0
SPLINE
  5
395
100
AcDbEntity
  8
Calque_1
 62
7
100
AcDbSpline
 70
8
 71
3
 72
8
 73
4
 74
0
 40
0
 40
0
 40
0
 40
0
 40
1
 40
1
 40
1
 40
1
 10
120.679680
 20
586.875410
 30
0.0
 10
118.481780
 20
589.127510
 30
0.0
 10
116.914550
 20
590.125410
 30
0.0
 10
114.048560
 20
591.624010
 30
0.0
  0
SPLINE
  5
396
100
AcDbEntity
  8
Calque_1
 62
7
100
AcDbSpline
 70
8
 71
3
 72
8
 73
4
 74
0
 40
0
 40
0
 40
0
 40
0
 40
1
 40
1
 40
1
 40
1
 10
114.048560
 20
591.624010
 30
0.0
 10
111.541560
 20
592.934710
 30
0.0
 10
108.923750
 20
593.825710
 30
0.0
 10
106.111060
 20
594.247610
 30
0.0
  0
SPLINE
  5
397
100
AcDbEntity
  8
Calque_1
 62
7
100
AcDbSpline
 70
8
 71
3
 72
8
 73
4
 74
0
 40
0
 40
0
 40
0
 40
0
 40
1
 40
1
 40
1
 40
1
 10
106.111060
 20
594.247610
 30
0.0
 10
105.327230
 20
594.365110
 30
0.0
 10
103.259580
 20
594.619610
 30
0.0
 10
101.706160
 20
594.623310
 30
0.0
  0
LWPOLYLINE
  5
398
100
AcDbEntity
  8
Calque_1
 62
7
100
AcDbPolyline
 90
2
 70
0
 10
92.471588
 20
585.817610
 30
0.0
 10
92.471068
 20
585.817610
 30
0.0
  0
SPLINE
  5
399
100
AcDbEntity
  8
Calque_1
 62
7
100
AcDbSpline
 70
8
 71
3
 72
8
 73
4
 74
0
 40
0
 40
0
 40
0
 40
0
 40
1
 40
1
 40
1
 40
1
 10
73.410728
 20
576.284410
 30
0.0
 10
71.379298
 20
576.278410
 30
0.0
 10
69.416468
 20
575.993910
 30
0.0
 10
67.924758
 20
575.417210
 30
0.0
  0
SPLINE
  5
39a
100
AcDbEntity
  8
Calque_1
 62
7
100
AcDbSpline
 70
8
 71
3
 72
8
 73
4
 74
0
 40
0
 40
0
 40
0
 40
0
 40
1
 40
1
 40
1
 40
1
 10
67.924758
 20
575.417210
 30
0.0
 10
67.020458
 20
575.067710
 30
0.0
 10
66.374748
 20
574.428410
 30
0.0
 10
65.708358
 20
573.768810
 30
0.0
  0
SPLINE
  5
39b
100
AcDbEntity
  8
Calque_1
 62
7
100
AcDbSpline
 70
8
 71
3
 72
8
 73
4
 74
0
 40
0
 40
0
 40
0
 40
0
 40
1
 40
1
 40
1
 40
1
 10
65.708358
 20
573.768810
 30
0.0
 10
64.437058
 20
572.510810
 30
0.0
 10
62.644826
 20
570.490810
 30
0.0
 10
62.735926
 20
568.488510
 30
0.0
  0
SPLINE
  5
39c
100
AcDbEntity
  8
Calque_1
 62
7
100
AcDbSpline
 70
8
 71
3
 72
8
 73
4
 74
0
 40
0
 40
0
 40
0
 40
0
 40
1
 40
1
 40
1
 40
1
 10
62.735926
 20
568.488510
 30
0.0
 10
62.748926
 20
568.202510
 30
0.0
 10
62.799856
 20
567.916710
 30
0.0
 10
62.897158
 20
567.633710
 30
0.0
  0
SPLINE
  5
39d
100
AcDbEntity
  8
Calque_1
 62
7
100
AcDbSpline
 70
8
 71
3
 72
8
 73
4
 74
0
 40
0
 40
0
 40
0
 40
0
 40
1
 40
1
 40
1
 40
1
 10
62.897158
 20
567.633710
 30
0.0
 10
63.127358
 20
566.961110
 30
0.0
 10
64.402408
 20
565.388810
 30
0.0
 10
64.520308
 20
565.227210
 30
0.0
  0
SPLINE
  5
39e
100
AcDbEntity
  8
Calque_1
 62
7
100
AcDbSpline
 70
8
 71
3
 72
8
 73
4
 74
0
 40
0
 40
0
 40
0
 40
0
 40
1
 40
1
 40
1
 40
1
 10
64.520308
 20
565.227210
 30
0.0
 10
65.668408
 20
564.345610
 30
0.0
 10
66.739948
 20
563.357610
 30
0.0
 10
67.964548
 20
562.582410
 30
0.0
  0
SPLINE
  5
39f
100
AcDbEntity
  8
Calque_1
 62
7
100
AcDbSpline
 70
8
 71
3
 72
8
 73
4
 74
0
 40
0
 40
0
 40
0
 40
0
 40
1
 40
1
 40
1
 40
1
 10
67.964548
 20
562.582410
 30
0.0
 10
69.768448
 20
561.440510
 30
0.0
 10
73.116398
 20
560.377010
 30
0.0
 10
75.268498
 20
560.110710
 30
0.0
  0
SPLINE
  5
3a0
100
AcDbEntity
  8
Calque_1
 62
7
100
AcDbSpline
 70
8
 71
3
 72
8
 73
4
 74
0
 40
0
 40
0
 40
0
 40
0
 40
1
 40
1
 40
1
 40
1
 10
75.268498
 20
560.110710
 30
0.0
 10
78.845498
 20
559.667910
 30
0.0
 10
82.113068
 20
559.772710
 30
0.0
 10
85.165568
 20
561.888310
 30
0.0
  0
SPLINE
  5
3a1
100
AcDbEntity
  8
Calque_1
 62
7
100
AcDbSpline
 70
8
 71
3
 72
8
 73
4
 74
0
 40
0
 40
0
 40
0
 40
0
 40
1
 40
1
 40
1
 40
1
 10
85.165568
 20
561.888310
 30
0.0
 10
85.636458
 20
562.214710
 30
0.0
 10
86.028288
 20
562.655910
 30
0.0
 10
86.353088
 20
563.124410
 30
0.0
  0
SPLINE
  5
3a2
100
AcDbEntity
  8
Calque_1
 62
7
100
AcDbSpline
 70
8
 71
3
 72
8
 73
4
 74
0
 40
0
 40
0
 40
0
 40
0
 40
1
 40
1
 40
1
 40
1
 10
86.353088
 20
563.124410
 30
0.0
 10
88.183288
 20
565.764110
 30
0.0
 10
87.055988
 20
568.866110
 30
0.0
 10
85.224988
 20
571.146210
 30
0.0
  0
SPLINE
  5
3a3
100
AcDbEntity
  8
Calque_1
 62
7
100
AcDbSpline
 70
8
 71
3
 72
8
 73
4
 74
0
 40
0
 40
0
 40
0
 40
0
 40
1
 40
1
 40
1
 40
1
 10
85.224988
 20
571.146210
 30
0.0
 10
84.144488
 20
572.491710
 30
0.0
 10
83.020868
 20
573.713610
 30
0.0
 10
81.503768
 20
574.571810
 30
0.0
  0
SPLINE
  5
3a4
100
AcDbEntity
  8
Calque_1
 62
7
100
AcDbSpline
 70
8
 71
3
 72
8
 73
4
 74
0
 40
0
 40
0
 40
0
 40
0
 40
1
 40
1
 40
1
 40
1
 10
81.503768
 20
574.571810
 30
0.0
 10
79.495588
 20
575.707810
 30
0.0
 10
76.379738
 20
576.293310
 30
0.0
 10
73.410728
 20
576.284410
 30
0.0
  0
LWPOLYLINE
  5
3a5
100
AcDbEntity
  8
Calque_1
 62
7
100
AcDbPolyline
 90
1
 70
1
 10
101.706160
 20
594.623310
 30
0.0
  0
SPLINE
  5
3a6
100
AcDbEntity
  8
Calque_1
 62
7
100
AcDbSpline
 70
8
 71
3
 72
8
 73
4
 74
0
 40
0
 40
0
 40
0
 40
0
 40
1
 40
1
 40
1
 40
1
 10
94.683848
 20
540.010070
 30
0.0
 10
91.490248
 20
539.976070
 30
0.0
 10
88.644448
 20
538.850170
 30
0.0
 10
86.093158
 20
536.996270
 30
0.0
  0
SPLINE
  5
3a7
100
AcDbEntity
  8
Calque_1
 62
7
100
AcDbSpline
 70
8
 71
3
 72
8
 73
4
 74
0
 40
0
 40
0
 40
0
 40
0
 40
1
 40
1
 40
1
 40
1
 10
86.093158
 20
536.996270
 30
0.0
 10
85.504958
 20
536.568870
 30
0.0
 10
84.931858
 20
536.107270
 30
0.0
 10
84.450358
 20
535.565370
 30
0.0
  0
SPLINE
  5
3a8
100
AcDbEntity
  8
Calque_1
 62
7
100
AcDbSpline
 70
8
 71
3
 72
8
 73
4
 74
0
 40
0
 40
0
 40
0
 40
0
 40
1
 40
1
 40
1
 40
1
 10
84.450358
 20
535.565370
 30
0.0
 10
83.635958
 20
534.648970
 30
0.0
 10
82.552048
 20
532.657670
 30
0.0
 10
82.094948
 20
531.576470
 30
0.0
  0
SPLINE
  5
3a9
100
AcDbEntity
  8
Calque_1
 62
7
100
AcDbSpline
 70
8
 71
3
 72
8
 73
4
 74
0
 40
0
 40
0
 40
0
 40
0
 40
1
 40
1
 40
1
 40
1
 10
82.094948
 20
531.576470
 30
0.0
 10
81.131448
 20
529.297820
 30
0.0
 10
80.755048
 20
528.466120
 30
0.0
 10
80.788048
 20
526.156220
 30
0.0
  0
SPLINE
  5
3aa
100
AcDbEntity
  8
Calque_1
 62
7
100
AcDbSpline
 70
8
 71
3
 72
8
 73
4
 74
0
 40
0
 40
0
 40
0
 40
0
 40
1
 40
1
 40
1
 40
1
 10
80.788048
 20
526.156220
 30
0.0
 10
80.798048
 20
525.529850
 30
0.0
 10
80.815048
 20
524.882650
 30
0.0
 10
81.025768
 20
524.291750
 30
0.0
  0
SPLINE
  5
3ab
100
AcDbEntity
  8
Calque_1
 62
7
100
AcDbSpline
 70
8
 71
3
 72
8
 73
4
 74
0
 40
0
 40
0
 40
0
 40
0
 40
1
 40
1
 40
1
 40
1
 10
81.025768
 20
524.291750
 30
0.0
 10
81.566968
 20
522.773850
 30
0.0
 10
82.389398
 20
522.154950
 30
0.0
 10
83.579098
 20
521.169450
 30
0.0
  0
SPLINE
  5
3ac
100
AcDbEntity
  8
Calque_1
 62
7
100
AcDbSpline
 70
8
 71
3
 72
8
 73
4
 74
0
 40
0
 40
0
 40
0
 40
0
 40
1
 40
1
 40
1
 40
1
 10
83.579098
 20
521.169450
 30
0.0
 10
85.202998
 20
519.824380
 30
0.0
 10
87.110998
 20
518.433380
 30
0.0
 10
89.220098
 20
517.939180
 30
0.0
  0
SPLINE
  5
3ad
100
AcDbEntity
  8
Calque_1
 62
7
100
AcDbSpline
 70
8
 71
3
 72
8
 73
4
 74
0
 40
0
 40
0
 40
0
 40
0
 40
1
 40
1
 40
1
 40
1
 10
89.220098
 20
517.939180
 30
0.0
 10
91.609798
 20
517.379280
 30
0.0
 10
95.313918
 20
518.228080
 30
0.0
 10
97.256819
 20
519.739080
 30
0.0
  0
SPLINE
  5
3ae
100
AcDbEntity
  8
Calque_1
 62
7
100
AcDbSpline
 70
8
 71
3
 72
8
 73
4
 74
0
 40
0
 40
0
 40
0
 40
0
 40
1
 40
1
 40
1
 40
1
 10
97.256819
 20
519.739080
 30
0.0
 10
98.515910
 20
520.718150
 30
0.0
 10
99.632300
 20
521.863550
 30
0.0
 10
100.819900
 20
522.925950
 30
0.0
  0
SPLINE
  5
3af
100
AcDbEntity
  8
Calque_1
 62
7
100
AcDbSpline
 70
8
 71
3
 72
8
 73
4
 74
0
 40
0
 40
0
 40
0
 40
0
 40
1
 40
1
 40
1
 40
1
 10
100.819900
 20
522.925950
 30
0.0
 10
101.044300
 20
523.561850
 30
0.0
 10
101.165740
 20
524.242850
 30
0.0
 10
101.493240
 20
524.833850
 30
0.0
  0
SPLINE
  5
3b0
100
AcDbEntity
  8
Calque_1
 62
7
100
AcDbSpline
 70
8
 71
3
 72
8
 73
4
 74
0
 40
0
 40
0
 40
0
 40
0
 40
1
 40
1
 40
1
 40
1
 10
101.493240
 20
524.833850
 30
0.0
 10
101.648340
 20
525.113950
 30
0.0
 10
101.985580
 20
525.247950
 30
0.0
 10
102.224980
 20
525.462750
 30
0.0
  0
SPLINE
  5
3b1
100
AcDbEntity
  8
Calque_1
 62
7
100
AcDbSpline
 70
8
 71
3
 72
8
 73
4
 74
0
 40
0
 40
0
 40
0
 40
0
 40
1
 40
1
 40
1
 40
1
 10
102.224980
 20
525.462750
 30
0.0
 10
102.412180
 20
525.630850
 30
0.0
 10
103.451190
 20
526.601420
 30
0.0
 10
103.590790
 20
526.806820
 30
0.0
  0
SPLINE
  5
3b2
100
AcDbEntity
  8
Calque_1
 62
7
100
AcDbSpline
 70
8
 71
3
 72
8
 73
4
 74
0
 40
0
 40
0
 40
0
 40
0
 40
1
 40
1
 40
1
 40
1
 10
103.590790
 20
526.806820
 30
0.0
 10
104.562690
 20
528.237320
 30
0.0
 10
104.503030
 20
530.201020
 30
0.0
 10
104.264130
 20
531.836370
 30
0.0
  0
SPLINE
  5
3b3
100
AcDbEntity
  8
Calque_1
 62
7
100
AcDbSpline
 70
8
 71
3
 72
8
 73
4
 74
0
 40
0
 40
0
 40
0
 40
0
 40
1
 40
1
 40
1
 40
1
 10
104.264130
 20
531.836370
 30
0.0
 10
104.159730
 20
532.550770
 30
0.0
 10
103.650260
 20
534.061670
 30
0.0
 10
103.333960
 20
534.698270
 30
0.0
  0
SPLINE
  5
3b4
100
AcDbEntity
  8
Calque_1
 62
7
100
AcDbSpline
 70
8
 71
3
 72
8
 73
4
 74
0
 40
0
 40
0
 40
0
 40
0
 40
1
 40
1
 40
1
 40
1
 10
103.333960
 20
534.698270
 30
0.0
 10
102.120660
 20
537.140070
 30
0.0
 10
100.695630
 20
538.411270
 30
0.0
 10
98.108433
 20
539.381170
 30
0.0
  0
SPLINE
  5
3b5
100
AcDbEntity
  8
Calque_1
 62
7
100
AcDbSpline
 70
8
 71
3
 72
8
 73
4
 74
0
 40
0
 40
0
 40
0
 40
0
 40
1
 40
1
 40
1
 40
1
 10
98.108433
 20
539.381170
 30
0.0
 10
97.131349
 20
539.747370
 30
0.0
 10
95.731748
 20
540.021070
 30
0.0
 10
94.683848
 20
540.010070
 30
0.0
  0
LWPOLYLINE
  5
3b6
100
AcDbEntity
  8
Calque_1
 62
7
100
AcDbPolyline
 90
1
 70
1
 10
73.410728
 20
576.284410
 30
0.0
  0
SPLINE
  5
3b7
100
AcDbEntity
  8
Calque_1
 62
7
100
AcDbSpline
 70
8
 71
3
 72
8
 73
4
 74
0
 40
0
 40
0
 40
0
 40
0
 40
1
 40
1
 40
1
 40
1
 10
216.879490
 20
510.297310
 30
0.0
 10
215.566880
 20
510.298210
 30
0.0
 10
214.246670
 20
510.123210
 30
0.0
 10
212.978440
 20
509.874010
 30
0.0
  0
SPLINE
  5
3b8
100
AcDbEntity
  8
Calque_1
 62
7
100
AcDbSpline
 70
8
 71
3
 72
8
 73
4
 74
0
 40
0
 40
0
 40
0
 40
0
 40
1
 40
1
 40
1
 40
1
 10
212.978440
 20
509.874010
 30
0.0
 10
210.691940
 20
509.425040
 30
0.0
 10
208.057530
 20
508.401440
 30
0.0
 10
206.267730
 20
506.903740
 30
0.0
  0
SPLINE
  5
3b9
100
AcDbEntity
  8
Calque_1
 62
7
100
AcDbSpline
 70
8
 71
3
 72
8
 73
4
 74
0
 40
0
 40
0
 40
0
 40
0
 40
1
 40
1
 40
1
 40
1
 10
206.267730
 20
506.903740
 30
0.0
 10
205.108240
 20
505.933440
 30
0.0
 10
204.594110
 20
504.590640
 30
0.0
 10
204.550010
 20
503.198070
 30
0.0
  0
LWPOLYLINE
  5
3ba
100
AcDbEntity
  8
Calque_1
 62
7
100
AcDbPolyline
 90
1
 70
1
 10
94.683848
 20
540.010070
 30
0.0
  0
SPLINE
  5
3bb
100
AcDbEntity
  8
Calque_1
 62
7
100
AcDbSpline
 70
8
 71
3
 72
8
 73
4
 74
0
 40
0
 40
0
 40
0
 40
0
 40
1
 40
1
 40
1
 40
1
 10
204.549490
 20
503.198070
 30
0.0
 10
204.515490
 20
502.114870
 30
0.0
 10
204.765290
 20
501.001370
 30
0.0
 10
205.218190
 20
500.009070
 30
0.0
  0
SPLINE
  5
3bc
100
AcDbEntity
  8
Calque_1
 62
7
100
AcDbSpline
 70
8
 71
3
 72
8
 73
4
 74
0
 40
0
 40
0
 40
0
 40
0
 40
1
 40
1
 40
1
 40
1
 10
205.218190
 20
500.009070
 30
0.0
 10
207.248580
 20
495.561400
 30
0.0
 10
212.025150
 20
492.116700
 30
0.0
 10
216.659350
 20
490.686700
 30
0.0
  0
SPLINE
  5
3bd
100
AcDbEntity
  8
Calque_1
 62
7
100
AcDbSpline
 70
8
 71
3
 72
8
 73
4
 74
0
 40
0
 40
0
 40
0
 40
0
 40
1
 40
1
 40
1
 40
1
 10
216.659350
 20
490.686700
 30
0.0
 10
218.895050
 20
489.996700
 30
0.0
 10
222.199330
 20
489.970600
 30
0.0
 10
224.398930
 20
490.795200
 30
0.0
  0
SPLINE
  5
3be
100
AcDbEntity
  8
Calque_1
 62
7
100
AcDbSpline
 70
8
 71
3
 72
8
 73
4
 74
0
 40
0
 40
0
 40
0
 40
0
 40
1
 40
1
 40
1
 40
1
 10
224.398930
 20
490.795200
 30
0.0
 10
226.361530
 20
491.531000
 30
0.0
 10
227.518920
 20
492.817000
 30
0.0
 10
228.436920
 20
494.589300
 30
0.0
  0
SPLINE
  5
3bf
100
AcDbEntity
  8
Calque_1
 62
7
100
AcDbSpline
 70
8
 71
3
 72
8
 73
4
 74
0
 40
0
 40
0
 40
0
 40
0
 40
1
 40
1
 40
1
 40
1
 10
228.436920
 20
494.589300
 30
0.0
 10
228.989920
 20
495.657100
 30
0.0
 10
229.390430
 20
496.477400
 30
0.0
 10
229.327830
 20
497.711100
 30
0.0
  0
SPLINE
  5
3c0
100
AcDbEntity
  8
Calque_1
 62
7
100
AcDbSpline
 70
8
 71
3
 72
8
 73
4
 74
0
 40
0
 40
0
 40
0
 40
0
 40
1
 40
1
 40
1
 40
1
 10
229.327830
 20
497.711100
 30
0.0
 10
229.270830
 20
498.840300
 30
0.0
 10
228.866390
 20
499.778770
 30
0.0
 10
228.417290
 20
500.789870
 30
0.0
  0
LWPOLYLINE
  5
3c1
100
AcDbEntity
  8
Calque_1
 62
7
100
AcDbPolyline
 90
2
 70
0
 10
204.550010
 20
503.198070
 30
0.0
 10
204.549490
 20
503.198070
 30
0.0
  0
SPLINE
  5
3c2
100
AcDbEntity
  8
Calque_1
 62
7
100
AcDbSpline
 70
8
 71
3
 72
8
 73
4
 74
0
 40
0
 40
0
 40
0
 40
0
 40
1
 40
1
 40
1
 40
1
 10
228.318590
 20
503.694670
 30
0.0
 10
225.532900
 20
506.763740
 30
0.0
 10
223.035930
 20
509.562240
 30
0.0
 10
218.659240
 20
510.177410
 30
0.0
  0
SPLINE
  5
3c3
100
AcDbEntity
  8
Calque_1
 62
7
100
AcDbSpline
 70
8
 71
3
 72
8
 73
4
 74
0
 40
0
 40
0
 40
0
 40
0
 40
1
 40
1
 40
1
 40
1
 10
218.659240
 20
510.177410
 30
0.0
 10
218.071420
 20
510.260410
 30
0.0
 10
217.476140
 20
510.296910
 30
0.0
 10
216.879500
 20
510.297310
 30
0.0
  0
LWPOLYLINE
  5
3c4
100
AcDbEntity
  8
Calque_1
 62
7
100
AcDbPolyline
 90
2
 70
0
 10
228.417290
 20
500.789870
 30
0.0
 10
228.318590
 20
503.694670
 30
0.0
  0
SPLINE
  5
3c5
100
AcDbEntity
  8
Calque_1
 62
7
100
AcDbSpline
 70
8
 71
3
 72
8
 73
4
 74
0
 40
0
 40
0
 40
0
 40
0
 40
1
 40
1
 40
1
 40
1
 10
344.631380
 20
497.665600
 30
0.0
 10
341.312270
 20
497.714600
 30
0.0
 10
338.393160
 20
496.653800
 30
0.0
 10
335.143070
 20
494.542800
 30
0.0
  0
SPLINE
  5
3c6
100
AcDbEntity
  8
Calque_1
 62
7
100
AcDbSpline
 70
8
 71
3
 72
8
 73
4
 74
0
 40
0
 40
0
 40
0
 40
0
 40
1
 40
1
 40
1
 40
1
 10
335.143070
 20
494.542800
 30
0.0
 10
334.539170
 20
494.150500
 30
0.0
 10
333.917650
 20
493.781900
 30
0.0
 10
333.342150
 20
493.350100
 30
0.0
  0
SPLINE
  5
3c7
100
AcDbEntity
  8
Calque_1
 62
7
100
AcDbSpline
 70
8
 71
3
 72
8
 73
4
 74
0
 40
0
 40
0
 40
0
 40
0
 40
1
 40
1
 40
1
 40
1
 10
333.342150
 20
493.350100
 30
0.0
 10
331.723350
 20
492.135700
 30
0.0
 10
330.262640
 20
490.376900
 30
0.0
 10
330.194540
 20
488.327100
 30
0.0
  0
LWPOLYLINE
  5
3c8
100
AcDbEntity
  8
Calque_1
 62
7
100
AcDbPolyline
 90
1
 70
1
 10
216.879500
 20
510.297310
 30
0.0
  0
SPLINE
  5
3c9
100
AcDbEntity
  8
Calque_1
 62
7
100
AcDbSpline
 70
8
 71
3
 72
8
 73
4
 74
0
 40
0
 40
0
 40
0
 40
0
 40
1
 40
1
 40
1
 40
1
 10
330.195050
 20
488.327100
 30
0.0
 10
330.185050
 20
488.034300
 30
0.0
 10
330.205050
 20
487.735500
 30
0.0
 10
330.253950
 20
487.431600
 30
0.0
  0
SPLINE
  5
3ca
100
AcDbEntity
  8
Calque_1
 62
7
100
AcDbSpline
 70
8
 71
3
 72
8
 73
4
 74
0
 40
0
 40
0
 40
0
 40
0
 40
1
 40
1
 40
1
 40
1
 10
330.253950
 20
487.431600
 30
0.0
 10
330.371450
 20
486.727300
 30
0.0
 10
330.897040
 20
485.083400
 30
0.0
 10
331.421840
 20
484.504600
 30
0.0
  0
SPLINE
  5
3cb
100
AcDbEntity
  8
Calque_1
 62
7
100
AcDbSpline
 70
8
 71
3
 72
8
 73
4
 74
0
 40
0
 40
0
 40
0
 40
0
 40
1
 40
1
 40
1
 40
1
 10
331.421840
 20
484.504600
 30
0.0
 10
332.174340
 20
483.674800
 30
0.0
 10
333.031780
 20
482.943700
 30
0.0
 10
333.836680
 20
482.163200
 30
0.0
  0
SPLINE
  5
3cc
100
AcDbEntity
  8
Calque_1
 62
7
100
AcDbSpline
 70
8
 71
3
 72
8
 73
4
 74
0
 40
0
 40
0
 40
0
 40
0
 40
1
 40
1
 40
1
 40
1
 10
333.836680
 20
482.163200
 30
0.0
 10
335.698480
 20
481.511900
 30
0.0
 10
337.663720
 20
480.642100
 30
0.0
 10
339.676120
 20
480.406700
 30
0.0
  0
SPLINE
  5
3cd
100
AcDbEntity
  8
Calque_1
 62
7
100
AcDbSpline
 70
8
 71
3
 72
8
 73
4
 74
0
 40
0
 40
0
 40
0
 40
0
 40
1
 40
1
 40
1
 40
1
 10
339.676120
 20
480.406700
 30
0.0
 10
340.344520
 20
480.328700
 30
0.0
 10
341.021920
 20
480.370700
 30
0.0
 10
341.695120
 20
480.363700
 30
0.0
  0
SPLINE
  5
3ce
100
AcDbEntity
  8
Calque_1
 62
7
100
AcDbSpline
 70
8
 71
3
 72
8
 73
4
 74
0
 40
0
 40
0
 40
0
 40
0
 40
1
 40
1
 40
1
 40
1
 10
341.695120
 20
480.363700
 30
0.0
 10
343.140620
 20
480.348700
 30
0.0
 10
345.025830
 20
480.363600
 30
0.0
 10
346.445730
 20
480.406700
 30
0.0
  0
SPLINE
  5
3cf
100
AcDbEntity
  8
Calque_1
 62
7
100
AcDbSpline
 70
8
 71
3
 72
8
 73
4
 74
0
 40
0
 40
0
 40
0
 40
0
 40
1
 40
1
 40
1
 40
1
 10
346.445730
 20
480.406700
 30
0.0
 10
350.523730
 20
480.515700
 30
0.0
 10
356.291170
 20
480.420700
 30
0.0
 10
358.915770
 20
484.222500
 30
0.0
  0
SPLINE
  5
3d0
100
AcDbEntity
  8
Calque_1
 62
7
100
AcDbSpline
 70
8
 71
3
 72
8
 73
4
 74
0
 40
0
 40
0
 40
0
 40
0
 40
1
 40
1
 40
1
 40
1
 10
358.915770
 20
484.222500
 30
0.0
 10
362.785470
 20
489.828400
 30
0.0
 10
354.076670
 20
495.622700
 30
0.0
 10
349.473970
 20
496.905900
 30
0.0
  0
SPLINE
  5
3d1
100
AcDbEntity
  8
Calque_1
 62
7
100
AcDbSpline
 70
8
 71
3
 72
8
 73
4
 74
0
 40
0
 40
0
 40
0
 40
0
 40
1
 40
1
 40
1
 40
1
 10
349.473970
 20
496.905900
 30
0.0
 10
347.731190
 20
497.391900
 30
0.0
 10
346.140060
 20
497.643400
 30
0.0
 10
344.631370
 20
497.665600
 30
0.0
  0
LWPOLYLINE
  5
3d2
100
AcDbEntity
  8
Calque_1
 62
7
100
AcDbPolyline
 90
2
 70
0
 10
330.194540
 20
488.327100
 30
0.0
 10
330.195050
 20
488.327100
 30
0.0
  0
SPLINE
  5
3d3
100
AcDbEntity
  8
Calque_1
 62
7
100
AcDbSpline
 70
8
 71
3
 72
8
 73
4
 74
0
 40
0
 40
0
 40
0
 40
0
 40
1
 40
1
 40
1
 40
1
 10
240.024330
 20
489.360700
 30
0.0
 10
239.056260
 20
489.370700
 30
0.0
 10
238.040980
 20
489.287700
 30
0.0
 10
236.930460
 20
489.109500
 30
0.0
  0
SPLINE
  5
3d4
100
AcDbEntity
  8
Calque_1
 62
7
100
AcDbSpline
 70
8
 71
3
 72
8
 73
4
 74
0
 40
0
 40
0
 40
0
 40
0
 40
1
 40
1
 40
1
 40
1
 10
236.930460
 20
489.109500
 30
0.0
 10
233.629670
 20
488.580200
 30
0.0
 10
231.130260
 20
487.987800
 30
0.0
 10
229.369170
 20
484.968700
 30
0.0
  0
SPLINE
  5
3d5
100
AcDbEntity
  8
Calque_1
 62
7
100
AcDbSpline
 70
8
 71
3
 72
8
 73
4
 74
0
 40
0
 40
0
 40
0
 40
0
 40
1
 40
1
 40
1
 40
1
 10
229.369170
 20
484.968700
 30
0.0
 10
229.058270
 20
484.435500
 30
0.0
 10
228.782570
 20
483.560900
 30
0.0
 10
228.761970
 20
482.805500
 30
0.0
  0
LWPOLYLINE
  5
3d6
100
AcDbEntity
  8
Calque_1
 62
7
100
AcDbPolyline
 90
1
 70
1
 10
344.631370
 20
497.665600
 30
0.0
  0
SPLINE
  5
3d7
100
AcDbEntity
  8
Calque_1
 62
7
100
AcDbSpline
 70
8
 71
3
 72
8
 73
4
 74
0
 40
0
 40
0
 40
0
 40
0
 40
1
 40
1
 40
1
 40
1
 10
228.762490
 20
482.805500
 30
0.0
 10
228.752490
 20
482.553700
 30
0.0
 10
228.776790
 20
482.314900
 30
0.0
 10
228.834790
 20
482.106800
 30
0.0
  0
SPLINE
  5
3d8
100
AcDbEntity
  8
Calque_1
 62
7
100
AcDbSpline
 70
8
 71
3
 72
8
 73
4
 74
0
 40
0
 40
0
 40
0
 40
0
 40
1
 40
1
 40
1
 40
1
 10
228.834790
 20
482.106800
 30
0.0
 10
229.739590
 20
478.856300
 30
0.0
 10
233.658720
 20
475.350500
 30
0.0
 10
236.554220
 20
473.803500
 30
0.0
  0
SPLINE
  5
3d9
100
AcDbEntity
  8
Calque_1
 62
7
100
AcDbSpline
 70
8
 71
3
 72
8
 73
4
 74
0
 40
0
 40
0
 40
0
 40
0
 40
1
 40
1
 40
1
 40
1
 10
236.554220
 20
473.803500
 30
0.0
 10
238.477720
 20
472.775800
 30
0.0
 10
240.747280
 20
472.701100
 30
0.0
 10
242.869080
 20
472.719300
 30
0.0
  0
SPLINE
  5
3da
100
AcDbEntity
  8
Calque_1
 62
7
100
AcDbSpline
 70
8
 71
3
 72
8
 73
4
 74
0
 40
0
 40
0
 40
0
 40
0
 40
1
 40
1
 40
1
 40
1
 10
242.869080
 20
472.719300
 30
0.0
 10
245.007480
 20
472.737300
 30
0.0
 10
247.298830
 20
472.975200
 30
0.0
 10
249.242330
 20
473.933200
 30
0.0
  0
SPLINE
  5
3db
100
AcDbEntity
  8
Calque_1
 62
7
100
AcDbSpline
 70
8
 71
3
 72
8
 73
4
 74
0
 40
0
 40
0
 40
0
 40
0
 40
1
 40
1
 40
1
 40
1
 10
249.242330
 20
473.933200
 30
0.0
 10
250.182230
 20
474.396400
 30
0.0
 10
251.703480
 20
475.988300
 30
0.0
 10
252.409580
 20
476.730400
 30
0.0
  0
SPLINE
  5
3dc
100
AcDbEntity
  8
Calque_1
 62
7
100
AcDbSpline
 70
8
 71
3
 72
8
 73
4
 74
0
 40
0
 40
0
 40
0
 40
0
 40
1
 40
1
 40
1
 40
1
 10
252.409580
 20
476.730400
 30
0.0
 10
253.159880
 20
477.519100
 30
0.0
 10
253.858310
 20
478.401500
 30
0.0
 10
254.170710
 20
479.462100
 30
0.0
  0
SPLINE
  5
3dd
100
AcDbEntity
  8
Calque_1
 62
7
100
AcDbSpline
 70
8
 71
3
 72
8
 73
4
 74
0
 40
0
 40
0
 40
0
 40
0
 40
1
 40
1
 40
1
 40
1
 10
254.170710
 20
479.462100
 30
0.0
 10
254.559910
 20
480.783600
 30
0.0
 10
254.292110
 20
482.108200
 30
0.0
 10
254.170710
 20
483.451000
 30
0.0
  0
SPLINE
  5
3de
100
AcDbEntity
  8
Calque_1
 62
7
100
AcDbSpline
 70
8
 71
3
 72
8
 73
4
 74
0
 40
0
 40
0
 40
0
 40
0
 40
1
 40
1
 40
1
 40
1
 10
254.170710
 20
483.451000
 30
0.0
 10
252.286220
 20
485.632200
 30
0.0
 10
249.993490
 20
486.788900
 30
0.0
 10
247.342190
 20
487.765400
 30
0.0
  0
SPLINE
  5
3df
100
AcDbEntity
  8
Calque_1
 62
7
100
AcDbSpline
 70
8
 71
3
 72
8
 73
4
 74
0
 40
0
 40
0
 40
0
 40
0
 40
1
 40
1
 40
1
 40
1
 10
247.342190
 20
487.765400
 30
0.0
 10
244.666360
 20
488.750900
 30
0.0
 10
242.498240
 20
489.341700
 30
0.0
 10
240.024290
 20
489.360700
 30
0.0
  0
LWPOLYLINE
  5
3e0
100
AcDbEntity
  8
Calque_1
 62
7
100
AcDbPolyline
 90
2
 70
0
 10
228.761970
 20
482.805500
 30
0.0
 10
228.762490
 20
482.805500
 30
0.0
  0
SPLINE
  5
3e1
100
AcDbEntity
  8
Calque_1
 62
7
100
AcDbSpline
 70
8
 71
3
 72
8
 73
4
 74
0
 40
0
 40
0
 40
0
 40
0
 40
1
 40
1
 40
1
 40
1
 10
137.161360
 20
477.710700
 30
0.0
 10
135.279300
 20
477.694700
 30
0.0
 10
133.331490
 20
477.525300
 30
0.0
 10
131.648520
 20
476.626000
 30
0.0
  0
SPLINE
  5
3e2
100
AcDbEntity
  8
Calque_1
 62
7
100
AcDbSpline
 70
8
 71
3
 72
8
 73
4
 74
0
 40
0
 40
0
 40
0
 40
0
 40
1
 40
1
 40
1
 40
1
 10
131.648520
 20
476.626000
 30
0.0
 10
128.753020
 20
475.079000
 30
0.0
 10
124.833370
 20
471.572800
 30
0.0
 10
123.928570
 20
468.322200
 30
0.0
  0
SPLINE
  5
3e3
100
AcDbEntity
  8
Calque_1
 62
7
100
AcDbSpline
 70
8
 71
3
 72
8
 73
4
 74
0
 40
0
 40
0
 40
0
 40
0
 40
1
 40
1
 40
1
 40
1
 10
123.928570
 20
468.322200
 30
0.0
 10
123.870570
 20
468.114000
 30
0.0
 10
123.849770
 20
467.875800
 30
0.0
 10
123.856770
 20
467.624000
 30
0.0
  0
LWPOLYLINE
  5
3e4
100
AcDbEntity
  8
Calque_1
 62
7
100
AcDbPolyline
 90
1
 70
1
 10
240.024290
 20
489.360700
 30
0.0
  0
SPLINE
  5
3e5
100
AcDbEntity
  8
Calque_1
 62
7
100
AcDbSpline
 70
8
 71
3
 72
8
 73
4
 74
0
 40
0
 40
0
 40
0
 40
0
 40
1
 40
1
 40
1
 40
1
 10
123.856260
 20
467.624000
 30
0.0
 10
123.877260
 20
466.868600
 30
0.0
 10
124.152460
 20
465.993500
 30
0.0
 10
124.463460
 20
465.460300
 30
0.0
  0
SPLINE
  5
3e6
100
AcDbEntity
  8
Calque_1
 62
7
100
AcDbSpline
 70
8
 71
3
 72
8
 73
4
 74
0
 40
0
 40
0
 40
0
 40
0
 40
1
 40
1
 40
1
 40
1
 10
124.463460
 20
465.460300
 30
0.0
 10
126.224550
 20
462.441100
 30
0.0
 10
128.723850
 20
461.848900
 30
0.0
 10
132.024750
 20
461.319500
 30
0.0
  0
SPLINE
  5
3e7
100
AcDbEntity
  8
Calque_1
 62
7
100
AcDbSpline
 70
8
 71
3
 72
8
 73
4
 74
0
 40
0
 40
0
 40
0
 40
0
 40
1
 40
1
 40
1
 40
1
 10
132.024750
 20
461.319500
 30
0.0
 10
135.973150
 20
460.686200
 30
0.0
 10
138.713720
 20
461.292500
 30
0.0
 10
142.436520
 20
462.663600
 30
0.0
  0
SPLINE
  5
3e8
100
AcDbEntity
  8
Calque_1
 62
7
100
AcDbSpline
 70
8
 71
3
 72
8
 73
4
 74
0
 40
0
 40
0
 40
0
 40
0
 40
1
 40
1
 40
1
 40
1
 10
142.436520
 20
462.663600
 30
0.0
 10
145.087920
 20
463.640100
 30
0.0
 10
147.380640
 20
464.796900
 30
0.0
 10
149.265040
 20
466.978100
 30
0.0
  0
SPLINE
  5
3e9
100
AcDbEntity
  8
Calque_1
 62
7
100
AcDbSpline
 70
8
 71
3
 72
8
 73
4
 74
0
 40
0
 40
0
 40
0
 40
0
 40
1
 40
1
 40
1
 40
1
 10
149.265040
 20
466.978100
 30
0.0
 10
149.386440
 20
468.320800
 30
0.0
 10
149.654340
 20
469.646000
 30
0.0
 10
149.265040
 20
470.967500
 30
0.0
  0
SPLINE
  5
3ea
100
AcDbEntity
  8
Calque_1
 62
7
100
AcDbSpline
 70
8
 71
3
 72
8
 73
4
 74
0
 40
0
 40
0
 40
0
 40
0
 40
1
 40
1
 40
1
 40
1
 10
149.265040
 20
470.967500
 30
0.0
 10
148.952740
 20
472.028100
 30
0.0
 10
148.253790
 20
472.910400
 30
0.0
 10
147.503390
 20
473.699100
 30
0.0
  0
SPLINE
  5
3eb
100
AcDbEntity
  8
Calque_1
 62
7
100
AcDbSpline
 70
8
 71
3
 72
8
 73
4
 74
0
 40
0
 40
0
 40
0
 40
0
 40
1
 40
1
 40
1
 40
1
 10
147.503390
 20
473.699100
 30
0.0
 10
146.797290
 20
474.441200
 30
0.0
 10
145.276560
 20
476.032500
 30
0.0
 10
144.336660
 20
476.495800
 30
0.0
  0
SPLINE
  5
3ec
100
AcDbEntity
  8
Calque_1
 62
7
100
AcDbSpline
 70
8
 71
3
 72
8
 73
4
 74
0
 40
0
 40
0
 40
0
 40
0
 40
1
 40
1
 40
1
 40
1
 10
144.336660
 20
476.495800
 30
0.0
 10
142.393060
 20
477.453800
 30
0.0
 10
140.101390
 20
477.691500
 30
0.0
 10
137.962890
 20
477.709700
 30
0.0
  0
LWPOLYLINE
  5
3ed
100
AcDbEntity
  8
Calque_1
 62
7
100
AcDbPolyline
 90
2
 70
0
 10
123.856770
 20
467.624000
 30
0.0
 10
123.856260
 20
467.624000
 30
0.0
  0
SPLINE
  5
3ee
100
AcDbEntity
  8
Calque_1
 62
7
100
AcDbSpline
 70
8
 71
3
 72
8
 73
4
 74
0
 40
0
 40
0
 40
0
 40
0
 40
1
 40
1
 40
1
 40
1
 10
340.229070
 20
469.479700
 30
0.0
 10
337.975590
 20
469.491700
 30
0.0
 10
335.489540
 20
469.180200
 30
0.0
 10
334.060450
 20
467.554800
 30
0.0
  0
SPLINE
  5
3ef
100
AcDbEntity
  8
Calque_1
 62
7
100
AcDbSpline
 70
8
 71
3
 72
8
 73
4
 74
0
 40
0
 40
0
 40
0
 40
0
 40
1
 40
1
 40
1
 40
1
 10
334.060450
 20
467.554800
 30
0.0
 10
333.429250
 20
466.836900
 30
0.0
 10
333.133630
 20
466.272300
 30
0.0
 10
333.141130
 20
465.520300
 30
0.0
  0
SPLINE
  5
3f0
100
AcDbEntity
  8
Calque_1
 62
7
100
AcDbSpline
 70
8
 71
3
 72
8
 73
4
 74
0
 40
0
 40
0
 40
0
 40
0
 40
1
 40
1
 40
1
 40
1
 10
333.141130
 20
465.520300
 30
0.0
 10
333.141130
 20
465.269600
 30
0.0
 10
333.180130
 20
464.997800
 30
0.0
 10
333.248610
 20
464.692900
 30
0.0
  0
SPLINE
  5
3f1
100
AcDbEntity
  8
Calque_1
 62
7
100
AcDbSpline
 70
8
 71
3
 72
8
 73
4
 74
0
 40
0
 40
0
 40
0
 40
0
 40
1
 40
1
 40
1
 40
1
 10
333.248610
 20
464.692900
 30
0.0
 10
333.787010
 20
462.300600
 30
0.0
 10
335.826640
 20
460.645700
 30
0.0
 10
337.860740
 20
459.467900
 30
0.0
  0
SPLINE
  5
3f2
100
AcDbEntity
  8
Calque_1
 62
7
100
AcDbSpline
 70
8
 71
3
 72
8
 73
4
 74
0
 40
0
 40
0
 40
0
 40
0
 40
1
 40
1
 40
1
 40
1
 10
337.860740
 20
459.467900
 30
0.0
 10
341.378930
 20
457.430800
 30
0.0
 10
345.897680
 20
456.633200
 30
0.0
 10
349.717380
 20
458.319200
 30
0.0
  0
SPLINE
  5
3f3
100
AcDbEntity
  8
Calque_1
 62
7
100
AcDbSpline
 70
8
 71
3
 72
8
 73
4
 74
0
 40
0
 40
0
 40
0
 40
0
 40
1
 40
1
 40
1
 40
1
 10
349.717380
 20
458.319200
 30
0.0
 10
352.437270
 20
459.519900
 30
0.0
 10
353.385890
 20
461.500000
 30
0.0
 10
354.982690
 20
463.890900
 30
0.0
  0
SPLINE
  5
3f4
100
AcDbEntity
  8
Calque_1
 62
7
100
AcDbSpline
 70
8
 71
3
 72
8
 73
4
 74
0
 40
0
 40
0
 40
0
 40
0
 40
1
 40
1
 40
1
 40
1
 10
354.982690
 20
463.890900
 30
0.0
 10
354.047390
 20
464.747900
 30
0.0
 10
351.843900
 20
467.054200
 30
0.0
 10
350.291500
 20
467.771800
 30
0.0
  0
SPLINE
  5
3f5
100
AcDbEntity
  8
Calque_1
 62
7
100
AcDbSpline
 70
8
 71
3
 72
8
 73
4
 74
0
 40
0
 40
0
 40
0
 40
0
 40
1
 40
1
 40
1
 40
1
 10
350.291500
 20
467.771800
 30
0.0
 10
348.940500
 20
468.396300
 30
0.0
 10
346.785240
 20
468.920400
 30
0.0
 10
345.283540
 20
469.137600
 30
0.0
  0
SPLINE
  5
3f6
100
AcDbEntity
  8
Calque_1
 62
7
100
AcDbSpline
 70
8
 71
3
 72
8
 73
4
 74
0
 40
0
 40
0
 40
0
 40
0
 40
1
 40
1
 40
1
 40
1
 10
345.283540
 20
469.137600
 30
0.0
 10
344.424640
 20
469.261800
 30
0.0
 10
343.557010
 20
469.324300
 30
0.0
 10
342.690410
 20
469.376400
 30
0.0
  0
SPLINE
  5
3f7
100
AcDbEntity
  8
Calque_1
 62
7
100
AcDbSpline
 70
8
 71
3
 72
8
 73
4
 74
0
 40
0
 40
0
 40
0
 40
0
 40
1
 40
1
 40
1
 40
1
 10
342.690410
 20
469.376400
 30
0.0
 10
341.957080
 20
469.420400
 30
0.0
 10
341.110860
 20
469.475400
 30
0.0
 10
340.229070
 20
469.479700
 30
0.0
  0
LWPOLYLINE
  5
3f8
100
AcDbEntity
  8
Calque_1
 62
7
100
AcDbPolyline
 90
3
 70
0
 10
137.962890
 20
477.709700
 30
0.0
 10
137.161390
 20
477.709700
 30
0.0
 10
137.161360
 20
477.710700
 30
0.0
  0
SPLINE
  5
3f9
100
AcDbEntity
  8
Calque_1
 62
7
100
AcDbSpline
 70
8
 71
3
 72
8
 73
4
 74
0
 40
0
 40
0
 40
0
 40
0
 40
1
 40
1
 40
1
 40
1
 10
248.237780
 20
461.168100
 30
0.0
 10
247.027270
 20
461.155100
 30
0.0
 10
245.248800
 20
460.976500
 30
0.0
 10
244.136740
 20
460.604300
 30
0.0
  0
SPLINE
  5
3fa
100
AcDbEntity
  8
Calque_1
 62
7
100
AcDbSpline
 70
8
 71
3
 72
8
 73
4
 74
0
 40
0
 40
0
 40
0
 40
0
 40
1
 40
1
 40
1
 40
1
 10
244.136740
 20
460.604300
 30
0.0
 10
242.801640
 20
460.157500
 30
0.0
 10
241.544690
 20
459.455600
 30
0.0
 10
240.356090
 20
458.718100
 30
0.0
  0
SPLINE
  5
3fb
100
AcDbEntity
  8
Calque_1
 62
7
100
AcDbSpline
 70
8
 71
3
 72
8
 73
4
 74
0
 40
0
 40
0
 40
0
 40
0
 40
1
 40
1
 40
1
 40
1
 10
240.356090
 20
458.718100
 30
0.0
 10
239.296990
 20
458.061000
 30
0.0
 10
238.551520
 20
457.611000
 30
0.0
 10
237.783120
 20
456.593200
 30
0.0
  0
SPLINE
  5
3fc
100
AcDbEntity
  8
Calque_1
 62
7
100
AcDbSpline
 70
8
 71
3
 72
8
 73
4
 74
0
 40
0
 40
0
 40
0
 40
0
 40
1
 40
1
 40
1
 40
1
 10
237.783120
 20
456.593200
 30
0.0
 10
237.286720
 20
455.935900
 30
0.0
 10
237.092500
 20
455.225900
 30
0.0
 10
237.122700
 20
454.498200
 30
0.0
  0
SPLINE
  5
3fd
100
AcDbEntity
  8
Calque_1
 62
7
100
AcDbSpline
 70
8
 71
3
 72
8
 73
4
 74
0
 40
0
 40
0
 40
0
 40
0
 40
1
 40
1
 40
1
 40
1
 10
237.122700
 20
454.498200
 30
0.0
 10
237.253800
 20
451.344900
 30
0.0
 10
241.600960
 20
447.859300
 30
0.0
 10
243.859750
 20
446.880600
 30
0.0
  0
SPLINE
  5
3fe
100
AcDbEntity
  8
Calque_1
 62
7
100
AcDbSpline
 70
8
 71
3
 72
8
 73
4
 74
0
 40
0
 40
0
 40
0
 40
0
 40
1
 40
1
 40
1
 40
1
 10
243.859750
 20
446.880600
 30
0.0
 10
244.552150
 20
446.580500
 30
0.0
 10
247.492070
 20
445.890200
 30
0.0
 10
248.095670
 20
445.774700
 30
0.0
  0
SPLINE
  5
3ff
100
AcDbEntity
  8
Calque_1
 62
7
100
AcDbSpline
 70
8
 71
3
 72
8
 73
4
 74
0
 40
0
 40
0
 40
0
 40
0
 40
1
 40
1
 40
1
 40
1
 10
248.095670
 20
445.774700
 30
0.0
 10
250.840470
 20
445.249300
 30
0.0
 10
253.684230
 20
445.418300
 30
0.0
 10
256.152030
 20
446.815500
 30
0.0
  0
SPLINE
  5
400
100
AcDbEntity
  8
Calque_1
 62
7
100
AcDbSpline
 70
8
 71
3
 72
8
 73
4
 74
0
 40
0
 40
0
 40
0
 40
0
 40
1
 40
1
 40
1
 40
1
 10
256.152030
 20
446.815500
 30
0.0
 10
256.550430
 20
447.041200
 30
0.0
 10
256.900320
 20
447.340900
 30
0.0
 10
257.280120
 20
447.595800
 30
0.0
  0
SPLINE
  5
401
100
AcDbEntity
  8
Calque_1
 62
7
100
AcDbSpline
 70
8
 71
3
 72
8
 73
4
 74
0
 40
0
 40
0
 40
0
 40
0
 40
1
 40
1
 40
1
 40
1
 10
257.280120
 20
447.595800
 30
0.0
 10
257.514020
 20
447.752800
 30
0.0
 10
257.769440
 20
447.879500
 30
0.0
 10
257.992740
 20
448.051000
 30
0.0
  0
SPLINE
  5
402
100
AcDbEntity
  8
Calque_1
 62
7
100
AcDbSpline
 70
8
 71
3
 72
8
 73
4
 74
0
 40
0
 40
0
 40
0
 40
0
 40
1
 40
1
 40
1
 40
1
 10
257.992740
 20
448.051000
 30
0.0
 10
258.672240
 20
448.573200
 30
0.0
 10
259.358250
 20
449.299200
 30
0.0
 10
259.873250
 20
449.980600
 30
0.0
  0
SPLINE
  5
403
100
AcDbEntity
  8
Calque_1
 62
7
100
AcDbSpline
 70
8
 71
3
 72
8
 73
4
 74
0
 40
0
 40
0
 40
0
 40
0
 40
1
 40
1
 40
1
 40
1
 10
259.873250
 20
449.980600
 30
0.0
 10
259.950250
 20
450.082000
 30
0.0
 10
260.005170
 20
450.197800
 30
0.0
 10
260.071170
 20
450.306200
 30
0.0
  0
SPLINE
  5
404
100
AcDbEntity
  8
Calque_1
 62
7
100
AcDbSpline
 70
8
 71
3
 72
8
 73
4
 74
0
 40
0
 40
0
 40
0
 40
0
 40
1
 40
1
 40
1
 40
1
 10
260.071170
 20
450.306200
 30
0.0
 10
260.144170
 20
450.458000
 30
0.0
 10
260.188030
 20
450.626100
 30
0.0
 10
260.288730
 20
450.761500
 30
0.0
  0
SPLINE
  5
405
100
AcDbEntity
  8
Calque_1
 62
7
100
AcDbSpline
 70
8
 71
3
 72
8
 73
4
 74
0
 40
0
 40
0
 40
0
 40
0
 40
1
 40
1
 40
1
 40
1
 10
260.288730
 20
450.761500
 30
0.0
 10
260.338730
 20
450.829500
 30
0.0
 10
260.802140
 20
451.171900
 30
0.0
 10
260.902640
 20
451.281900
 30
0.0
  0
SPLINE
  5
406
100
AcDbEntity
  8
Calque_1
 62
7
100
AcDbSpline
 70
8
 71
3
 72
8
 73
4
 74
0
 40
0
 40
0
 40
0
 40
0
 40
1
 40
1
 40
1
 40
1
 10
260.902640
 20
451.281900
 30
0.0
 10
261.258340
 20
451.671500
 30
0.0
 10
261.495910
 20
452.257000
 30
0.0
 10
261.971310
 20
452.517400
 30
0.0
  0
SPLINE
  5
407
100
AcDbEntity
  8
Calque_1
 62
7
100
AcDbSpline
 70
8
 71
3
 72
8
 73
4
 74
0
 40
0
 40
0
 40
0
 40
0
 40
1
 40
1
 40
1
 40
1
 10
261.971310
 20
452.517400
 30
0.0
 10
262.517510
 20
452.816500
 30
0.0
 10
263.198830
 20
452.288800
 30
0.0
 10
263.812030
 20
452.170700
 30
0.0
  0
SPLINE
  5
408
100
AcDbEntity
  8
Calque_1
 62
7
100
AcDbSpline
 70
8
 71
3
 72
8
 73
4
 74
0
 40
0
 40
0
 40
0
 40
0
 40
1
 40
1
 40
1
 40
1
 10
263.812030
 20
452.170700
 30
0.0
 10
262.721630
 20
454.269200
 30
0.0
 10
261.603620
 20
456.399200
 30
0.0
 10
259.715120
 20
457.916100
 30
0.0
  0
SPLINE
  5
409
100
AcDbEntity
  8
Calque_1
 62
7
100
AcDbSpline
 70
8
 71
3
 72
8
 73
4
 74
0
 40
0
 40
0
 40
0
 40
0
 40
1
 40
1
 40
1
 40
1
 10
259.715120
 20
457.916100
 30
0.0
 10
258.496220
 20
458.895100
 30
0.0
 10
257.486780
 20
459.311900
 30
0.0
 10
255.993380
 20
459.932000
 30
0.0
  0
SPLINE
  5
40a
100
AcDbEntity
  8
Calque_1
 62
7
100
AcDbSpline
 70
8
 71
3
 72
8
 73
4
 74
0
 40
0
 40
0
 40
0
 40
0
 40
1
 40
1
 40
1
 40
1
 10
255.993380
 20
459.932000
 30
0.0
 10
255.370980
 20
460.190500
 30
0.0
 10
254.748440
 20
460.464200
 30
0.0
 10
254.093240
 20
460.626000
 30
0.0
  0
SPLINE
  5
40b
100
AcDbEntity
  8
Calque_1
 62
7
100
AcDbSpline
 70
8
 71
3
 72
8
 73
4
 74
0
 40
0
 40
0
 40
0
 40
0
 40
1
 40
1
 40
1
 40
1
 10
254.093240
 20
460.626000
 30
0.0
 10
252.688740
 20
460.972700
 30
0.0
 10
249.725680
 20
461.158500
 30
0.0
 10
248.471880
 20
461.168100
 30
0.0
  0
SPLINE
  5
40c
100
AcDbEntity
  8
Calque_1
 62
7
100
AcDbSpline
 70
8
 71
3
 72
8
 73
4
 74
0
 40
0
 40
0
 40
0
 40
0
 40
1
 40
1
 40
1
 40
1
 10
248.471880
 20
461.168100
 30
0.0
 10
248.396580
 20
461.168700
 30
0.0
 10
248.318480
 20
461.168900
 30
0.0
 10
248.237780
 20
461.168100
 30
0.0
  0
LWPOLYLINE
  5
40d
100
AcDbEntity
  8
Calque_1
 62
7
100
AcDbPolyline
 90
1
 70
1
 10
340.229070
 20
469.479700
 30
0.0
  0
SPLINE
  5
40e
100
AcDbEntity
  8
Calque_1
 62
7
100
AcDbSpline
 70
8
 71
3
 72
8
 73
4
 74
0
 40
0
 40
0
 40
0
 40
0
 40
1
 40
1
 40
1
 40
1
 10
52.916370
 20
434.416200
 30
0.0
 10
51.696807
 20
434.416200
 30
0.0
 10
50.428944
 20
434.336200
 30
0.0
 10
49.577039
 20
434.244700
 30
0.0
  0
SPLINE
  5
40f
100
AcDbEntity
  8
Calque_1
 62
7
100
AcDbSpline
 70
8
 71
3
 72
8
 73
4
 74
0
 40
0
 40
0
 40
0
 40
0
 40
1
 40
1
 40
1
 40
1
 10
49.577039
 20
434.244700
 30
0.0
 10
47.549041
 20
434.025800
 30
0.0
 10
45.627723
 20
433.203900
 30
0.0
 10
44.034225
 20
431.946600
 30
0.0
  0
SPLINE
  5
410
100
AcDbEntity
  8
Calque_1
 62
7
100
AcDbSpline
 70
8
 71
3
 72
8
 73
4
 74
0
 40
0
 40
0
 40
0
 40
0
 40
1
 40
1
 40
1
 40
1
 10
44.034225
 20
431.946600
 30
0.0
 10
43.731825
 20
431.707900
 30
0.0
 10
43.466977
 20
431.425400
 30
0.0
 10
43.163477
 20
431.188000
 30
0.0
  0
SPLINE
  5
411
100
AcDbEntity
  8
Calque_1
 62
7
100
AcDbSpline
 70
8
 71
3
 72
8
 73
4
 74
0
 40
0
 40
0
 40
0
 40
0
 40
1
 40
1
 40
1
 40
1
 10
43.163477
 20
431.188000
 30
0.0
 10
42.911777
 20
430.991000
 30
0.0
 10
42.588394
 20
430.879900
 30
0.0
 10
42.371794
 20
430.645900
 30
0.0
  0
SPLINE
  5
412
100
AcDbEntity
  8
Calque_1
 62
7
100
AcDbSpline
 70
8
 71
3
 72
8
 73
4
 74
0
 40
0
 40
0
 40
0
 40
0
 40
1
 40
1
 40
1
 40
1
 10
42.371794
 20
430.645900
 30
0.0
 10
41.704095
 20
429.924300
 30
0.0
 10
41.279286
 20
428.881300
 30
0.0
 10
41.005986
 20
427.957200
 30
0.0
  0
SPLINE
  5
413
100
AcDbEntity
  8
Calque_1
 62
7
100
AcDbSpline
 70
8
 71
3
 72
8
 73
4
 74
0
 40
0
 40
0
 40
0
 40
0
 40
1
 40
1
 40
1
 40
1
 10
41.005986
 20
427.957200
 30
0.0
 10
40.928986
 20
427.698100
 30
0.0
 10
40.812628
 20
427.445700
 30
0.0
 10
40.788428
 20
427.176900
 30
0.0
  0
LWPOLYLINE
  5
414
100
AcDbEntity
  8
Calque_1
 62
7
100
AcDbPolyline
 90
1
 70
1
 10
248.237780
 20
461.168100
 30
0.0
  0
SPLINE
  5
415
100
AcDbEntity
  8
Calque_1
 62
7
100
AcDbSpline
 70
8
 71
3
 72
8
 73
4
 74
0
 40
0
 40
0
 40
0
 40
0
 40
1
 40
1
 40
1
 40
1
 10
40.788428
 20
427.176400
 30
0.0
 10
40.733428
 20
426.564100
 30
0.0
 10
41.182777
 20
425.865400
 30
0.0
 10
41.659176
 20
425.528400
 30
0.0
  0
SPLINE
  5
416
100
AcDbEntity
  8
Calque_1
 62
7
100
AcDbSpline
 70
8
 71
3
 72
8
 73
4
 74
0
 40
0
 40
0
 40
0
 40
0
 40
1
 40
1
 40
1
 40
1
 10
41.659176
 20
425.528400
 30
0.0
 10
41.777276
 20
425.444400
 30
0.0
 10
41.936055
 20
425.442400
 30
0.0
 10
42.074655
 20
425.398700
 30
0.0
  0
LWPOLYLINE
  5
417
100
AcDbEntity
  8
Calque_1
 62
7
100
AcDbPolyline
 90
2
 70
0
 10
40.788428
 20
427.176900
 30
0.0
 10
40.788428
 20
427.176400
 30
0.0
  0
SPLINE
  5
418
100
AcDbEntity
  8
Calque_1
 62
7
100
AcDbSpline
 70
8
 71
3
 72
8
 73
4
 74
0
 40
0
 40
0
 40
0
 40
0
 40
1
 40
1
 40
1
 40
1
 10
44.648141
 20
424.531600
 30
0.0
 10
45.499340
 20
424.004000
 30
0.0
 10
46.315174
 20
423.416700
 30
0.0
 10
47.201473
 20
422.948700
 30
0.0
  0
SPLINE
  5
419
100
AcDbEntity
  8
Calque_1
 62
7
100
AcDbSpline
 70
8
 71
3
 72
8
 73
4
 74
0
 40
0
 40
0
 40
0
 40
0
 40
1
 40
1
 40
1
 40
1
 10
47.201473
 20
422.948700
 30
0.0
 10
49.173571
 20
421.907400
 30
0.0
 10
53.805651
 20
421.680100
 30
0.0
 10
56.069149
 20
421.734300
 30
0.0
  0
SPLINE
  5
41a
100
AcDbEntity
  8
Calque_1
 62
7
100
AcDbSpline
 70
8
 71
3
 72
8
 73
4
 74
0
 40
0
 40
0
 40
0
 40
0
 40
1
 40
1
 40
1
 40
1
 10
56.069149
 20
421.734300
 30
0.0
 10
58.201347
 20
421.785300
 30
0.0
 10
61.711903
 20
422.043900
 30
0.0
 10
63.135898
 20
423.946100
 30
0.0
  0
SPLINE
  5
41b
100
AcDbEntity
  8
Calque_1
 62
7
100
AcDbSpline
 70
8
 71
3
 72
8
 73
4
 74
0
 40
0
 40
0
 40
0
 40
0
 40
1
 40
1
 40
1
 40
1
 10
63.135898
 20
423.946100
 30
0.0
 10
63.930898
 20
425.008000
 30
0.0
 10
63.660458
 20
426.917300
 30
0.0
 10
63.353458
 20
428.043500
 30
0.0
  0
SPLINE
  5
41c
100
AcDbEntity
  8
Calque_1
 62
7
100
AcDbSpline
 70
8
 71
3
 72
8
 73
4
 74
0
 40
0
 40
0
 40
0
 40
0
 40
1
 40
1
 40
1
 40
1
 10
63.353458
 20
428.043500
 30
0.0
 10
63.179858
 20
428.680200
 30
0.0
 10
62.436051
 20
430.154200
 30
0.0
 10
61.987651
 20
430.645400
 30
0.0
  0
SPLINE
  5
41d
100
AcDbEntity
  8
Calque_1
 62
7
100
AcDbSpline
 70
8
 71
3
 72
8
 73
4
 74
0
 40
0
 40
0
 40
0
 40
0
 40
1
 40
1
 40
1
 40
1
 10
61.987651
 20
430.645400
 30
0.0
 10
60.461753
 20
432.316600
 30
0.0
 10
57.667048
 20
433.765200
 30
0.0
 10
55.455750
 20
434.222400
 30
0.0
  0
SPLINE
  5
41e
100
AcDbEntity
  8
Calque_1
 62
7
100
AcDbSpline
 70
8
 71
3
 72
8
 73
4
 74
0
 40
0
 40
0
 40
0
 40
0
 40
1
 40
1
 40
1
 40
1
 10
55.455750
 20
434.222400
 30
0.0
 10
54.784188
 20
434.361300
 30
0.0
 10
53.864919
 20
434.414400
 30
0.0
 10
52.916370
 20
434.416200
 30
0.0
  0
LWPOLYLINE
  5
41f
100
AcDbEntity
  8
Calque_1
 62
7
100
AcDbPolyline
 90
2
 70
0
 10
42.074655
 20
425.398700
 30
0.0
 10
44.648141
 20
424.531600
 30
0.0
  0
SPLINE
  5
420
100
AcDbEntity
  8
Calque_1
 62
7
100
AcDbSpline
 70
8
 71
3
 72
8
 73
4
 74
0
 40
0
 40
0
 40
0
 40
0
 40
1
 40
1
 40
1
 40
1
 10
66.023068
 20
395.518900
 30
0.0
 10
64.710448
 20
395.519800
 30
0.0
 10
63.390308
 20
395.344800
 30
0.0
 10
62.122010
 20
395.095600
 30
0.0
  0
SPLINE
  5
421
100
AcDbEntity
  8
Calque_1
 62
7
100
AcDbSpline
 70
8
 71
3
 72
8
 73
4
 74
0
 40
0
 40
0
 40
0
 40
0
 40
1
 40
1
 40
1
 40
1
 10
62.122010
 20
395.095600
 30
0.0
 10
59.835512
 20
394.646500
 30
0.0
 10
57.201723
 20
393.623000
 30
0.0
 10
55.411825
 20
392.125300
 30
0.0
  0
SPLINE
  5
422
100
AcDbEntity
  8
Calque_1
 62
7
100
AcDbSpline
 70
8
 71
3
 72
8
 73
4
 74
0
 40
0
 40
0
 40
0
 40
0
 40
1
 40
1
 40
1
 40
1
 10
55.411825
 20
392.125300
 30
0.0
 10
54.252326
 20
391.155000
 30
0.0
 10
53.737684
 20
389.812700
 30
0.0
 10
53.693584
 20
388.420100
 30
0.0
  0
SPLINE
  5
423
100
AcDbEntity
  8
Calque_1
 62
7
100
AcDbSpline
 70
8
 71
3
 72
8
 73
4
 74
0
 40
0
 40
0
 40
0
 40
0
 40
1
 40
1
 40
1
 40
1
 10
53.693584
 20
388.420100
 30
0.0
 10
53.659584
 20
387.336900
 30
0.0
 10
53.909794
 20
386.223400
 30
0.0
 10
54.362793
 20
385.231100
 30
0.0
  0
SPLINE
  5
424
100
AcDbEntity
  8
Calque_1
 62
7
100
AcDbSpline
 70
8
 71
3
 72
8
 73
4
 74
0
 40
0
 40
0
 40
0
 40
0
 40
1
 40
1
 40
1
 40
1
 10
54.362793
 20
385.231100
 30
0.0
 10
56.393091
 20
380.783300
 30
0.0
 10
61.169760
 20
377.338200
 30
0.0
 10
65.803958
 20
375.908200
 30
0.0
  0
SPLINE
  5
425
100
AcDbEntity
  8
Calque_1
 62
7
100
AcDbSpline
 70
8
 71
3
 72
8
 73
4
 74
0
 40
0
 40
0
 40
0
 40
0
 40
1
 40
1
 40
1
 40
1
 10
65.803958
 20
375.908200
 30
0.0
 10
68.039648
 20
375.218200
 30
0.0
 10
71.343518
 20
375.192000
 30
0.0
 10
73.543018
 20
376.016700
 30
0.0
  0
SPLINE
  5
426
100
AcDbEntity
  8
Calque_1
 62
7
100
AcDbSpline
 70
8
 71
3
 72
8
 73
4
 74
0
 40
0
 40
0
 40
0
 40
0
 40
1
 40
1
 40
1
 40
1
 10
73.543018
 20
376.016700
 30
0.0
 10
75.505618
 20
376.752500
 30
0.0
 10
76.663118
 20
378.038500
 30
0.0
 10
77.581018
 20
379.810800
 30
0.0
  0
SPLINE
  5
427
100
AcDbEntity
  8
Calque_1
 62
7
100
AcDbSpline
 70
8
 71
3
 72
8
 73
4
 74
0
 40
0
 40
0
 40
0
 40
0
 40
1
 40
1
 40
1
 40
1
 10
77.581018
 20
379.810800
 30
0.0
 10
78.134118
 20
380.878600
 30
0.0
 10
78.534518
 20
381.699500
 30
0.0
 10
78.471918
 20
382.933100
 30
0.0
  0
SPLINE
  5
428
100
AcDbEntity
  8
Calque_1
 62
7
100
AcDbSpline
 70
8
 71
3
 72
8
 73
4
 74
0
 40
0
 40
0
 40
0
 40
0
 40
1
 40
1
 40
1
 40
1
 10
78.471918
 20
382.933100
 30
0.0
 10
78.414918
 20
384.062400
 30
0.0
 10
78.010478
 20
385.000300
 30
0.0
 10
77.561378
 20
386.011400
 30
0.0
  0
LWPOLYLINE
  5
429
100
AcDbEntity
  8
Calque_1
 62
7
100
AcDbPolyline
 90
1
 70
1
 10
52.916370
 20
434.416200
 30
0.0
  0
SPLINE
  5
42a
100
AcDbEntity
  8
Calque_1
 62
7
100
AcDbSpline
 70
8
 71
3
 72
8
 73
4
 74
0
 40
0
 40
0
 40
0
 40
0
 40
1
 40
1
 40
1
 40
1
 10
77.462678
 20
388.916700
 30
0.0
 10
74.676878
 20
391.985800
 30
0.0
 10
72.179498
 20
394.783800
 30
0.0
 10
67.802798
 20
395.399000
 30
0.0
  0
SPLINE
  5
42b
100
AcDbEntity
  8
Calque_1
 62
7
100
AcDbSpline
 70
8
 71
3
 72
8
 73
4
 74
0
 40
0
 40
0
 40
0
 40
0
 40
1
 40
1
 40
1
 40
1
 10
67.802798
 20
395.399000
 30
0.0
 10
67.214988
 20
395.482000
 30
0.0
 10
66.619708
 20
395.518400
 30
0.0
 10
66.023068
 20
395.518900
 30
0.0
  0
LWPOLYLINE
  5
42c
100
AcDbEntity
  8
Calque_1
 62
7
100
AcDbPolyline
 90
2
 70
0
 10
77.561378
 20
386.011400
 30
0.0
 10
77.462678
 20
388.916700
 30
0.0
  0
SPLINE
  5
42d
100
AcDbEntity
  8
Calque_1
 62
7
100
AcDbSpline
 70
8
 71
3
 72
8
 73
4
 74
0
 40
0
 40
0
 40
0
 40
0
 40
1
 40
1
 40
1
 40
1
 10
80.152428
 20
371.546200
 30
0.0
 10
79.708558
 20
371.546200
 30
0.0
 10
79.252248
 20
371.515200
 30
0.0
 10
78.781458
 20
371.441300
 30
0.0
  0
SPLINE
  5
42e
100
AcDbEntity
  8
Calque_1
 62
7
100
AcDbSpline
 70
8
 71
3
 72
8
 73
4
 74
0
 40
0
 40
0
 40
0
 40
0
 40
1
 40
1
 40
1
 40
1
 10
78.781458
 20
371.441300
 30
0.0
 10
76.143158
 20
371.028600
 30
0.0
 10
72.923108
 20
368.962700
 30
0.0
 10
71.576208
 20
366.693200
 30
0.0
  0
SPLINE
  5
42f
100
AcDbEntity
  8
Calque_1
 62
7
100
AcDbSpline
 70
8
 71
3
 72
8
 73
4
 74
0
 40
0
 40
0
 40
0
 40
0
 40
1
 40
1
 40
1
 40
1
 10
71.576208
 20
366.693200
 30
0.0
 10
71.235908
 20
366.119800
 30
0.0
 10
71.058018
 20
365.457900
 30
0.0
 10
70.923018
 20
364.807000
 30
0.0
  0
SPLINE
  5
430
100
AcDbEntity
  8
Calque_1
 62
7
100
AcDbSpline
 70
8
 71
3
 72
8
 73
4
 74
0
 40
0
 40
0
 40
0
 40
0
 40
1
 40
1
 40
1
 40
1
 10
70.923018
 20
364.807000
 30
0.0
 10
70.830018
 20
364.356800
 30
0.0
 10
70.777708
 20
363.908400
 30
0.0
 10
70.765408
 20
363.464000
 30
0.0
  0
SPLINE
  5
431
100
AcDbEntity
  8
Calque_1
 62
7
100
AcDbSpline
 70
8
 71
3
 72
8
 73
4
 74
0
 40
0
 40
0
 40
0
 40
0
 40
1
 40
1
 40
1
 40
1
 10
70.765408
 20
363.464000
 30
0.0
 10
70.712408
 20
361.538100
 30
0.0
 10
71.398658
 20
359.690820
 30
0.0
 10
72.625758
 20
358.129420
 30
0.0
  0
SPLINE
  5
432
100
AcDbEntity
  8
Calque_1
 62
7
100
AcDbSpline
 70
8
 71
3
 72
8
 73
4
 74
0
 40
0
 40
0
 40
0
 40
0
 40
1
 40
1
 40
1
 40
1
 10
72.625758
 20
358.129420
 30
0.0
 10
74.427158
 20
355.837120
 30
0.0
 10
77.241588
 20
353.925520
 30
0.0
 10
80.166388
 20
353.403120
 30
0.0
  0
SPLINE
  5
433
100
AcDbEntity
  8
Calque_1
 62
7
100
AcDbSpline
 70
8
 71
3
 72
8
 73
4
 74
0
 40
0
 40
0
 40
0
 40
0
 40
1
 40
1
 40
1
 40
1
 10
80.166388
 20
353.403120
 30
0.0
 10
81.060788
 20
353.243320
 30
0.0
 10
81.972568
 20
353.195420
 30
0.0
 10
82.878368
 20
353.121420
 30
0.0
  0
SPLINE
  5
434
100
AcDbEntity
  8
Calque_1
 62
7
100
AcDbSpline
 70
8
 71
3
 72
8
 73
4
 74
0
 40
0
 40
0
 40
0
 40
0
 40
1
 40
1
 40
1
 40
1
 10
82.878368
 20
353.121420
 30
0.0
 10
85.489358
 20
352.908220
 30
0.0
 10
88.176848
 20
353.285820
 30
0.0
 10
90.004548
 20
355.332720
 30
0.0
  0
SPLINE
  5
435
100
AcDbEntity
  8
Calque_1
 62
7
100
AcDbSpline
 70
8
 71
3
 72
8
 73
4
 74
0
 40
0
 40
0
 40
0
 40
0
 40
1
 40
1
 40
1
 40
1
 10
90.004548
 20
355.332720
 30
0.0
 10
91.501148
 20
357.008820
 30
0.0
 10
92.106768
 20
359.540820
 30
0.0
 10
91.290768
 20
361.663600
 30
0.0
  0
SPLINE
  5
436
100
AcDbEntity
  8
Calque_1
 62
7
100
AcDbSpline
 70
8
 71
3
 72
8
 73
4
 74
0
 40
0
 40
0
 40
0
 40
0
 40
1
 40
1
 40
1
 40
1
 10
91.290768
 20
361.663600
 30
0.0
 10
91.030768
 20
362.340000
 30
0.0
 10
90.360948
 20
363.366400
 30
0.0
 10
90.004548
 20
363.939900
 30
0.0
  0
SPLINE
  5
437
100
AcDbEntity
  8
Calque_1
 62
7
100
AcDbSpline
 70
8
 71
3
 72
8
 73
4
 74
0
 40
0
 40
0
 40
0
 40
0
 40
1
 40
1
 40
1
 40
1
 10
90.004548
 20
363.939900
 30
0.0
 10
89.632248
 20
364.538800
 30
0.0
 10
89.479448
 20
364.983000
 30
0.0
 10
88.777748
 20
365.110900
 30
0.0
  0
LWPOLYLINE
  5
438
100
AcDbEntity
  8
Calque_1
 62
7
100
AcDbPolyline
 90
1
 70
1
 10
66.023068
 20
395.518900
 30
0.0
  0
SPLINE
  5
439
100
AcDbEntity
  8
Calque_1
 62
7
100
AcDbSpline
 70
8
 71
3
 72
8
 73
4
 74
0
 40
0
 40
0
 40
0
 40
0
 40
1
 40
1
 40
1
 40
1
 10
89.469698
 20
367.126800
 30
0.0
 10
86.548268
 20
369.164500
 30
0.0
 10
83.766848
 20
371.529200
 30
0.0
 10
80.152428
 20
371.546200
 30
0.0
  0
LWPOLYLINE
  5
43a
100
AcDbEntity
  8
Calque_1
 62
7
100
AcDbPolyline
 90
2
 70
0
 10
88.777748
 20
365.110900
 30
0.0
 10
89.469698
 20
367.126800
 30
0.0
  0
SPLINE
  5
43b
100
AcDbEntity
  8
Calque_1
 62
7
100
AcDbSpline
 70
8
 71
3
 72
8
 73
4
 74
0
 40
0
 40
0
 40
0
 40
0
 40
1
 40
1
 40
1
 40
1
 10
176.963060
 20
371.198900
 30
0.0
 10
174.858970
 20
371.186900
 30
0.0
 10
172.829170
 20
370.690200
 30
0.0
 10
170.783600
 20
370.196900
 30
0.0
  0
SPLINE
  5
43c
100
AcDbEntity
  8
Calque_1
 62
7
100
AcDbSpline
 70
8
 71
3
 72
8
 73
4
 74
0
 40
0
 40
0
 40
0
 40
0
 40
1
 40
1
 40
1
 40
1
 10
170.783600
 20
370.196900
 30
0.0
 10
168.452300
 20
369.634600
 30
0.0
 10
164.868840
 20
369.120100
 30
0.0
 10
163.202150
 20
367.204800
 30
0.0
  0
SPLINE
  5
43d
100
AcDbEntity
  8
Calque_1
 62
7
100
AcDbSpline
 70
8
 71
3
 72
8
 73
4
 74
0
 40
0
 40
0
 40
0
 40
0
 40
1
 40
1
 40
1
 40
1
 10
163.202150
 20
367.204800
 30
0.0
 10
162.022750
 20
365.849500
 30
0.0
 10
161.431450
 20
364.195400
 30
0.0
 10
161.371250
 20
362.512100
 30
0.0
  0
SPLINE
  5
43e
100
AcDbEntity
  8
Calque_1
 62
7
100
AcDbSpline
 70
8
 71
3
 72
8
 73
4
 74
0
 40
0
 40
0
 40
0
 40
0
 40
1
 40
1
 40
1
 40
1
 10
161.371250
 20
362.512100
 30
0.0
 10
161.311250
 20
360.828800
 30
0.0
 10
161.782040
 20
359.116220
 30
0.0
 10
162.727240
 20
357.643620
 30
0.0
  0
SPLINE
  5
43f
100
AcDbEntity
  8
Calque_1
 62
7
100
AcDbSpline
 70
8
 71
3
 72
8
 73
4
 74
0
 40
0
 40
0
 40
0
 40
0
 40
1
 40
1
 40
1
 40
1
 10
162.727240
 20
357.643620
 30
0.0
 10
163.553840
 20
356.355820
 30
0.0
 10
164.281910
 20
355.462920
 30
0.0
 10
165.577710
 20
354.695020
 30
0.0
  0
SPLINE
  5
440
100
AcDbEntity
  8
Calque_1
 62
7
100
AcDbSpline
 70
8
 71
3
 72
8
 73
4
 74
0
 40
0
 40
0
 40
0
 40
0
 40
1
 40
1
 40
1
 40
1
 10
165.577710
 20
354.695020
 30
0.0
 10
167.251310
 20
353.703120
 30
0.0
 10
169.138550
 20
353.536820
 30
0.0
 10
171.040940
 20
353.502820
 30
0.0
  0
SPLINE
  5
441
100
AcDbEntity
  8
Calque_1
 62
7
100
AcDbSpline
 70
8
 71
3
 72
8
 73
4
 74
0
 40
0
 40
0
 40
0
 40
0
 40
1
 40
1
 40
1
 40
1
 10
171.040940
 20
353.502820
 30
0.0
 10
175.049040
 20
353.430820
 30
0.0
 10
178.740840
 20
354.369420
 30
0.0
 10
181.749330
 20
357.058220
 30
0.0
  0
SPLINE
  5
442
100
AcDbEntity
  8
Calque_1
 62
7
100
AcDbSpline
 70
8
 71
3
 72
8
 73
4
 74
0
 40
0
 40
0
 40
0
 40
0
 40
1
 40
1
 40
1
 40
1
 10
181.749330
 20
357.058220
 30
0.0
 10
182.302030
 20
357.552320
 30
0.0
 10
183.027850
 20
358.316920
 30
0.0
 10
183.352850
 20
359.009520
 30
0.0
  0
SPLINE
  5
443
100
AcDbEntity
  8
Calque_1
 62
7
100
AcDbSpline
 70
8
 71
3
 72
8
 73
4
 74
0
 40
0
 40
0
 40
0
 40
0
 40
1
 40
1
 40
1
 40
1
 10
183.352850
 20
359.009520
 30
0.0
 10
183.517350
 20
359.360020
 30
0.0
 10
183.935620
 20
360.837000
 30
0.0
 10
184.045320
 20
361.329200
 30
0.0
  0
SPLINE
  5
444
100
AcDbEntity
  8
Calque_1
 62
7
100
AcDbSpline
 70
8
 71
3
 72
8
 73
4
 74
0
 40
0
 40
0
 40
0
 40
0
 40
1
 40
1
 40
1
 40
1
 10
184.045320
 20
361.329200
 30
0.0
 10
184.141320
 20
361.760300
 30
0.0
 10
184.482720
 20
363.426100
 30
0.0
 10
184.421520
 20
363.822600
 30
0.0
  0
SPLINE
  5
445
100
AcDbEntity
  8
Calque_1
 62
7
100
AcDbSpline
 70
8
 71
3
 72
8
 73
4
 74
0
 40
0
 40
0
 40
0
 40
0
 40
1
 40
1
 40
1
 40
1
 10
184.421520
 20
363.822600
 30
0.0
 10
184.312920
 20
364.525600
 30
0.0
 10
183.519080
 20
365.938400
 30
0.0
 10
183.036080
 20
366.467400
 30
0.0
  0
SPLINE
  5
446
100
AcDbEntity
  8
Calque_1
 62
7
100
AcDbSpline
 70
8
 71
3
 72
8
 73
4
 74
0
 40
0
 40
0
 40
0
 40
0
 40
1
 40
1
 40
1
 40
1
 10
183.036080
 20
366.467400
 30
0.0
 10
182.852280
 20
366.668800
 30
0.0
 10
182.622020
 20
366.824700
 30
0.0
 10
182.402520
 20
366.987800
 30
0.0
  0
SPLINE
  5
447
100
AcDbEntity
  8
Calque_1
 62
7
100
AcDbSpline
 70
8
 71
3
 72
8
 73
4
 74
0
 40
0
 40
0
 40
0
 40
0
 40
1
 40
1
 40
1
 40
1
 10
182.402520
 20
366.987800
 30
0.0
 10
182.232120
 20
367.114300
 30
0.0
 10
181.895690
 20
367.126500
 30
0.0
 10
181.868190
 20
367.335000
 30
0.0
  0
SPLINE
  5
448
100
AcDbEntity
  8
Calque_1
 62
7
100
AcDbSpline
 70
8
 71
3
 72
8
 73
4
 74
0
 40
0
 40
0
 40
0
 40
0
 40
1
 40
1
 40
1
 40
1
 10
181.868190
 20
367.335000
 30
0.0
 10
181.791190
 20
367.921500
 30
0.0
 10
182.039740
 20
368.505600
 30
0.0
 10
182.125540
 20
369.091000
 30
0.0
  0
SPLINE
  5
449
100
AcDbEntity
  8
Calque_1
 62
7
100
AcDbSpline
 70
8
 71
3
 72
8
 73
4
 74
0
 40
0
 40
0
 40
0
 40
0
 40
1
 40
1
 40
1
 40
1
 10
182.125540
 20
369.091000
 30
0.0
 10
181.188640
 20
369.712500
 30
0.0
 10
180.326560
 20
370.460700
 30
0.0
 10
179.314860
 20
370.955500
 30
0.0
  0
SPLINE
  5
44a
100
AcDbEntity
  8
Calque_1
 62
7
100
AcDbSpline
 70
8
 71
3
 72
8
 73
4
 74
0
 40
0
 40
0
 40
0
 40
0
 40
1
 40
1
 40
1
 40
1
 10
179.314860
 20
370.955500
 30
0.0
 10
178.878460
 20
371.168900
 30
0.0
 10
178.355670
 20
371.141200
 30
0.0
 10
177.869470
 20
371.172500
 30
0.0
  0
SPLINE
  5
44b
100
AcDbEntity
  8
Calque_1
 62
7
100
AcDbSpline
 70
8
 71
3
 72
8
 73
4
 74
0
 40
0
 40
0
 40
0
 40
0
 40
1
 40
1
 40
1
 40
1
 10
177.869470
 20
371.172500
 30
0.0
 10
177.565580
 20
371.192500
 30
0.0
 10
177.263650
 20
371.200500
 30
0.0
 10
176.963060
 20
371.198500
 30
0.0
  0
LWPOLYLINE
  5
44c
100
AcDbEntity
  8
Calque_1
 62
7
100
AcDbPolyline
 90
1
 70
1
 10
80.152428
 20
371.546200
 30
0.0
  0
SPLINE
  5
44d
100
AcDbEntity
  8
Calque_1
 62
7
100
AcDbSpline
 70
8
 71
3
 72
8
 73
4
 74
0
 40
0
 40
0
 40
0
 40
0
 40
1
 40
1
 40
1
 40
1
 10
283.982890
 20
336.952920
 30
0.0
 10
281.779050
 20
336.952920
 30
0.0
 10
279.625110
 20
336.416020
 30
0.0
 10
278.082990
 20
334.689020
 30
0.0
  0
SPLINE
  5
44e
100
AcDbEntity
  8
Calque_1
 62
7
100
AcDbSpline
 70
8
 71
3
 72
8
 73
4
 74
0
 40
0
 40
0
 40
0
 40
0
 40
1
 40
1
 40
1
 40
1
 10
278.082990
 20
334.689020
 30
0.0
 10
277.054090
 20
333.536620
 30
0.0
 10
276.446330
 20
331.979520
 30
0.0
 10
276.431930
 20
330.429320
 30
0.0
  0
SPLINE
  5
44f
100
AcDbEntity
  8
Calque_1
 62
7
100
AcDbSpline
 70
8
 71
3
 72
8
 73
4
 74
0
 40
0
 40
0
 40
0
 40
0
 40
1
 40
1
 40
1
 40
1
 10
276.431930
 20
330.429320
 30
0.0
 10
276.421930
 20
329.724620
 30
0.0
 10
276.541250
 20
329.021420
 30
0.0
 10
276.796250
 20
328.358120
 30
0.0
  0
SPLINE
  5
450
100
AcDbEntity
  8
Calque_1
 62
7
100
AcDbSpline
 70
8
 71
3
 72
8
 73
4
 74
0
 40
0
 40
0
 40
0
 40
0
 40
1
 40
1
 40
1
 40
1
 10
276.796250
 20
328.358120
 30
0.0
 10
277.056250
 20
327.681620
 30
0.0
 10
277.726490
 20
326.655220
 30
0.0
 10
278.082990
 20
326.081720
 30
0.0
  0
SPLINE
  5
451
100
AcDbEntity
  8
Calque_1
 62
7
100
AcDbSpline
 70
8
 71
3
 72
8
 73
4
 74
0
 40
0
 40
0
 40
0
 40
0
 40
1
 40
1
 40
1
 40
1
 10
278.082990
 20
326.081720
 30
0.0
 10
278.455290
 20
325.482920
 30
0.0
 10
278.608600
 20
325.038820
 30
0.0
 10
279.310300
 20
324.910820
 30
0.0
  0
LWPOLYLINE
  5
452
100
AcDbEntity
  8
Calque_1
 62
7
100
AcDbPolyline
 90
2
 70
0
 10
176.963060
 20
371.198500
 30
0.0
 10
176.963060
 20
371.198900
 30
0.0
  0
SPLINE
  5
453
100
AcDbEntity
  8
Calque_1
 62
7
100
AcDbSpline
 70
8
 71
3
 72
8
 73
4
 74
0
 40
0
 40
0
 40
0
 40
0
 40
1
 40
1
 40
1
 40
1
 10
278.617320
 20
322.894920
 30
0.0
 10
281.897420
 20
320.606920
 30
0.0
 10
285.001680
 20
317.906420
 30
0.0
 10
289.306080
 20
318.579920
 30
0.0
  0
SPLINE
  5
454
100
AcDbEntity
  8
Calque_1
 62
7
100
AcDbSpline
 70
8
 71
3
 72
8
 73
4
 74
0
 40
0
 40
0
 40
0
 40
0
 40
1
 40
1
 40
1
 40
1
 10
289.306080
 20
318.579920
 30
0.0
 10
291.944270
 20
318.992620
 30
0.0
 10
295.164620
 20
321.058920
 30
0.0
 10
296.511320
 20
323.328420
 30
0.0
  0
SPLINE
  5
455
100
AcDbEntity
  8
Calque_1
 62
7
100
AcDbSpline
 70
8
 71
3
 72
8
 73
4
 74
0
 40
0
 40
0
 40
0
 40
0
 40
1
 40
1
 40
1
 40
1
 10
296.511320
 20
323.328420
 30
0.0
 10
296.851720
 20
323.901920
 30
0.0
 10
297.029610
 20
324.563720
 30
0.0
 10
297.164510
 20
325.214620
 30
0.0
  0
SPLINE
  5
456
100
AcDbEntity
  8
Calque_1
 62
7
100
AcDbSpline
 70
8
 71
3
 72
8
 73
4
 74
0
 40
0
 40
0
 40
0
 40
0
 40
1
 40
1
 40
1
 40
1
 10
297.164510
 20
325.214620
 30
0.0
 10
297.662310
 20
327.616020
 30
0.0
 10
296.972490
 20
329.970520
 30
0.0
 10
295.462290
 20
331.892220
 30
0.0
  0
SPLINE
  5
457
100
AcDbEntity
  8
Calque_1
 62
7
100
AcDbSpline
 70
8
 71
3
 72
8
 73
4
 74
0
 40
0
 40
0
 40
0
 40
0
 40
1
 40
1
 40
1
 40
1
 10
295.462290
 20
331.892220
 30
0.0
 10
293.660790
 20
334.184520
 30
0.0
 10
290.845530
 20
336.095720
 30
0.0
 10
287.920630
 20
336.618120
 30
0.0
  0
SPLINE
  5
458
100
AcDbEntity
  8
Calque_1
 62
7
100
AcDbSpline
 70
8
 71
3
 72
8
 73
4
 74
0
 40
0
 40
0
 40
0
 40
0
 40
1
 40
1
 40
1
 40
1
 10
287.920630
 20
336.618120
 30
0.0
 10
287.026330
 20
336.777920
 30
0.0
 10
286.114450
 20
336.826220
 30
0.0
 10
285.208650
 20
336.900220
 30
0.0
  0
SPLINE
  5
459
100
AcDbEntity
  8
Calque_1
 62
7
100
AcDbSpline
 70
8
 71
3
 72
8
 73
4
 74
0
 40
0
 40
0
 40
0
 40
0
 40
1
 40
1
 40
1
 40
1
 10
285.208650
 20
336.900220
 30
0.0
 10
284.800670
 20
336.933220
 30
0.0
 10
284.391010
 20
336.952220
 30
0.0
 10
283.982890
 20
336.953220
 30
0.0
  0
LWPOLYLINE
  5
45a
100
AcDbEntity
  8
Calque_1
 62
7
100
AcDbPolyline
 90
2
 70
0
 10
279.310300
 20
324.910820
 30
0.0
 10
278.617320
 20
322.894920
 30
0.0
  0
SPLINE
  5
45b
100
AcDbEntity
  8
Calque_1
 62
7
100
AcDbSpline
 70
8
 71
3
 72
8
 73
4
 74
0
 40
0
 40
0
 40
0
 40
0
 40
1
 40
1
 40
1
 40
1
 10
269.850420
 20
311.181420
 30
0.0
 10
268.709620
 20
311.181420
 30
0.0
 10
267.634710
 20
311.030320
 30
0.0
 10
266.732260
 20
310.707520
 30
0.0
  0
SPLINE
  5
45c
100
AcDbEntity
  8
Calque_1
 62
7
100
AcDbSpline
 70
8
 71
3
 72
8
 73
4
 74
0
 40
0
 40
0
 40
0
 40
0
 40
1
 40
1
 40
1
 40
1
 10
266.732260
 20
310.707520
 30
0.0
 10
265.885360
 20
310.404620
 30
0.0
 10
264.788500
 20
309.976720
 30
0.0
 10
264.119500
 20
309.298320
 30
0.0
  0
SPLINE
  5
45d
100
AcDbEntity
  8
Calque_1
 62
7
100
AcDbSpline
 70
8
 71
3
 72
8
 73
4
 74
0
 40
0
 40
0
 40
0
 40
0
 40
1
 40
1
 40
1
 40
1
 10
264.119500
 20
309.298320
 30
0.0
 10
263.325100
 20
308.492820
 30
0.0
 10
262.755940
 20
307.169920
 30
0.0
 10
262.496340
 20
306.089720
 30
0.0
  0
SPLINE
  5
45e
100
AcDbEntity
  8
Calque_1
 62
7
100
AcDbSpline
 70
8
 71
3
 72
8
 73
4
 74
0
 40
0
 40
0
 40
0
 40
0
 40
1
 40
1
 40
1
 40
1
 10
262.496340
 20
306.089720
 30
0.0
 10
262.411340
 20
305.734420
 30
0.0
 10
262.402340
 20
305.365420
 30
0.0
 10
262.337700
 20
305.006020
 30
0.0
  0
SPLINE
  5
45f
100
AcDbEntity
  8
Calque_1
 62
7
100
AcDbSpline
 70
8
 71
3
 72
8
 73
4
 74
0
 40
0
 40
0
 40
0
 40
0
 40
1
 40
1
 40
1
 40
1
 10
262.337700
 20
305.006020
 30
0.0
 10
262.263700
 20
304.591920
 30
0.0
 10
262.175050
 20
304.179920
 30
0.0
 10
262.080350
 20
303.769920
 30
0.0
  0
SPLINE
  5
460
100
AcDbEntity
  8
Calque_1
 62
7
100
AcDbSpline
 70
8
 71
3
 72
8
 73
4
 74
0
 40
0
 40
0
 40
0
 40
0
 40
1
 40
1
 40
1
 40
1
 10
262.080350
 20
303.769920
 30
0.0
 10
262.036350
 20
303.578320
 30
0.0
 10
261.906430
 20
303.393720
 30
0.0
 10
261.897930
 20
303.202020
 30
0.0
  0
LWPOLYLINE
  5
461
100
AcDbEntity
  8
Calque_1
 62
7
100
AcDbPolyline
 90
2
 70
0
 10
283.982890
 20
336.953220
 30
0.0
 10
283.982890
 20
336.952920
 30
0.0
  0
SPLINE
  5
462
100
AcDbEntity
  8
Calque_1
 62
7
100
AcDbSpline
 70
8
 71
3
 72
8
 73
4
 74
0
 40
0
 40
0
 40
0
 40
0
 40
1
 40
1
 40
1
 40
1
 10
261.902930
 20
303.119020
 30
0.0
 10
262.043230
 20
302.226120
 30
0.0
 10
262.364500
 20
301.370320
 30
0.0
 10
262.595400
 20
300.495920
 30
0.0
  0
SPLINE
  5
463
100
AcDbEntity
  8
Calque_1
 62
7
100
AcDbSpline
 70
8
 71
3
 72
8
 73
4
 74
0
 40
0
 40
0
 40
0
 40
0
 40
1
 40
1
 40
1
 40
1
 10
262.595400
 20
300.495920
 30
0.0
 10
264.705390
 20
298.306620
 30
0.0
 10
267.097210
 20
295.663220
 30
0.0
 10
270.394400
 20
295.379420
 30
0.0
  0
SPLINE
  5
464
100
AcDbEntity
  8
Calque_1
 62
7
100
AcDbSpline
 70
8
 71
3
 72
8
 73
4
 74
0
 40
0
 40
0
 40
0
 40
0
 40
1
 40
1
 40
1
 40
1
 10
270.394400
 20
295.379420
 30
0.0
 10
272.350800
 20
295.211020
 30
0.0
 10
275.518370
 20
295.306420
 30
0.0
 10
277.381570
 20
296.116420
 30
0.0
  0
SPLINE
  5
465
100
AcDbEntity
  8
Calque_1
 62
7
100
AcDbSpline
 70
8
 71
3
 72
8
 73
4
 74
0
 40
0
 40
0
 40
0
 40
0
 40
1
 40
1
 40
1
 40
1
 10
277.381570
 20
296.116420
 30
0.0
 10
279.687070
 20
297.118920
 30
0.0
 10
281.727860
 20
299.079520
 30
0.0
 10
281.835560
 20
301.709820
 30
0.0
  0
SPLINE
  5
466
100
AcDbEntity
  8
Calque_1
 62
7
100
AcDbSpline
 70
8
 71
3
 72
8
 73
4
 74
0
 40
0
 40
0
 40
0
 40
0
 40
1
 40
1
 40
1
 40
1
 10
281.835560
 20
301.709820
 30
0.0
 10
281.881560
 20
302.826220
 30
0.0
 10
281.319500
 20
304.040820
 30
0.0
 10
280.865600
 20
305.005720
 30
0.0
  0
SPLINE
  5
467
100
AcDbEntity
  8
Calque_1
 62
7
100
AcDbSpline
 70
8
 71
3
 72
8
 73
4
 74
0
 40
0
 40
0
 40
0
 40
0
 40
1
 40
1
 40
1
 40
1
 10
280.865600
 20
305.005720
 30
0.0
 10
280.234400
 20
306.347820
 30
0.0
 10
279.418540
 20
308.027120
 30
0.0
 10
278.114340
 20
308.907820
 30
0.0
  0
SPLINE
  5
468
100
AcDbEntity
  8
Calque_1
 62
7
100
AcDbSpline
 70
8
 71
3
 72
8
 73
4
 74
0
 40
0
 40
0
 40
0
 40
0
 40
1
 40
1
 40
1
 40
1
 10
278.114340
 20
308.907820
 30
0.0
 10
276.112410
 20
310.259720
 30
0.0
 10
272.766140
 20
311.190520
 30
0.0
 10
269.850770
 20
311.181120
 30
0.0
  0
LWPOLYLINE
  5
469
100
AcDbEntity
  8
Calque_1
 62
7
100
AcDbPolyline
 90
3
 70
0
 10
261.897930
 20
303.202020
 30
0.0
 10
261.902930
 20
303.202020
 30
0.0
 10
261.902930
 20
303.119020
 30
0.0
  0
SPLINE
  5
46a
100
AcDbEntity
  8
Calque_1
 62
7
100
AcDbSpline
 70
8
 71
3
 72
8
 73
4
 74
0
 40
0
 40
0
 40
0
 40
0
 40
1
 40
1
 40
1
 40
1
 10
82.119238
 20
297.203920
 30
0.0
 10
80.579878
 20
297.204620
 30
0.0
 10
79.049058
 20
296.921520
 30
0.0
 10
77.616668
 20
296.289320
 30
0.0
  0
SPLINE
  5
46b
100
AcDbEntity
  8
Calque_1
 62
7
100
AcDbSpline
 70
8
 71
3
 72
8
 73
4
 74
0
 40
0
 40
0
 40
0
 40
0
 40
1
 40
1
 40
1
 40
1
 10
77.616668
 20
296.289320
 30
0.0
 10
74.896778
 20
295.088620
 30
0.0
 10
73.948158
 20
293.108420
 30
0.0
 10
72.351358
 20
290.717520
 30
0.0
  0
SPLINE
  5
46c
100
AcDbEntity
  8
Calque_1
 62
7
100
AcDbSpline
 70
8
 71
3
 72
8
 73
4
 74
0
 40
0
 40
0
 40
0
 40
0
 40
1
 40
1
 40
1
 40
1
 10
72.351358
 20
290.717520
 30
0.0
 10
73.286658
 20
289.860420
 30
0.0
 10
75.490668
 20
287.554220
 30
0.0
 10
77.043058
 20
286.836620
 30
0.0
  0
SPLINE
  5
46d
100
AcDbEntity
  8
Calque_1
 62
7
100
AcDbSpline
 70
8
 71
3
 72
8
 73
4
 74
0
 40
0
 40
0
 40
0
 40
0
 40
1
 40
1
 40
1
 40
1
 10
77.043058
 20
286.836620
 30
0.0
 10
78.394068
 20
286.212120
 30
0.0
 10
80.548808
 20
285.687920
 30
0.0
 10
82.050508
 20
285.470820
 30
0.0
  0
SPLINE
  5
46e
100
AcDbEntity
  8
Calque_1
 62
7
100
AcDbSpline
 70
8
 71
3
 72
8
 73
4
 74
0
 40
0
 40
0
 40
0
 40
0
 40
1
 40
1
 40
1
 40
1
 10
82.050508
 20
285.470820
 30
0.0
 10
82.909408
 20
285.346620
 30
0.0
 10
83.777548
 20
285.284720
 30
0.0
 10
84.644148
 20
285.232620
 30
0.0
  0
SPLINE
  5
46f
100
AcDbEntity
  8
Calque_1
 62
7
100
AcDbSpline
 70
8
 71
3
 72
8
 73
4
 74
0
 40
0
 40
0
 40
0
 40
0
 40
1
 40
1
 40
1
 40
1
 10
84.644148
 20
285.232620
 30
0.0
 10
87.251548
 20
285.075420
 30
0.0
 10
91.285918
 20
284.792120
 30
0.0
 10
93.274108
 20
287.053620
 30
0.0
  0
SPLINE
  5
470
100
AcDbEntity
  8
Calque_1
 62
7
100
AcDbSpline
 70
8
 71
3
 72
8
 73
4
 74
0
 40
0
 40
0
 40
0
 40
0
 40
1
 40
1
 40
1
 40
1
 10
93.274108
 20
287.053620
 30
0.0
 10
94.115708
 20
288.010820
 30
0.0
 10
94.359928
 20
288.695920
 30
0.0
 10
94.085428
 20
289.915520
 30
0.0
  0
SPLINE
  5
471
100
AcDbEntity
  8
Calque_1
 62
7
100
AcDbSpline
 70
8
 71
3
 72
8
 73
4
 74
0
 40
0
 40
0
 40
0
 40
0
 40
1
 40
1
 40
1
 40
1
 10
94.085428
 20
289.915520
 30
0.0
 10
93.547128
 20
292.307820
 30
0.0
 10
91.507408
 20
293.962720
 30
0.0
 10
89.473308
 20
295.140520
 30
0.0
  0
SPLINE
  5
472
100
AcDbEntity
  8
Calque_1
 62
7
100
AcDbSpline
 70
8
 71
3
 72
8
 73
4
 74
0
 40
0
 40
0
 40
0
 40
0
 40
1
 40
1
 40
1
 40
1
 10
89.473308
 20
295.140520
 30
0.0
 10
87.274438
 20
296.413720
 30
0.0
 10
84.684838
 20
297.202820
 30
0.0
 10
82.119238
 20
297.203920
 30
0.0
  0
LWPOLYLINE
  5
473
100
AcDbEntity
  8
Calque_1
 62
7
100
AcDbPolyline
 90
2
 70
0
 10
269.850770
 20
311.181120
 30
0.0
 10
269.850420
 20
311.181420
 30
0.0
  0
SPLINE
  5
474
100
AcDbEntity
  8
Calque_1
 62
7
100
AcDbSpline
 70
8
 71
3
 72
8
 73
4
 74
0
 40
0
 40
0
 40
0
 40
0
 40
1
 40
1
 40
1
 40
1
 10
361.545590
 20
258.133420
 30
0.0
 10
356.757640
 20
258.122420
 30
0.0
 10
350.980850
 20
256.120120
 30
0.0
 10
347.319070
 20
253.141520
 30
0.0
  0
SPLINE
  5
475
100
AcDbEntity
  8
Calque_1
 62
7
100
AcDbSpline
 70
8
 71
3
 72
8
 73
4
 74
0
 40
0
 40
0
 40
0
 40
0
 40
1
 40
1
 40
1
 40
1
 10
347.319070
 20
253.141520
 30
0.0
 10
346.323670
 20
252.331820
 30
0.0
 10
345.397930
 20
251.436520
 30
0.0
 10
344.528030
 20
250.496720
 30
0.0
  0
SPLINE
  5
476
100
AcDbEntity
  8
Calque_1
 62
7
100
AcDbSpline
 70
8
 71
3
 72
8
 73
4
 74
0
 40
0
 40
0
 40
0
 40
0
 40
1
 40
1
 40
1
 40
1
 10
344.528030
 20
250.496720
 30
0.0
 10
342.835730
 20
248.668220
 30
0.0
 10
341.479640
 20
246.213420
 30
0.0
 10
341.479640
 20
243.667120
 30
0.0
  0
SPLINE
  5
477
100
AcDbEntity
  8
Calque_1
 62
7
100
AcDbSpline
 70
8
 71
3
 72
8
 73
4
 74
0
 40
0
 40
0
 40
0
 40
0
 40
1
 40
1
 40
1
 40
1
 10
341.479640
 20
243.667120
 30
0.0
 10
341.479640
 20
242.748920
 30
0.0
 10
342.325740
 20
240.796920
 30
0.0
 10
342.885240
 20
240.111320
 30
0.0
  0
SPLINE
  5
478
100
AcDbEntity
  8
Calque_1
 62
7
100
AcDbSpline
 70
8
 71
3
 72
8
 73
4
 74
0
 40
0
 40
0
 40
0
 40
0
 40
1
 40
1
 40
1
 40
1
 10
342.885240
 20
240.111320
 30
0.0
 10
344.121330
 20
238.596320
 30
0.0
 10
345.160770
 20
238.048520
 30
0.0
 10
346.942870
 20
237.358020
 30
0.0
  0
SPLINE
  5
479
100
AcDbEntity
  8
Calque_1
 62
7
100
AcDbSpline
 70
8
 71
3
 72
8
 73
4
 74
0
 40
0
 40
0
 40
0
 40
0
 40
1
 40
1
 40
1
 40
1
 10
346.942870
 20
237.358020
 30
0.0
 10
350.892660
 20
235.827420
 30
0.0
 10
355.328940
 20
236.539320
 30
0.0
 10
359.373630
 20
237.184820
 30
0.0
  0
SPLINE
  5
47a
100
AcDbEntity
  8
Calque_1
 62
7
100
AcDbSpline
 70
8
 71
3
 72
8
 73
4
 74
0
 40
0
 40
0
 40
0
 40
0
 40
1
 40
1
 40
1
 40
1
 10
359.373630
 20
237.184820
 30
0.0
 10
360.346730
 20
237.340220
 30
0.0
 10
361.321320
 20
237.492320
 30
0.0
 10
362.283020
 20
237.705220
 30
0.0
  0
SPLINE
  5
47b
100
AcDbEntity
  8
Calque_1
 62
7
100
AcDbSpline
 70
8
 71
3
 72
8
 73
4
 74
0
 40
0
 40
0
 40
0
 40
0
 40
1
 40
1
 40
1
 40
1
 10
362.283020
 20
237.705220
 30
0.0
 10
364.404520
 20
238.174920
 30
0.0
 10
367.960580
 20
239.160220
 30
0.0
 10
369.686180
 20
240.502020
 30
0.0
  0
SPLINE
  5
47c
100
AcDbEntity
  8
Calque_1
 62
7
100
AcDbSpline
 70
8
 71
3
 72
8
 73
4
 74
0
 40
0
 40
0
 40
0
 40
0
 40
1
 40
1
 40
1
 40
1
 10
369.686180
 20
240.502020
 30
0.0
 10
370.506180
 20
241.139720
 30
0.0
 10
371.097980
 20
242.019520
 30
0.0
 10
371.803880
 20
242.778320
 30
0.0
  0
LWPOLYLINE
  5
47d
100
AcDbEntity
  8
Calque_1
 62
7
100
AcDbPolyline
 90
1
 70
1
 10
82.119238
 20
297.203920
 30
0.0
  0
SPLINE
  5
47e
100
AcDbEntity
  8
Calque_1
 62
7
100
AcDbSpline
 70
8
 71
3
 72
8
 73
4
 74
0
 40
0
 40
0
 40
0
 40
0
 40
1
 40
1
 40
1
 40
1
 10
372.239520
 20
245.184920
 30
0.0
 10
373.001210
 20
246.157720
 30
0.0
 10
372.992330
 20
247.449520
 30
0.0
 10
372.853430
 20
248.610520
 30
0.0
  0
SPLINE
  5
47f
100
AcDbEntity
  8
Calque_1
 62
7
100
AcDbSpline
 70
8
 71
3
 72
8
 73
4
 74
0
 40
0
 40
0
 40
0
 40
0
 40
1
 40
1
 40
1
 40
1
 10
372.853430
 20
248.610520
 30
0.0
 10
372.513030
 20
251.455420
 30
0.0
 10
370.117110
 20
255.872420
 30
0.0
 10
367.350410
 20
257.044120
 30
0.0
  0
SPLINE
  5
480
100
AcDbEntity
  8
Calque_1
 62
7
100
AcDbSpline
 70
8
 71
3
 72
8
 73
4
 74
0
 40
0
 40
0
 40
0
 40
0
 40
1
 40
1
 40
1
 40
1
 10
367.350410
 20
257.044120
 30
0.0
 10
365.803210
 20
257.699420
 30
0.0
 10
363.707030
 20
258.085620
 30
0.0
 10
362.006030
 20
258.128320
 30
0.0
  0
SPLINE
  5
481
100
AcDbEntity
  8
Calque_1
 62
7
100
AcDbSpline
 70
8
 71
3
 72
8
 73
4
 74
0
 40
0
 40
0
 40
0
 40
0
 40
1
 40
1
 40
1
 40
1
 10
362.006030
 20
258.128320
 30
0.0
 10
361.853740
 20
258.128320
 30
0.0
 10
361.700040
 20
258.138320
 30
0.0
 10
361.545590
 20
258.138320
 30
0.0
  0
LWPOLYLINE
  5
482
100
AcDbEntity
  8
Calque_1
 62
7
100
AcDbPolyline
 90
2
 70
0
 10
371.803880
 20
242.778320
 30
0.0
 10
372.239520
 20
245.184920
 30
0.0
  0
SPLINE
  5
483
100
AcDbEntity
  8
Calque_1
 62
7
100
AcDbSpline
 70
8
 71
3
 72
8
 73
4
 74
0
 40
0
 40
0
 40
0
 40
0
 40
1
 40
1
 40
1
 40
1
 10
321.076230
 20
214.556820
 30
0.0
 10
320.052630
 20
214.566820
 30
0.0
 10
319.066020
 20
214.456720
 30
0.0
 10
318.189580
 20
214.215720
 30
0.0
  0
SPLINE
  5
484
100
AcDbEntity
  8
Calque_1
 62
7
100
AcDbSpline
 70
8
 71
3
 72
8
 73
4
 74
0
 40
0
 40
0
 40
0
 40
0
 40
1
 40
1
 40
1
 40
1
 10
318.189580
 20
214.215720
 30
0.0
 10
314.676790
 20
213.250020
 30
0.0
 10
311.492850
 20
211.136020
 30
0.0
 10
309.619050
 20
207.993320
 30
0.0
  0
SPLINE
  5
485
100
AcDbEntity
  8
Calque_1
 62
7
100
AcDbSpline
 70
8
 71
3
 72
8
 73
4
 74
0
 40
0
 40
0
 40
0
 40
0
 40
1
 40
1
 40
1
 40
1
 10
309.619050
 20
207.993320
 30
0.0
 10
308.947750
 20
206.867620
 30
0.0
 10
308.630240
 20
205.566220
 30
0.0
 10
308.607740
 20
204.247320
 30
0.0
  0
SPLINE
  5
486
100
AcDbEntity
  8
Calque_1
 62
7
100
AcDbSpline
 70
8
 71
3
 72
8
 73
4
 74
0
 40
0
 40
0
 40
0
 40
0
 40
1
 40
1
 40
1
 40
1
 10
308.607740
 20
204.247320
 30
0.0
 10
308.578740
 20
202.551620
 30
0.0
 10
309.037560
 20
200.826620
 30
0.0
 10
309.856760
 20
199.407820
 30
0.0
  0
SPLINE
  5
487
100
AcDbEntity
  8
Calque_1
 62
7
100
AcDbSpline
 70
8
 71
3
 72
8
 73
4
 74
0
 40
0
 40
0
 40
0
 40
0
 40
1
 40
1
 40
1
 40
1
 10
309.856760
 20
199.407820
 30
0.0
 10
310.194560
 20
198.822720
 30
0.0
 10
310.693580
 20
198.338220
 30
0.0
 10
311.182780
 20
197.868420
 30
0.0
  0
SPLINE
  5
488
100
AcDbEntity
  8
Calque_1
 62
7
100
AcDbSpline
 70
8
 71
3
 72
8
 73
4
 74
0
 40
0
 40
0
 40
0
 40
0
 40
1
 40
1
 40
1
 40
1
 10
311.182780
 20
197.868420
 30
0.0
 10
311.608880
 20
197.459220
 30
0.0
 10
312.064260
 20
197.062420
 30
0.0
 10
312.587860
 20
196.784220
 30
0.0
  0
SPLINE
  5
489
100
AcDbEntity
  8
Calque_1
 62
7
100
AcDbSpline
 70
8
 71
3
 72
8
 73
4
 74
0
 40
0
 40
0
 40
0
 40
0
 40
1
 40
1
 40
1
 40
1
 10
312.587860
 20
196.784220
 30
0.0
 10
314.460360
 20
195.789220
 30
0.0
 10
315.640180
 20
195.545920
 30
0.0
 10
317.714680
 20
195.375020
 30
0.0
  0
SPLINE
  5
48a
100
AcDbEntity
  8
Calque_1
 62
7
100
AcDbSpline
 70
8
 71
3
 72
8
 73
4
 74
0
 40
0
 40
0
 40
0
 40
0
 40
1
 40
1
 40
1
 40
1
 10
317.714680
 20
195.375020
 30
0.0
 10
321.927670
 20
195.028020
 30
0.0
 10
326.130250
 20
195.617420
 30
0.0
 10
330.244150
 20
196.459220
 30
0.0
  0
LWPOLYLINE
  5
48b
100
AcDbEntity
  8
Calque_1
 62
7
100
AcDbPolyline
 90
2
 70
0
 10
361.545590
 20
258.138320
 30
0.0
 10
361.545590
 20
258.133420
 30
0.0
  0
SPLINE
  5
48c
100
AcDbEntity
  8
Calque_1
 62
7
100
AcDbSpline
 70
8
 71
3
 72
8
 73
4
 74
0
 40
0
 40
0
 40
0
 40
0
 40
1
 40
1
 40
1
 40
1
 10
328.443220
 20
198.345420
 30
0.0
 10
329.576620
 20
199.337520
 30
0.0
 10
331.091080
 20
200.123620
 30
0.0
 10
331.807880
 20
201.510520
 30
0.0
  0
SPLINE
  5
48d
100
AcDbEntity
  8
Calque_1
 62
7
100
AcDbSpline
 70
8
 71
3
 72
8
 73
4
 74
0
 40
0
 40
0
 40
0
 40
0
 40
1
 40
1
 40
1
 40
1
 10
331.807880
 20
201.510520
 30
0.0
 10
332.376270
 20
202.610320
 30
0.0
 10
332.459070
 20
203.948220
 30
0.0
 10
332.322570
 20
205.153220
 30
0.0
  0
SPLINE
  5
48e
100
AcDbEntity
  8
Calque_1
 62
7
100
AcDbSpline
 70
8
 71
3
 72
8
 73
4
 74
0
 40
0
 40
0
 40
0
 40
0
 40
1
 40
1
 40
1
 40
1
 10
332.322570
 20
205.153220
 30
0.0
 10
332.256570
 20
205.735920
 30
0.0
 10
332.178550
 20
206.320820
 30
0.0
 10
332.025950
 20
206.887520
 30
0.0
  0
SPLINE
  5
48f
100
AcDbEntity
  8
Calque_1
 62
7
100
AcDbSpline
 70
8
 71
3
 72
8
 73
4
 74
0
 40
0
 40
0
 40
0
 40
0
 40
1
 40
1
 40
1
 40
1
 10
332.025950
 20
206.887520
 30
0.0
 10
331.540550
 20
208.689720
 30
0.0
 10
329.910570
 20
211.257420
 30
0.0
 10
328.423070
 20
212.351220
 30
0.0
  0
SPLINE
  5
490
100
AcDbEntity
  8
Calque_1
 62
7
100
AcDbSpline
 70
8
 71
3
 72
8
 73
4
 74
0
 40
0
 40
0
 40
0
 40
0
 40
1
 40
1
 40
1
 40
1
 10
328.423070
 20
212.351220
 30
0.0
 10
326.549150
 20
213.729220
 30
0.0
 10
323.692110
 20
214.532220
 30
0.0
 10
321.076230
 20
214.556820
 30
0.0
  0
LWPOLYLINE
  5
491
100
AcDbEntity
  8
Calque_1
 62
7
100
AcDbPolyline
 90
2
 70
0
 10
330.244150
 20
196.459220
 30
0.0
 10
328.443220
 20
198.345420
 30
0.0
  0
SPLINE
  5
492
100
AcDbEntity
  8
Calque_1
 62
7
100
AcDbSpline
 70
8
 71
3
 72
8
 73
4
 74
0
 40
0
 40
0
 40
0
 40
0
 40
1
 40
1
 40
1
 40
1
 10
291.108030
 20
206.287020
 30
0.0
 10
290.949290
 20
206.287020
 30
0.0
 10
290.798880
 20
206.287020
 30
0.0
 10
290.657420
 20
206.277020
 30
0.0
  0
SPLINE
  5
493
100
AcDbEntity
  8
Calque_1
 62
7
100
AcDbSpline
 70
8
 71
3
 72
8
 73
4
 74
0
 40
0
 40
0
 40
0
 40
0
 40
1
 40
1
 40
1
 40
1
 10
290.657420
 20
206.277020
 30
0.0
 10
288.525220
 20
206.226020
 30
0.0
 10
285.015180
 20
205.968020
 30
0.0
 10
283.591180
 20
204.065720
 30
0.0
  0
SPLINE
  5
494
100
AcDbEntity
  8
Calque_1
 62
7
100
AcDbSpline
 70
8
 71
3
 72
8
 73
4
 74
0
 40
0
 40
0
 40
0
 40
0
 40
1
 40
1
 40
1
 40
1
 10
283.591180
 20
204.065720
 30
0.0
 10
283.193680
 20
203.534820
 30
0.0
 10
283.062230
 20
202.791920
 30
0.0
 10
283.068730
 20
202.041120
 30
0.0
  0
SPLINE
  5
495
100
AcDbEntity
  8
Calque_1
 62
7
100
AcDbSpline
 70
8
 71
3
 72
8
 73
4
 74
0
 40
0
 40
0
 40
0
 40
0
 40
1
 40
1
 40
1
 40
1
 10
283.068730
 20
202.041120
 30
0.0
 10
283.078730
 20
201.290220
 30
0.0
 10
283.219610
 20
200.531420
 30
0.0
 10
283.373110
 20
199.968320
 30
0.0
  0
SPLINE
  5
496
100
AcDbEntity
  8
Calque_1
 62
7
100
AcDbSpline
 70
8
 71
3
 72
8
 73
4
 74
0
 40
0
 40
0
 40
0
 40
0
 40
1
 40
1
 40
1
 40
1
 10
283.373110
 20
199.968320
 30
0.0
 10
283.546710
 20
199.331620
 30
0.0
 10
284.290510
 20
197.857620
 30
0.0
 10
284.738910
 20
197.366420
 30
0.0
  0
SPLINE
  5
497
100
AcDbEntity
  8
Calque_1
 62
7
100
AcDbSpline
 70
8
 71
3
 72
8
 73
4
 74
0
 40
0
 40
0
 40
0
 40
0
 40
1
 40
1
 40
1
 40
1
 10
284.738910
 20
197.366420
 30
0.0
 10
286.264710
 20
195.695220
 30
0.0
 10
289.059520
 20
194.246620
 30
0.0
 10
291.270810
 20
193.789420
 30
0.0
  0
SPLINE
  5
498
100
AcDbEntity
  8
Calque_1
 62
7
100
AcDbSpline
 70
8
 71
3
 72
8
 73
4
 74
0
 40
0
 40
0
 40
0
 40
0
 40
1
 40
1
 40
1
 40
1
 10
291.270810
 20
193.789420
 30
0.0
 10
292.805810
 20
193.472020
 30
0.0
 10
295.635540
 20
193.604620
 30
0.0
 10
297.150040
 20
193.767420
 30
0.0
  0
SPLINE
  5
499
100
AcDbEntity
  8
Calque_1
 62
7
100
AcDbSpline
 70
8
 71
3
 72
8
 73
4
 74
0
 40
0
 40
0
 40
0
 40
0
 40
1
 40
1
 40
1
 40
1
 10
297.150040
 20
193.767420
 30
0.0
 10
299.178040
 20
193.986220
 30
0.0
 10
301.098840
 20
194.808120
 30
0.0
 10
302.692340
 20
196.065420
 30
0.0
  0
SPLINE
  5
49a
100
AcDbEntity
  8
Calque_1
 62
7
100
AcDbSpline
 70
8
 71
3
 72
8
 73
4
 74
0
 40
0
 40
0
 40
0
 40
0
 40
1
 40
1
 40
1
 40
1
 10
302.692340
 20
196.065420
 30
0.0
 10
302.994740
 20
196.304120
 30
0.0
 10
303.259590
 20
196.586620
 30
0.0
 10
303.563090
 20
196.824020
 30
0.0
  0
SPLINE
  5
49b
100
AcDbEntity
  8
Calque_1
 62
7
100
AcDbSpline
 70
8
 71
3
 72
8
 73
4
 74
0
 40
0
 40
0
 40
0
 40
0
 40
1
 40
1
 40
1
 40
1
 10
303.563090
 20
196.824020
 30
0.0
 10
303.814790
 20
197.020920
 30
0.0
 10
304.138170
 20
197.132120
 30
0.0
 10
304.354770
 20
197.366120
 30
0.0
  0
SPLINE
  5
49c
100
AcDbEntity
  8
Calque_1
 62
7
100
AcDbSpline
 70
8
 71
3
 72
8
 73
4
 74
0
 40
0
 40
0
 40
0
 40
0
 40
1
 40
1
 40
1
 40
1
 10
304.354770
 20
197.366120
 30
0.0
 10
305.022370
 20
198.087720
 30
0.0
 10
305.447280
 20
199.130220
 30
0.0
 10
305.720580
 20
200.054320
 30
0.0
  0
SPLINE
  5
49d
100
AcDbEntity
  8
Calque_1
 62
7
100
AcDbSpline
 70
8
 71
3
 72
8
 73
4
 74
0
 40
0
 40
0
 40
0
 40
0
 40
1
 40
1
 40
1
 40
1
 10
305.720580
 20
200.054320
 30
0.0
 10
305.797580
 20
200.313320
 30
0.0
 10
305.914450
 20
200.566420
 30
0.0
 10
305.938650
 20
200.835120
 30
0.0
  0
SPLINE
  5
49e
100
AcDbEntity
  8
Calque_1
 62
7
100
AcDbSpline
 70
8
 71
3
 72
8
 73
4
 74
0
 40
0
 40
0
 40
0
 40
0
 40
1
 40
1
 40
1
 40
1
 10
305.938650
 20
200.835120
 30
0.0
 10
305.993650
 20
201.447520
 30
0.0
 10
305.543790
 20
202.145620
 30
0.0
 10
305.067390
 20
202.482620
 30
0.0
  0
SPLINE
  5
49f
100
AcDbEntity
  8
Calque_1
 62
7
100
AcDbSpline
 70
8
 71
3
 72
8
 73
4
 74
0
 40
0
 40
0
 40
0
 40
0
 40
1
 40
1
 40
1
 40
1
 10
305.067390
 20
202.482620
 30
0.0
 10
304.949290
 20
202.566620
 30
0.0
 10
304.790510
 20
202.569620
 30
0.0
 10
304.651910
 20
202.612820
 30
0.0
  0
LWPOLYLINE
  5
4a0
100
AcDbEntity
  8
Calque_1
 62
7
100
AcDbPolyline
 90
1
 70
1
 10
321.076230
 20
214.556820
 30
0.0
  0
SPLINE
  5
4a1
100
AcDbEntity
  8
Calque_1
 62
7
100
AcDbSpline
 70
8
 71
3
 72
8
 73
4
 74
0
 40
0
 40
0
 40
0
 40
0
 40
1
 40
1
 40
1
 40
1
 10
302.078420
 20
203.479920
 30
0.0
 10
301.227220
 20
204.007520
 30
0.0
 10
300.411390
 20
204.594820
 30
0.0
 10
299.525090
 20
205.062820
 30
0.0
  0
SPLINE
  5
4a2
100
AcDbEntity
  8
Calque_1
 62
7
100
AcDbSpline
 70
8
 71
3
 72
8
 73
4
 74
0
 40
0
 40
0
 40
0
 40
0
 40
1
 40
1
 40
1
 40
1
 10
299.525090
 20
205.062820
 30
0.0
 10
297.676250
 20
206.038920
 30
0.0
 10
293.489220
 20
206.299320
 30
0.0
 10
291.108030
 20
206.283420
 30
0.0
  0
LWPOLYLINE
  5
4a3
100
AcDbEntity
  8
Calque_1
 62
7
100
AcDbPolyline
 90
2
 70
0
 10
304.651910
 20
202.612820
 30
0.0
 10
302.078420
 20
203.479920
 30
0.0
  0
SPLINE
  5
4a4
100
AcDbEntity
  8
Calque_1
 62
7
100
AcDbSpline
 70
8
 71
3
 72
8
 73
4
 74
0
 40
0
 40
0
 40
0
 40
0
 40
1
 40
1
 40
1
 40
1
 10
133.223100
 20
183.842920
 30
0.0
 10
132.606750
 20
183.842920
 30
0.0
 10
132.020880
 20
183.791920
 30
0.0
 10
131.498140
 20
183.669820
 30
0.0
  0
SPLINE
  5
4a5
100
AcDbEntity
  8
Calque_1
 62
7
100
AcDbSpline
 70
8
 71
3
 72
8
 73
4
 74
0
 40
0
 40
0
 40
0
 40
0
 40
1
 40
1
 40
1
 40
1
 10
131.498140
 20
183.669820
 30
0.0
 10
129.389040
 20
183.175620
 30
0.0
 10
127.480940
 20
181.784520
 30
0.0
 10
125.857140
 20
180.439520
 30
0.0
  0
SPLINE
  5
4a6
100
AcDbEntity
  8
Calque_1
 62
7
100
AcDbSpline
 70
8
 71
3
 72
8
 73
4
 74
0
 40
0
 40
0
 40
0
 40
0
 40
1
 40
1
 40
1
 40
1
 10
125.857140
 20
180.439520
 30
0.0
 10
124.667340
 20
179.454020
 30
0.0
 10
123.845010
 20
178.835620
 30
0.0
 10
123.303810
 20
177.317720
 30
0.0
  0
SPLINE
  5
4a7
100
AcDbEntity
  8
Calque_1
 62
7
100
AcDbSpline
 70
8
 71
3
 72
8
 73
4
 74
0
 40
0
 40
0
 40
0
 40
0
 40
1
 40
1
 40
1
 40
1
 10
123.303810
 20
177.317720
 30
0.0
 10
123.093010
 20
176.726720
 30
0.0
 10
123.075090
 20
176.079520
 30
0.0
 10
123.066090
 20
175.453220
 30
0.0
  0
SPLINE
  5
4a8
100
AcDbEntity
  8
Calque_1
 62
7
100
AcDbSpline
 70
8
 71
3
 72
8
 73
4
 74
0
 40
0
 40
0
 40
0
 40
0
 40
1
 40
1
 40
1
 40
1
 10
123.066090
 20
175.453220
 30
0.0
 10
123.033090
 20
173.143320
 30
0.0
 10
123.408980
 20
172.311620
 30
0.0
 10
124.372470
 20
170.032920
 30
0.0
  0
SPLINE
  5
4a9
100
AcDbEntity
  8
Calque_1
 62
7
100
AcDbSpline
 70
8
 71
3
 72
8
 73
4
 74
0
 40
0
 40
0
 40
0
 40
0
 40
1
 40
1
 40
1
 40
1
 10
124.372470
 20
170.032920
 30
0.0
 10
124.829670
 20
168.951620
 30
0.0
 10
125.913490
 20
166.960020
 30
0.0
 10
126.727890
 20
166.043520
 30
0.0
  0
SPLINE
  5
4aa
100
AcDbEntity
  8
Calque_1
 62
7
100
AcDbSpline
 70
8
 71
3
 72
8
 73
4
 74
0
 40
0
 40
0
 40
0
 40
0
 40
1
 40
1
 40
1
 40
1
 10
126.727890
 20
166.043520
 30
0.0
 10
127.209490
 20
165.501720
 30
0.0
 10
127.782480
 20
165.040020
 30
0.0
 10
128.370680
 20
164.612520
 30
0.0
  0
SPLINE
  5
4ab
100
AcDbEntity
  8
Calque_1
 62
7
100
AcDbSpline
 70
8
 71
3
 72
8
 73
4
 74
0
 40
0
 40
0
 40
0
 40
0
 40
1
 40
1
 40
1
 40
1
 10
128.370680
 20
164.612520
 30
0.0
 10
130.922080
 20
162.758620
 30
0.0
 10
133.767770
 20
161.633120
 30
0.0
 10
136.961370
 20
161.599320
 30
0.0
  0
SPLINE
  5
4ac
100
AcDbEntity
  8
Calque_1
 62
7
100
AcDbSpline
 70
8
 71
3
 72
8
 73
4
 74
0
 40
0
 40
0
 40
0
 40
0
 40
1
 40
1
 40
1
 40
1
 10
136.961370
 20
161.599320
 30
0.0
 10
138.009270
 20
161.588320
 30
0.0
 10
139.408970
 20
161.861420
 30
0.0
 10
140.385970
 20
162.227720
 30
0.0
  0
SPLINE
  5
4ad
100
AcDbEntity
  8
Calque_1
 62
7
100
AcDbSpline
 70
8
 71
3
 72
8
 73
4
 74
0
 40
0
 40
0
 40
0
 40
0
 40
1
 40
1
 40
1
 40
1
 10
140.385970
 20
162.227720
 30
0.0
 10
142.973160
 20
163.197620
 30
0.0
 10
144.398190
 20
164.468820
 30
0.0
 10
145.611490
 20
166.910620
 30
0.0
  0
SPLINE
  5
4ae
100
AcDbEntity
  8
Calque_1
 62
7
100
AcDbSpline
 70
8
 71
3
 72
8
 73
4
 74
0
 40
0
 40
0
 40
0
 40
0
 40
1
 40
1
 40
1
 40
1
 10
145.611490
 20
166.910620
 30
0.0
 10
145.927790
 20
167.547220
 30
0.0
 10
146.437260
 20
169.058020
 30
0.0
 10
146.541660
 20
169.772420
 30
0.0
  0
SPLINE
  5
4af
100
AcDbEntity
  8
Calque_1
 62
7
100
AcDbSpline
 70
8
 71
3
 72
8
 73
4
 74
0
 40
0
 40
0
 40
0
 40
0
 40
1
 40
1
 40
1
 40
1
 10
146.541660
 20
169.772420
 30
0.0
 10
146.780560
 20
171.407920
 30
0.0
 10
146.840740
 20
173.372120
 30
0.0
 10
145.868840
 20
174.802620
 30
0.0
  0
SPLINE
  5
4b0
100
AcDbEntity
  8
Calque_1
 62
7
100
AcDbSpline
 70
8
 71
3
 72
8
 73
4
 74
0
 40
0
 40
0
 40
0
 40
0
 40
1
 40
1
 40
1
 40
1
 10
145.868840
 20
174.802620
 30
0.0
 10
145.729240
 20
175.008020
 30
0.0
 10
144.690230
 20
175.978720
 30
0.0
 10
144.503030
 20
176.146720
 30
0.0
  0
SPLINE
  5
4b1
100
AcDbEntity
  8
Calque_1
 62
7
100
AcDbSpline
 70
8
 71
3
 72
8
 73
4
 74
0
 40
0
 40
0
 40
0
 40
0
 40
1
 40
1
 40
1
 40
1
 10
144.503030
 20
176.146720
 30
0.0
 10
144.263630
 20
176.361520
 30
0.0
 10
143.925970
 20
176.495520
 30
0.0
 10
143.770770
 20
176.775620
 30
0.0
  0
SPLINE
  5
4b2
100
AcDbEntity
  8
Calque_1
 62
7
100
AcDbSpline
 70
8
 71
3
 72
8
 73
4
 74
0
 40
0
 40
0
 40
0
 40
0
 40
1
 40
1
 40
1
 40
1
 10
143.770770
 20
176.775620
 30
0.0
 10
143.443370
 20
177.366520
 30
0.0
 10
143.322250
 20
178.047520
 30
0.0
 10
143.097950
 20
178.683520
 30
0.0
  0
SPLINE
  5
4b3
100
AcDbEntity
  8
Calque_1
 62
7
100
AcDbSpline
 70
8
 71
3
 72
8
 73
4
 74
0
 40
0
 40
0
 40
0
 40
0
 40
1
 40
1
 40
1
 40
1
 10
143.097950
 20
178.683520
 30
0.0
 10
141.910350
 20
179.745820
 30
0.0
 10
140.793860
 20
180.891320
 30
0.0
 10
139.534860
 20
181.870420
 30
0.0
  0
SPLINE
  5
4b4
100
AcDbEntity
  8
Calque_1
 62
7
100
AcDbSpline
 70
8
 71
3
 72
8
 73
4
 74
0
 40
0
 40
0
 40
0
 40
0
 40
1
 40
1
 40
1
 40
1
 10
139.534860
 20
181.870420
 30
0.0
 10
138.016970
 20
183.050920
 30
0.0
 10
135.424330
 20
183.826920
 30
0.0
 10
133.223100
 20
183.842920
 30
0.0
  0
LWPOLYLINE
  5
4b5
100
AcDbEntity
  8
Calque_1
 62
7
100
AcDbPolyline
 90
2
 70
0
 10
291.108030
 20
206.283420
 30
0.0
 10
291.108030
 20
206.287020
 30
0.0
  0
SPLINE
  5
4b6
100
AcDbEntity
  8
Calque_1
 62
7
100
AcDbSpline
 70
8
 71
3
 72
8
 73
4
 74
0
 40
0
 40
0
 40
0
 40
0
 40
1
 40
1
 40
1
 40
1
 10
224.531220
 20
155.184220
 30
0.0
 10
221.615840
 20
155.194220
 30
0.0
 10
218.269570
 20
154.261920
 30
0.0
 10
216.267640
 20
152.910420
 30
0.0
  0
SPLINE
  5
4b7
100
AcDbEntity
  8
Calque_1
 62
7
100
AcDbSpline
 70
8
 71
3
 72
8
 73
4
 74
0
 40
0
 40
0
 40
0
 40
0
 40
1
 40
1
 40
1
 40
1
 10
216.267640
 20
152.910420
 30
0.0
 10
214.963440
 20
152.029720
 30
0.0
 10
214.147690
 20
150.349920
 30
0.0
 10
213.516390
 20
149.007820
 30
0.0
  0
SPLINE
  5
4b8
100
AcDbEntity
  8
Calque_1
 62
7
100
AcDbSpline
 70
8
 71
3
 72
8
 73
4
 74
0
 40
0
 40
0
 40
0
 40
0
 40
1
 40
1
 40
1
 40
1
 10
213.516390
 20
149.007820
 30
0.0
 10
213.062590
 20
148.042920
 30
0.0
 10
212.500620
 20
146.828820
 30
0.0
 10
212.546420
 20
145.712420
 30
0.0
  0
SPLINE
  5
4b9
100
AcDbEntity
  8
Calque_1
 62
7
100
AcDbSpline
 70
8
 71
3
 72
8
 73
4
 74
0
 40
0
 40
0
 40
0
 40
0
 40
1
 40
1
 40
1
 40
1
 10
212.546420
 20
145.712420
 30
0.0
 10
212.654120
 20
143.082120
 30
0.0
 10
214.694400
 20
141.121420
 30
0.0
 10
216.999900
 20
140.118920
 30
0.0
  0
SPLINE
  5
4ba
100
AcDbEntity
  8
Calque_1
 62
7
100
AcDbSpline
 70
8
 71
3
 72
8
 73
4
 74
0
 40
0
 40
0
 40
0
 40
0
 40
1
 40
1
 40
1
 40
1
 10
216.999900
 20
140.118920
 30
0.0
 10
218.863190
 20
139.308720
 30
0.0
 10
222.030770
 20
139.213620
 30
0.0
 10
223.987070
 20
139.382020
 30
0.0
  0
SPLINE
  5
4bb
100
AcDbEntity
  8
Calque_1
 62
7
100
AcDbSpline
 70
8
 71
3
 72
8
 73
4
 74
0
 40
0
 40
0
 40
0
 40
0
 40
1
 40
1
 40
1
 40
1
 10
223.987070
 20
139.382020
 30
0.0
 10
227.284260
 20
139.665920
 30
0.0
 10
229.676180
 20
142.309220
 30
0.0
 10
231.786070
 20
144.498520
 30
0.0
  0
SPLINE
  5
4bc
100
AcDbEntity
  8
Calque_1
 62
7
100
AcDbSpline
 70
8
 71
3
 72
8
 73
4
 74
0
 40
0
 40
0
 40
0
 40
0
 40
1
 40
1
 40
1
 40
1
 10
231.786070
 20
144.498520
 30
0.0
 10
232.016970
 20
145.373020
 30
0.0
 10
232.338650
 20
146.228720
 30
0.0
 10
232.479050
 20
147.121620
 30
0.0
  0
SPLINE
  5
4bd
100
AcDbEntity
  8
Calque_1
 62
7
100
AcDbSpline
 70
8
 71
3
 72
8
 73
4
 74
0
 40
0
 40
0
 40
0
 40
0
 40
1
 40
1
 40
1
 40
1
 10
232.479050
 20
147.121620
 30
0.0
 10
232.514050
 20
147.343520
 30
0.0
 10
232.351370
 20
147.553320
 30
0.0
 10
232.300770
 20
147.772220
 30
0.0
  0
SPLINE
  5
4be
100
AcDbEntity
  8
Calque_1
 62
7
100
AcDbSpline
 70
8
 71
3
 72
8
 73
4
 74
0
 40
0
 40
0
 40
0
 40
0
 40
1
 40
1
 40
1
 40
1
 10
232.300770
 20
147.772220
 30
0.0
 10
232.205770
 20
148.182320
 30
0.0
 10
232.117620
 20
148.593720
 30
0.0
 10
232.043420
 20
149.007820
 30
0.0
  0
SPLINE
  5
4bf
100
AcDbEntity
  8
Calque_1
 62
7
100
AcDbSpline
 70
8
 71
3
 72
8
 73
4
 74
0
 40
0
 40
0
 40
0
 40
0
 40
1
 40
1
 40
1
 40
1
 10
232.043420
 20
149.007820
 30
0.0
 10
231.979420
 20
149.367320
 30
0.0
 10
231.970520
 20
149.736820
 30
0.0
 10
231.885290
 20
150.092020
 30
0.0
  0
SPLINE
  5
4c0
100
AcDbEntity
  8
Calque_1
 62
7
100
AcDbSpline
 70
8
 71
3
 72
8
 73
4
 74
0
 40
0
 40
0
 40
0
 40
0
 40
1
 40
1
 40
1
 40
1
 10
231.885290
 20
150.092020
 30
0.0
 10
231.625790
 20
151.172220
 30
0.0
 10
231.056530
 20
152.495020
 30
0.0
 10
230.262140
 20
153.300620
 30
0.0
  0
SPLINE
  5
4c1
100
AcDbEntity
  8
Calque_1
 62
7
100
AcDbSpline
 70
8
 71
3
 72
8
 73
4
 74
0
 40
0
 40
0
 40
0
 40
0
 40
1
 40
1
 40
1
 40
1
 10
230.262140
 20
153.300620
 30
0.0
 10
229.593140
 20
153.979020
 30
0.0
 10
228.496270
 20
154.406920
 30
0.0
 10
227.649370
 20
154.709820
 30
0.0
  0
SPLINE
  5
4c2
100
AcDbEntity
  8
Calque_1
 62
7
100
AcDbSpline
 70
8
 71
3
 72
8
 73
4
 74
0
 40
0
 40
0
 40
0
 40
0
 40
1
 40
1
 40
1
 40
1
 10
227.649370
 20
154.709820
 30
0.0
 10
226.746900
 20
155.032520
 30
0.0
 10
225.672020
 20
155.180520
 30
0.0
 10
224.531220
 20
155.184220
 30
0.0
  0
LWPOLYLINE
  5
4c3
100
AcDbEntity
  8
Calque_1
 62
7
100
AcDbPolyline
 90
1
 70
1
 10
133.223100
 20
183.842920
 30
0.0
  0
SPLINE
  5
4c4
100
AcDbEntity
  8
Calque_1
 62
7
100
AcDbSpline
 70
8
 71
3
 72
8
 73
4
 74
0
 40
0
 40
0
 40
0
 40
0
 40
1
 40
1
 40
1
 40
1
 10
135.116520
 20
144.442720
 30
0.0
 10
133.905940
 20
144.429720
 30
0.0
 10
132.127640
 20
144.251620
 30
0.0
 10
131.015480
 20
143.879420
 30
0.0
  0
SPLINE
  5
4c5
100
AcDbEntity
  8
Calque_1
 62
7
100
AcDbSpline
 70
8
 71
3
 72
8
 73
4
 74
0
 40
0
 40
0
 40
0
 40
0
 40
1
 40
1
 40
1
 40
1
 10
131.015480
 20
143.879420
 30
0.0
 10
129.680380
 20
143.432620
 30
0.0
 10
128.423430
 20
142.730220
 30
0.0
 10
127.234830
 20
141.992720
 30
0.0
  0
SPLINE
  5
4c6
100
AcDbEntity
  8
Calque_1
 62
7
100
AcDbSpline
 70
8
 71
3
 72
8
 73
4
 74
0
 40
0
 40
0
 40
0
 40
0
 40
1
 40
1
 40
1
 40
1
 10
127.234830
 20
141.992720
 30
0.0
 10
126.175630
 20
141.335620
 30
0.0
 10
125.430260
 20
140.886120
 30
0.0
 10
124.661860
 20
139.868320
 30
0.0
  0
SPLINE
  5
4c7
100
AcDbEntity
  8
Calque_1
 62
7
100
AcDbSpline
 70
8
 71
3
 72
8
 73
4
 74
0
 40
0
 40
0
 40
0
 40
0
 40
1
 40
1
 40
1
 40
1
 10
124.661860
 20
139.868320
 30
0.0
 10
124.165560
 20
139.210920
 30
0.0
 10
123.971140
 20
138.501020
 30
0.0
 10
124.001440
 20
137.773320
 30
0.0
  0
SPLINE
  5
4c8
100
AcDbEntity
  8
Calque_1
 62
7
100
AcDbSpline
 70
8
 71
3
 72
8
 73
4
 74
0
 40
0
 40
0
 40
0
 40
0
 40
1
 40
1
 40
1
 40
1
 10
124.001440
 20
137.773320
 30
0.0
 10
124.132440
 20
134.620020
 30
0.0
 10
128.479700
 20
131.134020
 30
0.0
 10
130.738490
 20
130.155220
 30
0.0
  0
SPLINE
  5
4c9
100
AcDbEntity
  8
Calque_1
 62
7
100
AcDbSpline
 70
8
 71
3
 72
8
 73
4
 74
0
 40
0
 40
0
 40
0
 40
0
 40
1
 40
1
 40
1
 40
1
 10
130.738490
 20
130.155220
 30
0.0
 10
131.430890
 20
129.855220
 30
0.0
 10
134.370910
 20
129.165420
 30
0.0
 10
134.974410
 20
129.049820
 30
0.0
  0
SPLINE
  5
4ca
100
AcDbEntity
  8
Calque_1
 62
7
100
AcDbSpline
 70
8
 71
3
 72
8
 73
4
 74
0
 40
0
 40
0
 40
0
 40
0
 40
1
 40
1
 40
1
 40
1
 10
134.974410
 20
129.049820
 30
0.0
 10
137.719310
 20
128.524520
 30
0.0
 10
140.562970
 20
128.692820
 30
0.0
 10
143.030770
 20
130.090120
 30
0.0
  0
SPLINE
  5
4cb
100
AcDbEntity
  8
Calque_1
 62
7
100
AcDbSpline
 70
8
 71
3
 72
8
 73
4
 74
0
 40
0
 40
0
 40
0
 40
0
 40
1
 40
1
 40
1
 40
1
 10
143.030770
 20
130.090120
 30
0.0
 10
143.429170
 20
130.315720
 30
0.0
 10
143.779160
 20
130.616020
 30
0.0
 10
144.158860
 20
130.870920
 30
0.0
  0
SPLINE
  5
4cc
100
AcDbEntity
  8
Calque_1
 62
7
100
AcDbSpline
 70
8
 71
3
 72
8
 73
4
 74
0
 40
0
 40
0
 40
0
 40
0
 40
1
 40
1
 40
1
 40
1
 10
144.158860
 20
130.870920
 30
0.0
 10
144.392860
 20
131.028020
 30
0.0
 10
144.648280
 20
131.154720
 30
0.0
 10
144.871480
 20
131.326220
 30
0.0
  0
SPLINE
  5
4cd
100
AcDbEntity
  8
Calque_1
 62
7
100
AcDbSpline
 70
8
 71
3
 72
8
 73
4
 74
0
 40
0
 40
0
 40
0
 40
0
 40
1
 40
1
 40
1
 40
1
 10
144.871480
 20
131.326220
 30
0.0
 10
145.551080
 20
131.848320
 30
0.0
 10
146.237090
 20
132.574320
 30
0.0
 10
146.751990
 20
133.255820
 30
0.0
  0
SPLINE
  5
4ce
100
AcDbEntity
  8
Calque_1
 62
7
100
AcDbSpline
 70
8
 71
3
 72
8
 73
4
 74
0
 40
0
 40
0
 40
0
 40
0
 40
1
 40
1
 40
1
 40
1
 10
146.751990
 20
133.255820
 30
0.0
 10
146.828990
 20
133.357220
 30
0.0
 10
146.883910
 20
133.472520
 30
0.0
 10
146.949910
 20
133.580820
 30
0.0
  0
SPLINE
  5
4cf
100
AcDbEntity
  8
Calque_1
 62
7
100
AcDbSpline
 70
8
 71
3
 72
8
 73
4
 74
0
 40
0
 40
0
 40
0
 40
0
 40
1
 40
1
 40
1
 40
1
 10
146.949910
 20
133.580820
 30
0.0
 10
147.021910
 20
133.732620
 30
0.0
 10
147.066770
 20
133.900820
 30
0.0
 10
147.167470
 20
134.036120
 30
0.0
  0
SPLINE
  5
4d0
100
AcDbEntity
  8
Calque_1
 62
7
100
AcDbSpline
 70
8
 71
3
 72
8
 73
4
 74
0
 40
0
 40
0
 40
0
 40
0
 40
1
 40
1
 40
1
 40
1
 10
147.167470
 20
134.036120
 30
0.0
 10
147.217470
 20
134.104120
 30
0.0
 10
147.680980
 20
134.446420
 30
0.0
 10
147.781380
 20
134.556520
 30
0.0
  0
SPLINE
  5
4d1
100
AcDbEntity
  8
Calque_1
 62
7
100
AcDbSpline
 70
8
 71
3
 72
8
 73
4
 74
0
 40
0
 40
0
 40
0
 40
0
 40
1
 40
1
 40
1
 40
1
 10
147.781380
 20
134.556520
 30
0.0
 10
148.137080
 20
134.946020
 30
0.0
 10
148.374550
 20
135.531620
 30
0.0
 10
148.850050
 20
135.792120
 30
0.0
  0
SPLINE
  5
4d2
100
AcDbEntity
  8
Calque_1
 62
7
100
AcDbSpline
 70
8
 71
3
 72
8
 73
4
 74
0
 40
0
 40
0
 40
0
 40
0
 40
1
 40
1
 40
1
 40
1
 10
148.850050
 20
135.792120
 30
0.0
 10
149.396150
 20
136.091220
 30
0.0
 10
150.077670
 20
135.563420
 30
0.0
 10
150.690760
 20
135.445320
 30
0.0
  0
SPLINE
  5
4d3
100
AcDbEntity
  8
Calque_1
 62
7
100
AcDbSpline
 70
8
 71
3
 72
8
 73
4
 74
0
 40
0
 40
0
 40
0
 40
0
 40
1
 40
1
 40
1
 40
1
 10
150.690760
 20
135.445320
 30
0.0
 10
149.600470
 20
137.543920
 30
0.0
 10
148.482460
 20
139.673820
 30
0.0
 10
146.593860
 20
141.190720
 30
0.0
  0
SPLINE
  5
4d4
100
AcDbEntity
  8
Calque_1
 62
7
100
AcDbSpline
 70
8
 71
3
 72
8
 73
4
 74
0
 40
0
 40
0
 40
0
 40
0
 40
1
 40
1
 40
1
 40
1
 10
146.593860
 20
141.190720
 30
0.0
 10
145.374960
 20
142.169720
 30
0.0
 10
144.365420
 20
142.587020
 30
0.0
 10
142.872120
 20
143.207120
 30
0.0
  0
SPLINE
  5
4d5
100
AcDbEntity
  8
Calque_1
 62
7
100
AcDbSpline
 70
8
 71
3
 72
8
 73
4
 74
0
 40
0
 40
0
 40
0
 40
0
 40
1
 40
1
 40
1
 40
1
 10
142.872120
 20
143.207120
 30
0.0
 10
142.249620
 20
143.465620
 30
0.0
 10
141.627180
 20
143.738920
 30
0.0
 10
140.971980
 20
143.900620
 30
0.0
  0
SPLINE
  5
4d6
100
AcDbEntity
  8
Calque_1
 62
7
100
AcDbSpline
 70
8
 71
3
 72
8
 73
4
 74
0
 40
0
 40
0
 40
0
 40
0
 40
1
 40
1
 40
1
 40
1
 10
140.971980
 20
143.900620
 30
0.0
 10
139.567580
 20
144.247320
 30
0.0
 10
136.604410
 20
144.433120
 30
0.0
 10
135.350620
 20
144.442720
 30
0.0
  0
SPLINE
  5
4d7
100
AcDbEntity
  8
Calque_1
 62
7
100
AcDbSpline
 70
8
 71
3
 72
8
 73
4
 74
0
 40
0
 40
0
 40
0
 40
0
 40
1
 40
1
 40
1
 40
1
 10
135.350620
 20
144.442720
 30
0.0
 10
135.275320
 20
144.443320
 30
0.0
 10
135.197230
 20
144.443520
 30
0.0
 10
135.116520
 20
144.442720
 30
0.0
  0
LWPOLYLINE
  5
4d8
100
AcDbEntity
  8
Calque_1
 62
7
100
AcDbPolyline
 90
1
 70
1
 10
224.531220
 20
155.184220
 30
0.0
  0
SPLINE
  5
4d9
100
AcDbEntity
  8
Calque_1
 62
7
100
AcDbSpline
 70
8
 71
3
 72
8
 73
4
 74
0
 40
0
 40
0
 40
0
 40
0
 40
1
 40
1
 40
1
 40
1
 10
319.244300
 20
122.707620
 30
0.0
 10
317.140110
 20
122.695620
 30
0.0
 10
315.110320
 20
122.198920
 30
0.0
 10
313.064830
 20
121.705620
 30
0.0
  0
SPLINE
  5
4da
100
AcDbEntity
  8
Calque_1
 62
7
100
AcDbSpline
 70
8
 71
3
 72
8
 73
4
 74
0
 40
0
 40
0
 40
0
 40
0
 40
1
 40
1
 40
1
 40
1
 10
313.064830
 20
121.705620
 30
0.0
 10
310.733440
 20
121.143320
 30
0.0
 10
307.150600
 20
120.628820
 30
0.0
 10
305.483900
 20
118.713520
 30
0.0
  0
SPLINE
  5
4db
100
AcDbEntity
  8
Calque_1
 62
7
100
AcDbSpline
 70
8
 71
3
 72
8
 73
4
 74
0
 40
0
 40
0
 40
0
 40
0
 40
1
 40
1
 40
1
 40
1
 10
305.483900
 20
118.713520
 30
0.0
 10
304.304500
 20
117.358220
 30
0.0
 10
303.712690
 20
115.704620
 30
0.0
 10
303.652490
 20
114.021320
 30
0.0
  0
SPLINE
  5
4dc
100
AcDbEntity
  8
Calque_1
 62
7
100
AcDbSpline
 70
8
 71
3
 72
8
 73
4
 74
0
 40
0
 40
0
 40
0
 40
0
 40
1
 40
1
 40
1
 40
1
 10
303.652490
 20
114.021320
 30
0.0
 10
303.592490
 20
112.338020
 30
0.0
 10
304.063280
 20
110.625420
 30
0.0
 10
305.008480
 20
109.152920
 30
0.0
  0
SPLINE
  5
4dd
100
AcDbEntity
  8
Calque_1
 62
7
100
AcDbSpline
 70
8
 71
3
 72
8
 73
4
 74
0
 40
0
 40
0
 40
0
 40
0
 40
1
 40
1
 40
1
 40
1
 10
305.008480
 20
109.152920
 30
0.0
 10
305.835080
 20
107.865020
 30
0.0
 10
306.563050
 20
106.972220
 30
0.0
 10
307.858950
 20
106.204220
 30
0.0
  0
SPLINE
  5
4de
100
AcDbEntity
  8
Calque_1
 62
7
100
AcDbSpline
 70
8
 71
3
 72
8
 73
4
 74
0
 40
0
 40
0
 40
0
 40
0
 40
1
 40
1
 40
1
 40
1
 10
307.858950
 20
106.204220
 30
0.0
 10
309.532550
 20
105.212320
 30
0.0
 10
311.419780
 20
105.045520
 30
0.0
 10
313.322180
 20
105.011520
 30
0.0
  0
SPLINE
  5
4df
100
AcDbEntity
  8
Calque_1
 62
7
100
AcDbSpline
 70
8
 71
3
 72
8
 73
4
 74
0
 40
0
 40
0
 40
0
 40
0
 40
1
 40
1
 40
1
 40
1
 10
313.322180
 20
105.011520
 30
0.0
 10
317.330380
 20
104.939520
 30
0.0
 10
321.022070
 20
105.878520
 30
0.0
 10
324.030570
 20
108.567420
 30
0.0
  0
SPLINE
  5
4e0
100
AcDbEntity
  8
Calque_1
 62
7
100
AcDbSpline
 70
8
 71
3
 72
8
 73
4
 74
0
 40
0
 40
0
 40
0
 40
0
 40
1
 40
1
 40
1
 40
1
 10
324.030570
 20
108.567420
 30
0.0
 10
324.583270
 20
109.061420
 30
0.0
 10
325.309090
 20
109.826020
 30
0.0
 10
325.634090
 20
110.518720
 30
0.0
  0
SPLINE
  5
4e1
100
AcDbEntity
  8
Calque_1
 62
7
100
AcDbSpline
 70
8
 71
3
 72
8
 73
4
 74
0
 40
0
 40
0
 40
0
 40
0
 40
1
 40
1
 40
1
 40
1
 10
325.634090
 20
110.518720
 30
0.0
 10
325.798590
 20
110.869120
 30
0.0
 10
326.217270
 20
112.346220
 30
0.0
 10
326.327070
 20
112.838420
 30
0.0
  0
SPLINE
  5
4e2
100
AcDbEntity
  8
Calque_1
 62
7
100
AcDbSpline
 70
8
 71
3
 72
8
 73
4
 74
0
 40
0
 40
0
 40
0
 40
0
 40
1
 40
1
 40
1
 40
1
 10
326.327070
 20
112.838420
 30
0.0
 10
326.423070
 20
113.269520
 30
0.0
 10
326.764060
 20
114.935420
 30
0.0
 10
326.702760
 20
115.331820
 30
0.0
  0
SPLINE
  5
4e3
100
AcDbEntity
  8
Calque_1
 62
7
100
AcDbSpline
 70
8
 71
3
 72
8
 73
4
 74
0
 40
0
 40
0
 40
0
 40
0
 40
1
 40
1
 40
1
 40
1
 10
326.702760
 20
115.331820
 30
0.0
 10
326.594160
 20
116.034820
 30
0.0
 10
325.800410
 20
117.447620
 30
0.0
 10
325.317320
 20
117.976620
 30
0.0
  0
SPLINE
  5
4e4
100
AcDbEntity
  8
Calque_1
 62
7
100
AcDbSpline
 70
8
 71
3
 72
8
 73
4
 74
0
 40
0
 40
0
 40
0
 40
0
 40
1
 40
1
 40
1
 40
1
 10
325.317320
 20
117.976620
 30
0.0
 10
325.133520
 20
118.178020
 30
0.0
 10
324.903260
 20
118.334020
 30
0.0
 10
324.683760
 20
118.497020
 30
0.0
  0
SPLINE
  5
4e5
100
AcDbEntity
  8
Calque_1
 62
7
100
AcDbSpline
 70
8
 71
3
 72
8
 73
4
 74
0
 40
0
 40
0
 40
0
 40
0
 40
1
 40
1
 40
1
 40
1
 10
324.683760
 20
118.497020
 30
0.0
 10
324.513360
 20
118.623520
 30
0.0
 10
324.176930
 20
118.635320
 30
0.0
 10
324.149430
 20
118.843820
 30
0.0
  0
SPLINE
  5
4e6
100
AcDbEntity
  8
Calque_1
 62
7
100
AcDbSpline
 70
8
 71
3
 72
8
 73
4
 74
0
 40
0
 40
0
 40
0
 40
0
 40
1
 40
1
 40
1
 40
1
 10
324.149430
 20
118.843820
 30
0.0
 10
324.072430
 20
119.430320
 30
0.0
 10
324.320980
 20
120.014320
 30
0.0
 10
324.406780
 20
120.599720
 30
0.0
  0
SPLINE
  5
4e7
100
AcDbEntity
  8
Calque_1
 62
7
100
AcDbSpline
 70
8
 71
3
 72
8
 73
4
 74
0
 40
0
 40
0
 40
0
 40
0
 40
1
 40
1
 40
1
 40
1
 10
324.406780
 20
120.599720
 30
0.0
 10
323.469980
 20
121.221220
 30
0.0
 10
322.607790
 20
121.969420
 30
0.0
 10
321.596100
 20
122.464220
 30
0.0
  0
SPLINE
  5
4e8
100
AcDbEntity
  8
Calque_1
 62
7
100
AcDbSpline
 70
8
 71
3
 72
8
 73
4
 74
0
 40
0
 40
0
 40
0
 40
0
 40
1
 40
1
 40
1
 40
1
 10
321.596100
 20
122.464220
 30
0.0
 10
321.159700
 20
122.677620
 30
0.0
 10
320.637420
 20
122.649920
 30
0.0
 10
320.151220
 20
122.681220
 30
0.0
  0
SPLINE
  5
4e9
100
AcDbEntity
  8
Calque_1
 62
7
100
AcDbSpline
 70
8
 71
3
 72
8
 73
4
 74
0
 40
0
 40
0
 40
0
 40
0
 40
1
 40
1
 40
1
 40
1
 10
320.151220
 20
122.681220
 30
0.0
 10
319.847330
 20
122.701220
 30
0.0
 10
319.544900
 20
122.709220
 30
0.0
 10
319.244300
 20
122.707220
 30
0.0
  0
LWPOLYLINE
  5
4ea
100
AcDbEntity
  8
Calque_1
 62
7
100
AcDbPolyline
 90
1
 70
1
 10
135.116520
 20
144.442720
 30
0.0
  0
SPLINE
  5
4eb
100
AcDbEntity
  8
Calque_1
 62
7
100
AcDbSpline
 70
8
 71
3
 72
8
 73
4
 74
0
 40
0
 40
0
 40
0
 40
0
 40
1
 40
1
 40
1
 40
1
 10
75.526878
 20
113.376420
 30
0.0
 10
74.738198
 20
113.376420
 30
0.0
 10
73.948978
 20
113.340420
 30
0.0
 10
73.159058
 20
113.275120
 30
0.0
  0
SPLINE
  5
4ec
100
AcDbEntity
  8
Calque_1
 62
7
100
AcDbSpline
 70
8
 71
3
 72
8
 73
4
 74
0
 40
0
 40
0
 40
0
 40
0
 40
1
 40
1
 40
1
 40
1
 10
73.159058
 20
113.275120
 30
0.0
 10
71.084568
 20
113.104220
 30
0.0
 10
69.904328
 20
112.860820
 30
0.0
 10
68.031728
 20
111.865920
 30
0.0
  0
SPLINE
  5
4ed
100
AcDbEntity
  8
Calque_1
 62
7
100
AcDbSpline
 70
8
 71
3
 72
8
 73
4
 74
0
 40
0
 40
0
 40
0
 40
0
 40
1
 40
1
 40
1
 40
1
 10
68.031728
 20
111.865920
 30
0.0
 10
67.508228
 20
111.587620
 30
0.0
 10
67.053158
 20
111.191420
 30
0.0
 10
66.627158
 20
110.782220
 30
0.0
  0
SPLINE
  5
4ee
100
AcDbEntity
  8
Calque_1
 62
7
100
AcDbSpline
 70
8
 71
3
 72
8
 73
4
 74
0
 40
0
 40
0
 40
0
 40
0
 40
1
 40
1
 40
1
 40
1
 10
66.627158
 20
110.782220
 30
0.0
 10
66.137958
 20
110.312520
 30
0.0
 10
65.637908
 20
109.827820
 30
0.0
 10
65.300108
 20
109.242820
 30
0.0
  0
SPLINE
  5
4ef
100
AcDbEntity
  8
Calque_1
 62
7
100
AcDbSpline
 70
8
 71
3
 72
8
 73
4
 74
0
 40
0
 40
0
 40
0
 40
0
 40
1
 40
1
 40
1
 40
1
 10
65.300108
 20
109.242820
 30
0.0
 10
64.480908
 20
107.824020
 30
0.0
 10
64.022708
 20
106.099020
 30
0.0
 10
64.051608
 20
104.403320
 30
0.0
  0
SPLINE
  5
4f0
100
AcDbEntity
  8
Calque_1
 62
7
100
AcDbSpline
 70
8
 71
3
 72
8
 73
4
 74
0
 40
0
 40
0
 40
0
 40
0
 40
1
 40
1
 40
1
 40
1
 10
64.051608
 20
104.403320
 30
0.0
 10
64.074608
 20
103.084420
 30
0.0
 10
64.391618
 20
101.783120
 30
0.0
 10
65.062918
 20
100.657320
 30
0.0
  0
SPLINE
  5
4f1
100
AcDbEntity
  8
Calque_1
 62
7
100
AcDbSpline
 70
8
 71
3
 72
8
 73
4
 74
0
 40
0
 40
0
 40
0
 40
0
 40
1
 40
1
 40
1
 40
1
 10
65.062918
 20
100.657320
 30
0.0
 10
66.936718
 20
97.514620
 30
0.0
 10
70.120658
 20
95.400620
 30
0.0
 10
73.633448
 20
94.434920
 30
0.0
  0
SPLINE
  5
4f2
100
AcDbEntity
  8
Calque_1
 62
7
100
AcDbSpline
 70
8
 71
3
 72
8
 73
4
 74
0
 40
0
 40
0
 40
0
 40
0
 40
1
 40
1
 40
1
 40
1
 10
73.633448
 20
94.434920
 30
0.0
 10
76.749548
 20
93.578220
 30
0.0
 10
81.260158
 20
94.381920
 30
0.0
 10
83.867448
 20
96.299420
 30
0.0
  0
SPLINE
  5
4f3
100
AcDbEntity
  8
Calque_1
 62
7
100
AcDbSpline
 70
8
 71
3
 72
8
 73
4
 74
0
 40
0
 40
0
 40
0
 40
0
 40
1
 40
1
 40
1
 40
1
 10
83.867448
 20
96.299420
 30
0.0
 10
85.354948
 20
97.393220
 30
0.0
 10
86.984518
 20
99.960920
 30
0.0
 10
87.469818
 20
101.763120
 30
0.0
  0
SPLINE
  5
4f4
100
AcDbEntity
  8
Calque_1
 62
7
100
AcDbSpline
 70
8
 71
3
 72
8
 73
4
 74
0
 40
0
 40
0
 40
0
 40
0
 40
1
 40
1
 40
1
 40
1
 10
87.469818
 20
101.763120
 30
0.0
 10
87.622518
 20
102.329820
 30
0.0
 10
87.700958
 20
102.914720
 30
0.0
 10
87.766958
 20
103.497420
 30
0.0
  0
SPLINE
  5
4f5
100
AcDbEntity
  8
Calque_1
 62
7
100
AcDbSpline
 70
8
 71
3
 72
8
 73
4
 74
0
 40
0
 40
0
 40
0
 40
0
 40
1
 40
1
 40
1
 40
1
 10
87.766958
 20
103.497420
 30
0.0
 10
87.903458
 20
104.702420
 30
0.0
 10
87.820958
 20
106.039820
 30
0.0
 10
87.252258
 20
107.139620
 30
0.0
  0
SPLINE
  5
4f6
100
AcDbEntity
  8
Calque_1
 62
7
100
AcDbSpline
 70
8
 71
3
 72
8
 73
4
 74
0
 40
0
 40
0
 40
0
 40
0
 40
1
 40
1
 40
1
 40
1
 10
87.252258
 20
107.139620
 30
0.0
 10
86.535458
 20
108.526520
 30
0.0
 10
85.020488
 20
109.312620
 30
0.0
 10
83.887088
 20
110.304720
 30
0.0
  0
LWPOLYLINE
  5
4f7
100
AcDbEntity
  8
Calque_1
 62
7
100
AcDbPolyline
 90
2
 70
0
 10
319.244300
 20
122.707220
 30
0.0
 10
319.244300
 20
122.707620
 30
0.0
  0
SPLINE
  5
4f8
100
AcDbEntity
  8
Calque_1
 62
7
100
AcDbSpline
 70
8
 71
3
 72
8
 73
4
 74
0
 40
0
 40
0
 40
0
 40
0
 40
1
 40
1
 40
1
 40
1
 10
85.688008
 20
112.190920
 30
0.0
 10
82.345558
 20
112.874920
 30
0.0
 10
78.944498
 20
113.392620
 30
0.0
 10
75.526878
 20
113.376420
 30
0.0
  0
LWPOLYLINE
  5
4f9
100
AcDbEntity
  8
Calque_1
 62
7
100
AcDbPolyline
 90
2
 70
0
 10
83.887088
 20
110.304720
 30
0.0
 10
85.688008
 20
112.190920
 30
0.0
  0
SPLINE
  5
4fa
100
AcDbEntity
  8
Calque_1
 62
7
100
AcDbSpline
 70
8
 71
3
 72
8
 73
4
 74
0
 40
0
 40
0
 40
0
 40
0
 40
1
 40
1
 40
1
 40
1
 10
192.614820
 20
111.303620
 30
0.0
 10
191.826130
 20
111.303620
 30
0.0
 10
191.036430
 20
111.267620
 30
0.0
 10
190.246490
 20
111.202420
 30
0.0
  0
SPLINE
  5
4fb
100
AcDbEntity
  8
Calque_1
 62
7
100
AcDbSpline
 70
8
 71
3
 72
8
 73
4
 74
0
 40
0
 40
0
 40
0
 40
0
 40
1
 40
1
 40
1
 40
1
 10
190.246490
 20
111.202420
 30
0.0
 10
188.171990
 20
111.031520
 30
0.0
 10
186.992170
 20
110.788120
 30
0.0
 10
185.119670
 20
109.793120
 30
0.0
  0
SPLINE
  5
4fc
100
AcDbEntity
  8
Calque_1
 62
7
100
AcDbSpline
 70
8
 71
3
 72
8
 73
4
 74
0
 40
0
 40
0
 40
0
 40
0
 40
1
 40
1
 40
1
 40
1
 10
185.119670
 20
109.793120
 30
0.0
 10
184.596070
 20
109.514920
 30
0.0
 10
184.140170
 20
109.118620
 30
0.0
 10
183.714070
 20
108.709520
 30
0.0
  0
SPLINE
  5
4fd
100
AcDbEntity
  8
Calque_1
 62
7
100
AcDbSpline
 70
8
 71
3
 72
8
 73
4
 74
0
 40
0
 40
0
 40
0
 40
0
 40
1
 40
1
 40
1
 40
1
 10
183.714070
 20
108.709520
 30
0.0
 10
183.224970
 20
108.239720
 30
0.0
 10
182.725850
 20
107.755120
 30
0.0
 10
182.388050
 20
107.170020
 30
0.0
  0
SPLINE
  5
4fe
100
AcDbEntity
  8
Calque_1
 62
7
100
AcDbSpline
 70
8
 71
3
 72
8
 73
4
 74
0
 40
0
 40
0
 40
0
 40
0
 40
1
 40
1
 40
1
 40
1
 10
182.388050
 20
107.170020
 30
0.0
 10
181.568860
 20
105.751220
 30
0.0
 10
181.110650
 20
104.026320
 30
0.0
 10
181.139550
 20
102.330520
 30
0.0
  0
SPLINE
  5
4ff
100
AcDbEntity
  8
Calque_1
 62
7
100
AcDbSpline
 70
8
 71
3
 72
8
 73
4
 74
0
 40
0
 40
0
 40
0
 40
0
 40
1
 40
1
 40
1
 40
1
 10
181.139550
 20
102.330520
 30
0.0
 10
181.162550
 20
101.011620
 30
0.0
 10
181.479040
 20
99.710420
 30
0.0
 10
182.150340
 20
98.584520
 30
0.0
  0
SPLINE
  5
500
100
AcDbEntity
  8
Calque_1
 62
7
100
AcDbSpline
 70
8
 71
3
 72
8
 73
4
 74
0
 40
0
 40
0
 40
0
 40
0
 40
1
 40
1
 40
1
 40
1
 10
182.150340
 20
98.584520
 30
0.0
 10
184.024140
 20
95.441920
 30
0.0
 10
187.208600
 20
93.327920
 30
0.0
 10
190.721400
 20
92.362220
 30
0.0
  0
SPLINE
  5
501
100
AcDbEntity
  8
Calque_1
 62
7
100
AcDbSpline
 70
8
 71
3
 72
8
 73
4
 74
0
 40
0
 40
0
 40
0
 40
0
 40
1
 40
1
 40
1
 40
1
 10
190.721400
 20
92.362220
 30
0.0
 10
193.837590
 20
91.505520
 30
0.0
 10
198.347680
 20
92.309220
 30
0.0
 10
200.954880
 20
94.226620
 30
0.0
  0
SPLINE
  5
502
100
AcDbEntity
  8
Calque_1
 62
7
100
AcDbSpline
 70
8
 71
3
 72
8
 73
4
 74
0
 40
0
 40
0
 40
0
 40
0
 40
1
 40
1
 40
1
 40
1
 10
200.954880
 20
94.226620
 30
0.0
 10
202.442380
 20
95.320420
 30
0.0
 10
204.071840
 20
97.888120
 30
0.0
 10
204.557240
 20
99.690420
 30
0.0
  0
SPLINE
  5
503
100
AcDbEntity
  8
Calque_1
 62
7
100
AcDbSpline
 70
8
 71
3
 72
8
 73
4
 74
0
 40
0
 40
0
 40
0
 40
0
 40
1
 40
1
 40
1
 40
1
 10
204.557240
 20
99.690420
 30
0.0
 10
204.709840
 20
100.257120
 30
0.0
 10
204.788380
 20
100.842020
 30
0.0
 10
204.854380
 20
101.424720
 30
0.0
  0
SPLINE
  5
504
100
AcDbEntity
  8
Calque_1
 62
7
100
AcDbSpline
 70
8
 71
3
 72
8
 73
4
 74
0
 40
0
 40
0
 40
0
 40
0
 40
1
 40
1
 40
1
 40
1
 10
204.854380
 20
101.424720
 30
0.0
 10
204.990980
 20
102.629720
 30
0.0
 10
204.908380
 20
103.967020
 30
0.0
 10
204.339690
 20
105.066820
 30
0.0
  0
SPLINE
  5
505
100
AcDbEntity
  8
Calque_1
 62
7
100
AcDbSpline
 70
8
 71
3
 72
8
 73
4
 74
0
 40
0
 40
0
 40
0
 40
0
 40
1
 40
1
 40
1
 40
1
 10
204.339690
 20
105.066820
 30
0.0
 10
203.622890
 20
106.453820
 30
0.0
 10
202.107820
 20
107.239820
 30
0.0
 10
200.974520
 20
108.232020
 30
0.0
  0
LWPOLYLINE
  5
506
100
AcDbEntity
  8
Calque_1
 62
7
100
AcDbPolyline
 90
1
 70
1
 10
75.526878
 20
113.376420
 30
0.0
  0
SPLINE
  5
507
100
AcDbEntity
  8
Calque_1
 62
7
100
AcDbSpline
 70
8
 71
3
 72
8
 73
4
 74
0
 40
0
 40
0
 40
0
 40
0
 40
1
 40
1
 40
1
 40
1
 10
202.775960
 20
110.118720
 30
0.0
 10
199.433500
 20
110.802720
 30
0.0
 10
196.032500
 20
111.319920
 30
0.0
 10
192.614820
 20
111.303620
 30
0.0
  0
LWPOLYLINE
  5
508
100
AcDbEntity
  8
Calque_1
 62
7
100
AcDbPolyline
 90
2
 70
0
 10
200.974520
 20
108.232020
 30
0.0
 10
202.775960
 20
110.118720
 30
0.0
  0
SPLINE
  5
509
100
AcDbEntity
  8
Calque_1
 62
7
100
AcDbSpline
 70
8
 71
3
 72
8
 73
4
 74
0
 40
0
 40
0
 40
0
 40
0
 40
1
 40
1
 40
1
 40
1
 10
40.551750
 20
100.354420
 30
0.0
 10
40.160312
 20
100.344420
 30
0.0
 10
39.767984
 20
100.315420
 30
0.0
 10
39.375078
 20
100.247020
 30
0.0
  0
SPLINE
  5
50a
100
AcDbEntity
  8
Calque_1
 62
7
100
AcDbSpline
 70
8
 71
3
 72
8
 73
4
 74
0
 40
0
 40
0
 40
0
 40
0
 40
1
 40
1
 40
1
 40
1
 10
39.375078
 20
100.247020
 30
0.0
 10
35.034782
 20
99.495320
 30
0.0
 10
32.062088
 20
97.355320
 30
0.0
 10
28.864091
 20
94.479920
 30
0.0
  0
SPLINE
  5
50b
100
AcDbEntity
  8
Calque_1
 62
7
100
AcDbSpline
 70
8
 71
3
 72
8
 73
4
 74
0
 40
0
 40
0
 40
0
 40
0
 40
1
 40
1
 40
1
 40
1
 10
28.864091
 20
94.479920
 30
0.0
 10
26.154994
 20
92.044020
 30
0.0
 10
23.227863
 20
88.516520
 30
0.0
 10
23.419463
 20
84.654580
 30
0.0
  0
SPLINE
  5
50c
100
AcDbEntity
  8
Calque_1
 62
7
100
AcDbSpline
 70
8
 71
3
 72
8
 73
4
 74
0
 40
0
 40
0
 40
0
 40
0
 40
1
 40
1
 40
1
 40
1
 10
23.419463
 20
84.654580
 30
0.0
 10
23.432463
 20
84.397180
 30
0.0
 10
23.458083
 20
84.138080
 30
0.0
 10
23.500083
 20
83.877880
 30
0.0
  0
SPLINE
  5
50d
100
AcDbEntity
  8
Calque_1
 62
7
100
AcDbSpline
 70
8
 71
3
 72
8
 73
4
 74
0
 40
0
 40
0
 40
0
 40
0
 40
1
 40
1
 40
1
 40
1
 10
23.500083
 20
83.877880
 30
0.0
 10
23.854582
 20
81.653580
 30
0.0
 10
24.781777
 20
79.652980
 30
0.0
 10
26.548476
 20
78.175880
 30
0.0
  0
SPLINE
  5
50e
100
AcDbEntity
  8
Calque_1
 62
7
100
AcDbSpline
 70
8
 71
3
 72
8
 73
4
 74
0
 40
0
 40
0
 40
0
 40
0
 40
1
 40
1
 40
1
 40
1
 10
26.548476
 20
78.175880
 30
0.0
 10
27.895074
 20
77.050180
 30
0.0
 10
29.622666
 20
76.294480
 30
0.0
 10
31.338364
 20
75.942980
 30
0.0
  0
SPLINE
  5
50f
100
AcDbEntity
  8
Calque_1
 62
7
100
AcDbSpline
 70
8
 71
3
 72
8
 73
4
 74
0
 40
0
 40
0
 40
0
 40
0
 40
1
 40
1
 40
1
 40
1
 10
31.338364
 20
75.942980
 30
0.0
 10
32.685563
 20
75.667080
 30
0.0
 10
36.013946
 20
76.067880
 30
0.0
 10
37.058945
 20
76.224580
 30
0.0
  0
SPLINE
  5
510
100
AcDbEntity
  8
Calque_1
 62
7
100
AcDbSpline
 70
8
 71
3
 72
8
 73
4
 74
0
 40
0
 40
0
 40
0
 40
0
 40
1
 40
1
 40
1
 40
1
 10
37.058945
 20
76.224580
 30
0.0
 10
39.871742
 20
76.646580
 30
0.0
 10
42.489548
 20
77.537480
 30
0.0
 10
44.996445
 20
78.848280
 30
0.0
  0
SPLINE
  5
511
100
AcDbEntity
  8
Calque_1
 62
7
100
AcDbSpline
 70
8
 71
3
 72
8
 73
4
 74
0
 40
0
 40
0
 40
0
 40
0
 40
1
 40
1
 40
1
 40
1
 10
44.996445
 20
78.848280
 30
0.0
 10
47.862542
 20
80.346780
 30
0.0
 10
49.429667
 20
81.344180
 30
0.0
 10
51.627565
 20
83.596280
 30
0.0
  0
SPLINE
  5
512
100
AcDbEntity
  8
Calque_1
 62
7
100
AcDbSpline
 70
8
 71
3
 72
8
 73
4
 74
0
 40
0
 40
0
 40
0
 40
0
 40
1
 40
1
 40
1
 40
1
 10
51.627565
 20
83.596280
 30
0.0
 10
52.164764
 20
84.146680
 30
0.0
 10
52.828757
 20
84.623880
 30
0.0
 10
53.171657
 20
85.308780
 30
0.0
  0
SPLINE
  5
513
100
AcDbEntity
  8
Calque_1
 62
7
100
AcDbSpline
 70
8
 71
3
 72
8
 73
4
 74
0
 40
0
 40
0
 40
0
 40
0
 40
1
 40
1
 40
1
 40
1
 10
53.171657
 20
85.308780
 30
0.0
 10
53.635156
 20
86.234580
 30
0.0
 10
53.712377
 20
87.303620
 30
0.0
 10
53.982977
 20
88.300920
 30
0.0
  0
SPLINE
  5
514
100
AcDbEntity
  8
Calque_1
 62
7
100
AcDbSpline
 70
8
 71
3
 72
8
 73
4
 74
0
 40
0
 40
0
 40
0
 40
0
 40
1
 40
1
 40
1
 40
1
 10
53.982977
 20
88.300920
 30
0.0
 10
54.606276
 20
88.707520
 30
0.0
 10
55.760812
 20
89.072220
 30
0.0
 10
56.021612
 20
89.948420
 30
0.0
  0
SPLINE
  5
515
100
AcDbEntity
  8
Calque_1
 62
7
100
AcDbSpline
 70
8
 71
3
 72
8
 73
4
 74
0
 40
0
 40
0
 40
0
 40
0
 40
1
 40
1
 40
1
 40
1
 10
56.021612
 20
89.948420
 30
0.0
 10
56.282712
 20
90.825420
 30
0.0
 10
55.666929
 20
92.149620
 30
0.0
 10
55.229929
 20
92.875320
 30
0.0
  0
SPLINE
  5
516
100
AcDbEntity
  8
Calque_1
 62
7
100
AcDbSpline
 70
8
 71
3
 72
8
 73
4
 74
0
 40
0
 40
0
 40
0
 40
0
 40
1
 40
1
 40
1
 40
1
 10
55.229929
 20
92.875320
 30
0.0
 10
53.869230
 20
95.135020
 30
0.0
 10
52.769054
 20
96.665920
 30
0.0
 10
50.261757
 20
97.862120
 30
0.0
  0
SPLINE
  5
517
100
AcDbEntity
  8
Calque_1
 62
7
100
AcDbSpline
 70
8
 71
3
 72
8
 73
4
 74
0
 40
0
 40
0
 40
0
 40
0
 40
1
 40
1
 40
1
 40
1
 10
50.261757
 20
97.862120
 30
0.0
 10
48.639158
 20
98.636220
 30
0.0
 10
47.353731
 20
98.954520
 30
0.0
 10
45.550933
 20
99.444420
 30
0.0
  0
SPLINE
  5
518
100
AcDbEntity
  8
Calque_1
 62
7
100
AcDbSpline
 70
8
 71
3
 72
8
 73
4
 74
0
 40
0
 40
0
 40
0
 40
0
 40
1
 40
1
 40
1
 40
1
 10
45.550933
 20
99.444420
 30
0.0
 10
43.926422
 20
99.885820
 30
0.0
 10
42.247988
 20
100.379620
 30
0.0
 10
40.551755
 20
100.354420
 30
0.0
  0
LWPOLYLINE
  5
519
100
AcDbEntity
  8
Calque_1
 62
7
100
AcDbPolyline
 90
1
 70
1
 10
192.614820
 20
111.303620
 30
0.0
  0
SPLINE
  5
51a
100
AcDbEntity
  8
Calque_1
 62
7
100
AcDbSpline
 70
8
 71
3
 72
8
 73
4
 74
0
 40
0
 40
0
 40
0
 40
0
 40
1
 40
1
 40
1
 40
1
 10
116.639600
 20
93.508920
 30
0.0
 10
115.345870
 20
93.495920
 30
0.0
 10
114.063000
 20
93.318620
 30
0.0
 10
113.015020
 20
92.995220
 30
0.0
  0
SPLINE
  5
51b
100
AcDbEntity
  8
Calque_1
 62
7
100
AcDbSpline
 70
8
 71
3
 72
8
 73
4
 74
0
 40
0
 40
0
 40
0
 40
0
 40
1
 40
1
 40
1
 40
1
 10
113.015020
 20
92.995220
 30
0.0
 10
108.380820
 20
91.565120
 30
0.0
 10
103.604770
 20
88.120520
 30
0.0
 10
101.574370
 20
83.672780
 30
0.0
  0
SPLINE
  5
51c
100
AcDbEntity
  8
Calque_1
 62
7
100
AcDbSpline
 70
8
 71
3
 72
8
 73
4
 74
0
 40
0
 40
0
 40
0
 40
0
 40
1
 40
1
 40
1
 40
1
 10
101.574370
 20
83.672780
 30
0.0
 10
101.121370
 20
82.680480
 30
0.0
 10
100.870860
 20
81.566980
 30
0.0
 10
100.905160
 20
80.483780
 30
0.0
  0
SPLINE
  5
51d
100
AcDbEntity
  8
Calque_1
 62
7
100
AcDbSpline
 70
8
 71
3
 72
8
 73
4
 74
0
 40
0
 40
0
 40
0
 40
0
 40
1
 40
1
 40
1
 40
1
 10
100.905160
 20
80.483780
 30
0.0
 10
100.949160
 20
79.091180
 30
0.0
 10
101.463910
 20
77.748380
 30
0.0
 10
102.623400
 20
76.778080
 30
0.0
  0
SPLINE
  5
51e
100
AcDbEntity
  8
Calque_1
 62
7
100
AcDbSpline
 70
8
 71
3
 72
8
 73
4
 74
0
 40
0
 40
0
 40
0
 40
0
 40
1
 40
1
 40
1
 40
1
 10
102.623400
 20
76.778080
 30
0.0
 10
104.413300
 20
75.280380
 30
0.0
 10
107.047090
 20
74.256780
 30
0.0
 10
109.333590
 20
73.807680
 30
0.0
  0
SPLINE
  5
51f
100
AcDbEntity
  8
Calque_1
 62
7
100
AcDbSpline
 70
8
 71
3
 72
8
 73
4
 74
0
 40
0
 40
0
 40
0
 40
0
 40
1
 40
1
 40
1
 40
1
 10
109.333590
 20
73.807680
 30
0.0
 10
111.178390
 20
73.445380
 30
0.0
 10
113.133380
 20
73.239980
 30
0.0
 10
115.014380
 20
73.504380
 30
0.0
  0
SPLINE
  5
520
100
AcDbEntity
  8
Calque_1
 62
7
100
AcDbSpline
 70
8
 71
3
 72
8
 73
4
 74
0
 40
0
 40
0
 40
0
 40
0
 40
1
 40
1
 40
1
 40
1
 10
115.014380
 20
73.504380
 30
0.0
 10
119.391080
 20
74.119580
 30
0.0
 10
121.888470
 20
76.918080
 30
0.0
 10
124.674260
 20
79.987180
 30
0.0
  0
LWPOLYLINE
  5
521
100
AcDbEntity
  8
Calque_1
 62
7
100
AcDbPolyline
 90
1
 70
1
 10
40.551755
 20
100.354420
 30
0.0
  0
SPLINE
  5
522
100
AcDbEntity
  8
Calque_1
 62
7
100
AcDbSpline
 70
8
 71
3
 72
8
 73
4
 74
0
 40
0
 40
0
 40
0
 40
0
 40
1
 40
1
 40
1
 40
1
 10
124.772960
 20
82.891880
 30
0.0
 10
125.222060
 20
83.902980
 30
0.0
 10
125.626200
 20
84.841580
 30
0.0
 10
125.683500
 20
85.970780
 30
0.0
  0
SPLINE
  5
523
100
AcDbEntity
  8
Calque_1
 62
7
100
AcDbSpline
 70
8
 71
3
 72
8
 73
4
 74
0
 40
0
 40
0
 40
0
 40
0
 40
1
 40
1
 40
1
 40
1
 10
125.683500
 20
85.970780
 30
0.0
 10
125.746500
 20
87.204520
 30
0.0
 10
125.345690
 20
88.024720
 30
0.0
 10
124.792590
 20
89.092620
 30
0.0
  0
SPLINE
  5
524
100
AcDbEntity
  8
Calque_1
 62
7
100
AcDbSpline
 70
8
 71
3
 72
8
 73
4
 74
0
 40
0
 40
0
 40
0
 40
0
 40
1
 40
1
 40
1
 40
1
 10
124.792590
 20
89.092620
 30
0.0
 10
123.874690
 20
90.864920
 30
0.0
 10
122.717200
 20
92.150920
 30
0.0
 10
120.754590
 20
92.886720
 30
0.0
  0
SPLINE
  5
525
100
AcDbEntity
  8
Calque_1
 62
7
100
AcDbSpline
 70
8
 71
3
 72
8
 73
4
 74
0
 40
0
 40
0
 40
0
 40
0
 40
1
 40
1
 40
1
 40
1
 10
120.754590
 20
92.886720
 30
0.0
 10
119.586100
 20
93.324720
 30
0.0
 10
118.105820
 20
93.523020
 30
0.0
 10
116.639590
 20
93.508920
 30
0.0
  0
LWPOLYLINE
  5
526
100
AcDbEntity
  8
Calque_1
 62
7
100
AcDbPolyline
 90
2
 70
0
 10
124.674260
 20
79.987180
 30
0.0
 10
124.772960
 20
82.891880
 30
0.0
  0
SPLINE
  5
527
100
AcDbEntity
  8
Calque_1
 62
7
100
AcDbSpline
 70
8
 71
3
 72
8
 73
4
 74
0
 40
0
 40
0
 40
0
 40
0
 40
1
 40
1
 40
1
 40
1
 10
12.892457
 20
58.739880
 30
0.0
 10
12.276149
 20
58.739880
 30
0.0
 10
11.690243
 20
58.688880
 30
0.0
 10
11.167496
 20
58.566780
 30
0.0
  0
SPLINE
  5
528
100
AcDbEntity
  8
Calque_1
 62
7
100
AcDbSpline
 70
8
 71
3
 72
8
 73
4
 74
0
 40
0
 40
0
 40
0
 40
0
 40
1
 40
1
 40
1
 40
1
 10
11.167496
 20
58.566780
 30
0.0
 10
9.058398
 20
58.072580
 30
0.0
 10
7.149779
 20
56.681580
 30
0.0
 10
5.525981
 20
55.336480
 30
0.0
  0
SPLINE
  5
529
100
AcDbEntity
  8
Calque_1
 62
7
100
AcDbSpline
 70
8
 71
3
 72
8
 73
4
 74
0
 40
0
 40
0
 40
0
 40
0
 40
1
 40
1
 40
1
 40
1
 10
5.525981
 20
55.336480
 30
0.0
 10
4.336182
 20
54.350980
 30
0.0
 10
3.513748
 20
53.732580
 30
0.0
 10
2.972649
 20
52.214680
 30
0.0
  0
SPLINE
  5
52a
100
AcDbEntity
  8
Calque_1
 62
7
100
AcDbSpline
 70
8
 71
3
 72
8
 73
4
 74
0
 40
0
 40
0
 40
0
 40
0
 40
1
 40
1
 40
1
 40
1
 10
2.972649
 20
52.214680
 30
0.0
 10
2.761849
 20
51.623780
 30
0.0
 10
2.744354
 20
50.976580
 30
0.0
 10
2.735454
 20
50.350280
 30
0.0
  0
SPLINE
  5
52b
100
AcDbEntity
  8
Calque_1
 62
7
100
AcDbSpline
 70
8
 71
3
 72
8
 73
4
 74
0
 40
0
 40
0
 40
0
 40
0
 40
1
 40
1
 40
1
 40
1
 10
2.735454
 20
50.350280
 30
0.0
 10
2.702454
 20
48.040380
 30
0.0
 10
3.078435
 20
47.208680
 30
0.0
 10
4.041834
 20
44.929880
 30
0.0
  0
SPLINE
  5
52c
100
AcDbEntity
  8
Calque_1
 62
7
100
AcDbSpline
 70
8
 71
3
 72
8
 73
4
 74
0
 40
0
 40
0
 40
0
 40
0
 40
1
 40
1
 40
1
 40
1
 10
4.041834
 20
44.929880
 30
0.0
 10
4.499034
 20
43.848580
 30
0.0
 10
5.582947
 20
41.857480
 30
0.0
 10
6.397246
 20
40.940980
 30
0.0
  0
SPLINE
  5
52d
100
AcDbEntity
  8
Calque_1
 62
7
100
AcDbSpline
 70
8
 71
3
 72
8
 73
4
 74
0
 40
0
 40
0
 40
0
 40
0
 40
1
 40
1
 40
1
 40
1
 10
6.397246
 20
40.940980
 30
0.0
 10
6.878845
 20
40.399180
 30
0.0
 10
7.451840
 20
39.937480
 30
0.0
 10
8.040039
 20
39.510080
 30
0.0
  0
SPLINE
  5
52e
100
AcDbEntity
  8
Calque_1
 62
7
100
AcDbSpline
 70
8
 71
3
 72
8
 73
4
 74
0
 40
0
 40
0
 40
0
 40
0
 40
1
 40
1
 40
1
 40
1
 10
8.040039
 20
39.510080
 30
0.0
 10
10.591436
 20
37.656180
 30
0.0
 10
13.437133
 20
36.530080
 30
0.0
 10
16.630730
 20
36.496280
 30
0.0
  0
SPLINE
  5
52f
100
AcDbEntity
  8
Calque_1
 62
7
100
AcDbSpline
 70
8
 71
3
 72
8
 73
4
 74
0
 40
0
 40
0
 40
0
 40
0
 40
1
 40
1
 40
1
 40
1
 10
16.630730
 20
36.496280
 30
0.0
 10
17.678629
 20
36.485280
 30
0.0
 10
19.077811
 20
36.758880
 30
0.0
 10
20.054810
 20
37.125180
 30
0.0
  0
SPLINE
  5
530
100
AcDbEntity
  8
Calque_1
 62
7
100
AcDbSpline
 70
8
 71
3
 72
8
 73
4
 74
0
 40
0
 40
0
 40
0
 40
0
 40
1
 40
1
 40
1
 40
1
 10
20.054810
 20
37.125180
 30
0.0
 10
22.642007
 20
38.095080
 30
0.0
 10
24.067549
 20
39.366280
 30
0.0
 10
25.280848
 20
41.808080
 30
0.0
  0
SPLINE
  5
531
100
AcDbEntity
  8
Calque_1
 62
7
100
AcDbSpline
 70
8
 71
3
 72
8
 73
4
 74
0
 40
0
 40
0
 40
0
 40
0
 40
1
 40
1
 40
1
 40
1
 10
25.280848
 20
41.808080
 30
0.0
 10
25.597147
 20
42.444780
 30
0.0
 10
26.106724
 20
43.955580
 30
0.0
 10
26.211023
 20
44.669980
 30
0.0
  0
SPLINE
  5
532
100
AcDbEntity
  8
Calque_1
 62
7
100
AcDbSpline
 70
8
 71
3
 72
8
 73
4
 74
0
 40
0
 40
0
 40
0
 40
0
 40
1
 40
1
 40
1
 40
1
 10
26.211023
 20
44.669980
 30
0.0
 10
26.449923
 20
46.305380
 30
0.0
 10
26.510095
 20
48.269180
 30
0.0
 10
25.538196
 20
49.699680
 30
0.0
  0
SPLINE
  5
533
100
AcDbEntity
  8
Calque_1
 62
7
100
AcDbSpline
 70
8
 71
3
 72
8
 73
4
 74
0
 40
0
 40
0
 40
0
 40
0
 40
1
 40
1
 40
1
 40
1
 10
25.538196
 20
49.699680
 30
0.0
 10
25.398596
 20
49.905080
 30
0.0
 10
24.359588
 20
50.875780
 30
0.0
 10
24.172388
 20
51.043780
 30
0.0
  0
SPLINE
  5
534
100
AcDbEntity
  8
Calque_1
 62
7
100
AcDbSpline
 70
8
 71
3
 72
8
 73
4
 74
0
 40
0
 40
0
 40
0
 40
0
 40
1
 40
1
 40
1
 40
1
 10
24.172388
 20
51.043780
 30
0.0
 10
23.932988
 20
51.258680
 30
0.0
 10
23.594816
 20
51.392580
 30
0.0
 10
23.439616
 20
51.672680
 30
0.0
  0
SPLINE
  5
535
100
AcDbEntity
  8
Calque_1
 62
7
100
AcDbSpline
 70
8
 71
3
 72
8
 73
4
 74
0
 40
0
 40
0
 40
0
 40
0
 40
1
 40
1
 40
1
 40
1
 10
23.439616
 20
51.672680
 30
0.0
 10
23.112217
 20
52.263580
 30
0.0
 10
22.991089
 20
52.944680
 30
0.0
 10
22.766789
 20
53.580580
 30
0.0
  0
SPLINE
  5
536
100
AcDbEntity
  8
Calque_1
 62
7
100
AcDbSpline
 70
8
 71
3
 72
8
 73
4
 74
0
 40
0
 40
0
 40
0
 40
0
 40
1
 40
1
 40
1
 40
1
 10
22.766789
 20
53.580580
 30
0.0
 10
21.579190
 20
54.642880
 30
0.0
 10
20.462798
 20
55.788280
 30
0.0
 10
19.203699
 20
56.767380
 30
0.0
  0
SPLINE
  5
537
100
AcDbEntity
  8
Calque_1
 62
7
100
AcDbSpline
 70
8
 71
3
 72
8
 73
4
 74
0
 40
0
 40
0
 40
0
 40
0
 40
1
 40
1
 40
1
 40
1
 10
19.203699
 20
56.767380
 30
0.0
 10
17.685810
 20
57.947980
 30
0.0
 10
15.093553
 20
58.723880
 30
0.0
 10
12.892457
 20
58.739880
 30
0.0
  0
LWPOLYLINE
  5
538
100
AcDbEntity
  8
Calque_1
 62
7
100
AcDbPolyline
 90
1
 70
1
 10
116.639590
 20
93.508920
 30
0.0
  0
LWPOLYLINE
  5
539
100
AcDbEntity
  8
Calque_1
 62
7
100
AcDbPolyline
 90
1
 70
1
 10
12.892457
 20
58.739880
 30
0.0
  0
LWPOLYLINE
  5
53a
100
AcDbEntity
  8
Calque_1
 62
7
100
AcDbPolyline
 90
4
 70
1
 10
0.499998
 20
856.499930
 30
0.0
 10
374.499910
 20
856.499930
 30
0.0
 10
374.499910
 20
0.499980
 30
0.0
 10
0.499998
 20
0.499980
 30
0.0
  0
LWPOLYLINE
  5
53b
100
AcDbEntity
  8
Calque_1
 62
7
100
AcDbPolyline
 90
4
 70
1
 10
0.499998
 20
1084.759902
 30
0.0
 10
374.499910
 20
1084.759902
 30
0.0
 10
374.499910
 20
860.500210
 30
0.0
 10
0.499998
 20
860.500210
 30
0.0
  0
ENDSEC
  0
SECTION
  2
OBJECTS
  0
DICTIONARY
  5
C
330
0
100
AcDbDictionary
  3
ACAD_GROUP
350
D
  3
ACAD_MLINESTYLE
350
17
  0
DICTIONARY
  5
D
330
C
100
AcDbDictionary
  0
DICTIONARY
  5
1A
330
C
100
AcDbDictionary
  0
DICTIONARY
  5
17
330
C
100
AcDbDictionary
  3
STANDARD
350
18
  0
DICTIONARY
  5
19
330
C
100
AcDbDictionary
  0
ENDSEC
  0
EOF
