999
"DXF R12 Output" (www.mydxf.blogspot.com)
 0 
SECTION
 2 
HEADER
 9 
$ACADVER
 1 
AC1009
 9 
$EXTMIN
 10 
 0 
 20 
 0 
 9 
$EXTMAX
 10 
 8.5 
 20 
 11 
 0 
ENDSEC
 0 
SECTION
 2 
ENTITIES
0
LINE
8
Calque 1
10
16.050900
20
2841.370000
11
15.930274
21
2836.569034
0
LINE
8
Calque 1
10
15.930274
20
2836.569034
11
16.053900
21
2831.724080
0
LINE
8
Calque 1
10
16.053900
20
2831.724080
11
16.440117
21
2826.720406
0
LINE
8
Calque 1
10
16.440117
20
2826.720406
11
17.008360
21
2821.681280
0
LINE
8
Calque 1
10
17.008360
20
2821.681280
11
17.577374
21
2816.277450
0
LINE
8
Calque 1
10
17.577374
20
2816.277450
11
18.007270
21
2810.801380
0
LINE
8
Calque 1
10
18.007270
20
2810.801380
11
18.126400
21
2807.220925
0
LINE
8
Calque 1
10
18.126400
20
2807.220925
11
18.004270
21
2803.614220
0
LINE
8
Calque 1
10
18.004270
20
2803.614220
11
17.614620
21
2801.220030
0
LINE
8
Calque 1
10
17.614620
20
2801.220030
11
17.627020
21
2798.233130
0
LINE
8
Calque 1
10
17.627020
20
2798.233130
11
17.928292
21
2793.451656
0
LINE
8
Calque 1
10
17.928292
20
2793.451656
11
18.367040
21
2788.509180
0
LINE
8
Calque 1
10
18.367040
20
2788.509180
11
18.611460
21
2783.730140
0
LINE
8
Calque 1
10
18.611460
20
2783.730140
11
18.897230
21
2778.134640
0
LINE
8
Calque 1
10
18.897230
20
2778.134640
11
18.937530
21
2772.832100
0
LINE
8
Calque 1
10
18.937530
20
2772.832100
11
18.959730
21
2771.607380
0
LINE
8
Calque 1
10
18.959730
20
2771.607380
11
18.984630
21
2771.526280
0
LINE
8
Calque 1
10
18.984630
20
2771.526280
11
19.006330
21
2771.363490
0
LINE
8
Calque 1
10
19.006330
20
2771.363490
11
19.021430
21
2771.183150
0
LINE
8
Calque 1
10
19.021430
20
2771.183150
11
19.042030
21
2770.777490
0
LINE
8
Calque 1
10
19.042030
20
2770.777490
11
19.098330
21
2769.160540
0
LINE
8
Calque 1
10
19.098330
20
2769.160540
11
19.034830
21
2764.158760
0
LINE
8
Calque 1
10
19.034830
20
2764.158760
11
18.876921
21
2762.238216
0
LINE
8
Calque 1
10
18.876921
20
2762.238216
11
18.815200
21
2760.652000
0
LINE
8
Calque 1
10
18.815200
20
2760.652000
11
18.959980
21
2758.400460
0
LINE
8
Calque 1
10
18.959980
20
2758.400460
11
19.017790
21
2755.870910
0
LINE
8
Calque 1
10
19.017790
20
2755.870910
11
18.817260
21
2752.686600
0
LINE
8
Calque 1
10
18.817260
20
2752.686600
11
18.817260
21
2746.599130
0
LINE
8
Calque 1
10
18.817260
20
2746.599130
11
18.493260
21
2741.825250
0
LINE
8
Calque 1
10
18.493260
20
2741.825250
11
18.424926
21
2739.902462
0
LINE
8
Calque 1
10
18.424926
20
2739.902462
11
18.253490
21
2737.782080
0
LINE
8
Calque 1
10
18.253490
20
2737.782080
11
18.001320
21
2736.355820
0
LINE
8
Calque 1
10
18.001320
20
2736.355820
11
17.539830
21
2732.936380
0
LINE
8
Calque 1
10
17.539830
20
2732.936380
11
17.039610
21
2729.944310
0
LINE
8
Calque 1
10
17.039610
20
2729.944310
11
17.042610
21
2727.366690
0
LINE
8
Calque 1
10
17.042610
20
2727.366690
11
16.852950
21
2725.029900
0
LINE
8
Calque 1
10
16.852950
20
2725.029900
11
16.586891
21
2722.919131
0
LINE
8
Calque 1
10
16.586891
20
2722.919131
11
16.440570
21
2721.162430
0
LINE
8
Calque 1
10
16.440570
20
2721.162430
11
16.606586
21
2717.397506
0
LINE
8
Calque 1
10
16.606586
20
2717.397506
11
16.880340
21
2713.474520
0
LINE
8
Calque 1
10
16.880340
20
2713.474520
11
16.984190
21
2707.652670
0
LINE
8
Calque 1
10
16.984190
20
2707.652670
11
17.206910
21
2700.986920
0
LINE
8
Calque 1
10
17.206910
20
2700.986920
11
17.226510
21
2694.616240
0
LINE
8
Calque 1
10
17.226510
20
2694.616240
11
17.327260
21
2690.996290
0
LINE
8
Calque 1
10
17.327260
20
2690.996290
11
17.173884
21
2688.177615
0
LINE
8
Calque 1
10
17.173884
20
2688.177615
11
17.082840
21
2685.846740
0
LINE
8
Calque 1
10
17.082840
20
2685.846740
11
17.429701
21
2682.861577
0
LINE
8
Calque 1
10
17.429701
20
2682.861577
11
17.788750
21
2679.418720
0
LINE
8
Calque 1
10
17.788750
20
2679.418720
11
17.849750
21
2673.025310
0
LINE
8
Calque 1
10
17.849750
20
2673.025310
11
18.391850
21
2664.764820
0
LINE
8
Calque 1
10
18.391850
20
2664.764820
11
18.576850
21
2658.855120
0
LINE
8
Calque 1
10
18.576850
20
2658.855120
11
18.496250
21
2650.929510
0
LINE
8
Calque 1
10
18.496250
20
2650.929510
11
18.757740
21
2645.823350
0
LINE
8
Calque 1
10
18.757740
20
2645.823350
11
18.865579
21
2641.045450
0
LINE
8
Calque 1
10
18.865579
20
2641.045450
11
18.775740
21
2636.182080
0
LINE
8
Calque 1
10
18.775740
20
2636.182080
11
18.508590
21
2633.792550
0
LINE
8
Calque 1
10
18.508590
20
2633.792550
11
18.393340
21
2633.268570
0
LINE
8
Calque 1
10
18.393340
20
2633.268570
11
18.617100
21
2631.734280
0
LINE
8
Calque 1
10
18.617100
20
2631.734280
11
18.801909
21
2629.829681
0
LINE
8
Calque 1
10
18.801909
20
2629.829681
11
18.839320
21
2627.870970
0
LINE
8
Calque 1
10
18.839320
20
2627.870970
11
18.789220
21
2625.067500
0
LINE
8
Calque 1
10
18.789220
20
2625.067500
11
18.729820
21
2624.396230
0
LINE
8
Calque 1
10
18.729820
20
2624.396230
11
18.680220
21
2624.254650
0
LINE
8
Calque 1
10
18.680220
20
2624.254650
11
18.616120
21
2622.419610
0
LINE
8
Calque 1
10
18.616120
20
2622.419610
11
18.613120
21
2619.839420
0
LINE
8
Calque 1
10
18.613120
20
2619.839420
11
18.369700
21
2617.007540
0
LINE
8
Calque 1
10
18.369700
20
2617.007540
11
18.231750
21
2613.051700
0
LINE
8
Calque 1
10
18.231750
20
2613.051700
11
18.170750
21
2607.031410
0
LINE
8
Calque 1
10
18.170750
20
2607.031410
11
17.869470
21
2596.536410
0
LINE
8
Calque 1
10
17.869470
20
2596.536410
11
17.851970
21
2595.538030
0
LINE
8
Calque 1
10
17.851970
20
2595.538030
11
17.862870
21
2595.499830
0
LINE
8
Calque 1
10
17.862870
20
2595.499830
11
17.893870
21
2595.164450
0
LINE
8
Calque 1
10
17.893870
20
2595.164450
11
17.893870
21
2595.035250
0
LINE
8
Calque 1
10
17.893870
20
2595.035250
11
17.827770
21
2592.853980
0
LINE
8
Calque 1
10
17.827770
20
2592.853980
11
17.587480
21
2586.381010
0
LINE
8
Calque 1
10
17.587480
20
2586.381010
11
17.598880
21
2583.894850
0
LINE
8
Calque 1
10
17.598880
20
2583.894850
11
17.604480
21
2583.761011
0
LINE
8
Calque 1
10
17.604480
20
2583.761011
11
17.533280
21
2584.046250
0
LINE
8
Calque 1
10
17.533280
20
2584.046250
11
17.625280
21
2583.555340
0
LINE
8
Calque 1
10
17.625280
20
2583.555340
11
17.638280
21
2583.135710
0
LINE
8
Calque 1
10
17.638280
20
2583.135710
11
17.627980
21
2581.029390
0
LINE
8
Calque 1
10
17.627980
20
2581.029390
11
17.527230
21
2575.196660
0
LINE
8
Calque 1
10
17.527230
20
2575.196660
11
17.579916
21
2569.105039
0
LINE
8
Calque 1
10
17.579916
20
2569.105039
11
17.767520
21
2562.967960
0
LINE
8
Calque 1
10
17.767520
20
2562.967960
11
17.849720
21
2556.542010
0
LINE
8
Calque 1
10
17.849720
20
2556.542010
11
17.927820
21
2552.634750
0
LINE
8
Calque 1
10
17.927820
20
2552.634750
11
18.456450
21
2552.820280
0
LINE
8
Calque 1
10
18.456450
20
2552.820280
11
20.504410
21
2553.282770
0
LINE
8
Calque 1
10
20.504410
20
2553.282770
11
22.580250
21
2554.024310
0
LINE
8
Calque 1
10
22.580250
20
2554.024310
11
22.604550
21
2555.839720
0
LINE
8
Calque 1
10
22.604550
20
2555.839720
11
22.598550
21
2555.932220
0
LINE
8
Calque 1
10
22.598550
20
2555.932220
11
22.573650
21
2556.326510
0
LINE
8
Calque 1
10
22.573650
20
2556.326510
11
22.498150
21
2557.547110
0
LINE
8
Calque 1
10
22.498150
20
2557.547110
11
22.379830
21
2559.735610
0
LINE
8
Calque 1
10
22.379830
20
2559.735610
11
22.430430
21
2561.207880
0
LINE
8
Calque 1
10
22.430430
20
2561.207880
11
22.532417
21
2562.030611
0
LINE
8
Calque 1
10
22.532417
20
2562.030611
11
22.566451
21
2562.094688
0
LINE
8
Calque 1
10
22.566451
20
2562.094688
11
22.584410
21
2561.930820
0
LINE
8
Calque 1
10
22.584410
20
2561.930820
11
22.335340
21
2563.960680
0
LINE
8
Calque 1
10
22.335340
20
2563.960680
11
22.408855
21
2564.894311
0
LINE
8
Calque 1
10
22.408855
20
2564.894311
11
22.834090
21
2565.728726
0
LINE
8
Calque 1
10
22.834090
20
2565.728726
11
23.546293
21
2566.336869
0
LINE
8
Calque 1
10
23.546293
20
2566.336869
11
24.437020
21
2566.626140
0
LINE
8
Calque 1
10
24.437020
20
2566.626140
11
25.386829
21
2566.548436
0
LINE
8
Calque 1
10
25.386829
20
2566.548436
11
26.204735
21
2566.127185
0
LINE
8
Calque 1
10
26.204735
20
2566.127185
11
26.805019
21
2565.429989
0
LINE
8
Calque 1
10
26.805019
20
2565.429989
11
27.101960
21
2564.524450
0
LINE
8
Calque 1
10
27.101960
20
2564.524450
11
27.382040
21
2562.081720
0
LINE
8
Calque 1
10
27.382040
20
2562.081720
11
27.302737
21
2560.964543
0
LINE
8
Calque 1
10
27.302737
20
2560.964543
11
27.210490
21
2560.771710
0
LINE
8
Calque 1
10
27.210490
20
2560.771710
11
27.179490
21
2559.804850
0
LINE
8
Calque 1
10
27.179490
20
2559.804850
11
27.289560
21
2557.836510
0
LINE
8
Calque 1
10
27.289560
20
2557.836510
11
27.364460
21
2556.624160
0
LINE
8
Calque 1
10
27.364460
20
2556.624160
11
27.389360
21
2556.231420
0
LINE
8
Calque 1
10
27.389360
20
2556.231420
11
27.396360
21
2556.119810
0
LINE
8
Calque 1
10
27.396360
20
2556.119810
11
27.399360
21
2556.087810
0
LINE
8
Calque 1
10
27.399360
20
2556.087810
11
27.397985
21
2556.146451
0
LINE
8
Calque 1
10
27.397985
20
2556.146451
11
27.403360
21
2556.010310
0
LINE
8
Calque 1
10
27.403360
20
2556.010310
11
27.399360
21
2555.715750
0
LINE
8
Calque 1
10
27.399360
20
2555.715750
11
28.626680
21
2556.134850
0
LINE
8
Calque 1
10
28.626680
20
2556.134850
11
32.246090
21
2558.088750
0
LINE
8
Calque 1
10
32.246090
20
2558.088750
11
33.239820
21
2558.471680
0
LINE
8
Calque 1
10
33.239820
20
2558.471680
11
34.743862
21
2559.341129
0
LINE
8
Calque 1
10
34.743862
20
2559.341129
11
36.872670
21
2560.350610
0
LINE
8
Calque 1
10
36.872670
20
2560.350610
11
40.015120
21
2561.246680
0
LINE
8
Calque 1
10
40.015120
20
2561.246680
11
41.353874
21
2561.856908
0
LINE
8
Calque 1
10
41.353874
20
2561.856908
11
43.298650
21
2562.628010
0
LINE
8
Calque 1
10
43.298650
20
2562.628010
11
44.749031
21
2562.981006
0
LINE
8
Calque 1
10
44.749031
20
2562.981006
11
45.998241
21
2563.171880
0
LINE
8
Calque 1
10
45.998241
20
2563.171880
11
47.861680
21
2563.489970
0
LINE
8
Calque 1
10
47.861680
20
2563.489970
11
51.438710
21
2564.969470
0
LINE
8
Calque 1
10
51.438710
20
2564.969470
11
51.543080
21
2564.992770
0
LINE
8
Calque 1
10
51.543080
20
2564.992770
11
51.543080
21
2565.002770
0
LINE
8
Calque 1
10
51.543080
20
2565.002770
11
51.418662
21
2567.585755
0
LINE
8
Calque 1
10
51.418662
20
2567.585755
11
51.179810
21
2570.528530
0
LINE
8
Calque 1
10
51.179810
20
2570.528530
11
51.075410
21
2575.604690
0
LINE
8
Calque 1
10
51.075410
20
2575.604690
11
50.973090
21
2579.811690
0
LINE
8
Calque 1
10
50.973090
20
2579.811690
11
50.973100
21
2579.810000
0
LINE
8
Calque 1
10
50.973100
20
2579.810000
11
51.140030
21
2582.999470
0
LINE
8
Calque 1
10
51.140030
20
2582.999470
11
51.518810
21
2586.165180
0
LINE
8
Calque 1
10
51.518810
20
2586.165180
11
51.582910
21
2586.628200
0
LINE
8
Calque 1
10
51.582910
20
2586.628200
11
51.628910
21
2586.238540
0
LINE
8
Calque 1
10
51.628910
20
2586.238540
11
51.699710
21
2585.808090
0
LINE
8
Calque 1
10
51.699710
20
2585.808090
11
51.555915
21
2586.702654
0
LINE
8
Calque 1
10
51.555915
20
2586.702654
11
51.754010
21
2587.586780
0
LINE
8
Calque 1
10
51.754010
20
2587.586780
11
51.806410
21
2587.820109
0
LINE
8
Calque 1
10
51.806410
20
2587.820109
11
52.389120
21
2588.462180
0
LINE
8
Calque 1
10
52.389120
20
2588.462180
11
52.785051
21
2588.754783
0
LINE
8
Calque 1
10
52.785051
20
2588.754783
11
53.494460
21
2589.015630
0
LINE
8
Calque 1
10
53.494460
20
2589.015630
11
54.540559
21
2588.968130
0
LINE
8
Calque 1
10
54.540559
20
2588.968130
11
55.489180
21
2588.537110
0
LINE
8
Calque 1
10
55.489180
20
2588.537110
11
56.023845
21
2588.014787
0
LINE
8
Calque 1
10
56.023845
20
2588.014787
11
56.268047
21
2587.598406
0
LINE
8
Calque 1
10
56.268047
20
2587.598406
11
56.357860
21
2587.063300
0
LINE
8
Calque 1
10
56.357860
20
2587.063300
11
56.428851
21
2586.329311
0
LINE
8
Calque 1
10
56.428851
20
2586.329311
11
56.366860
21
2586.185310
0
LINE
8
Calque 1
10
56.366860
20
2586.185310
11
56.284660
21
2585.593120
0
LINE
8
Calque 1
10
56.284660
20
2585.593120
11
55.931740
21
2582.704400
0
LINE
8
Calque 1
10
55.931740
20
2582.704400
11
55.773090
21
2579.749010
0
LINE
8
Calque 1
10
55.773090
20
2579.749010
11
55.874370
21
2575.732720
0
LINE
8
Calque 1
10
55.874370
20
2575.732720
11
55.973570
21
2570.778510
0
LINE
8
Calque 1
10
55.973570
20
2570.778510
11
56.289830
21
2566.144680
0
LINE
8
Calque 1
10
56.289830
20
2566.144680
11
56.843790
21
2566.464030
0
LINE
8
Calque 1
10
56.843790
20
2566.464030
11
58.612150
21
2567.117740
0
LINE
8
Calque 1
10
58.612150
20
2567.117740
11
60.341260
21
2567.546150
0
LINE
8
Calque 1
10
60.341260
20
2567.546150
11
61.366510
21
2567.949220
0
LINE
8
Calque 1
10
61.366510
20
2567.949220
11
62.873920
21
2568.386410
0
LINE
8
Calque 1
10
62.873920
20
2568.386410
11
63.636800
21
2568.520654
0
LINE
8
Calque 1
10
63.636800
20
2568.520654
11
63.705900
21
2568.494420
0
LINE
8
Calque 1
10
63.705900
20
2568.494420
11
64.983340
21
2569.056660
0
LINE
8
Calque 1
10
64.983340
20
2569.056660
11
65.833883
21
2569.465803
0
LINE
8
Calque 1
10
65.833883
20
2569.465803
11
66.981680
21
2569.824050
0
LINE
8
Calque 1
10
66.981680
20
2569.824050
11
68.402959
21
2569.985776
0
LINE
8
Calque 1
10
68.402959
20
2569.985776
11
69.128320
21
2569.984760
0
LINE
8
Calque 1
10
69.128320
20
2569.984760
11
69.285930
21
2570.009060
0
LINE
8
Calque 1
10
69.285930
20
2570.009060
11
70.219730
21
2570.386810
0
LINE
8
Calque 1
10
70.219730
20
2570.386810
11
71.928939
21
2570.843618
0
LINE
8
Calque 1
10
71.928939
20
2570.843618
11
73.450520
21
2571.142850
0
LINE
8
Calque 1
10
73.450520
20
2571.142850
11
75.623123
21
2571.417158
0
LINE
8
Calque 1
10
75.623123
20
2571.417158
11
77.327830
21
2571.577960
0
LINE
8
Calque 1
10
77.327830
20
2571.577960
11
79.277570
21
2571.989810
0
LINE
8
Calque 1
10
79.277570
20
2571.989810
11
80.798420
21
2572.152610
0
LINE
8
Calque 1
10
80.798420
20
2572.152610
11
81.543691
21
2572.150619
0
LINE
8
Calque 1
10
81.543691
20
2572.150619
11
82.501670
21
2571.843580
0
LINE
8
Calque 1
10
82.501670
20
2571.843580
11
82.420570
21
2571.819780
0
LINE
8
Calque 1
10
82.420570
20
2571.819780
11
82.499670
21
2571.799180
0
LINE
8
Calque 1
10
82.499670
20
2571.799180
11
82.595270
21
2571.777480
0
LINE
8
Calque 1
10
82.595270
20
2571.777480
11
83.153380
21
2571.383700
0
LINE
8
Calque 1
10
83.153380
20
2571.383700
11
82.623160
21
2571.770760
0
LINE
8
Calque 1
10
82.623160
20
2571.770760
11
83.098080
21
2571.661730
0
LINE
8
Calque 1
10
83.098080
20
2571.661730
11
83.851510
21
2571.476730
0
LINE
8
Calque 1
10
83.851510
20
2571.476730
11
84.337280
21
2571.311360
0
LINE
8
Calque 1
10
84.337280
20
2571.311360
11
84.820970
21
2571.050380
0
LINE
8
Calque 1
10
84.820970
20
2571.050380
11
85.283444
21
2570.682524
0
LINE
8
Calque 1
10
85.283444
20
2570.682524
11
85.770270
21
2569.744000
0
LINE
8
Calque 1
10
85.770270
20
2569.744000
11
85.906180
21
2569.364180
0
LINE
8
Calque 1
10
85.906180
20
2569.364180
11
86.328380
21
2566.893540
0
LINE
8
Calque 1
10
86.328380
20
2566.893540
11
86.550570
21
2563.078250
0
LINE
8
Calque 1
10
86.550570
20
2563.078250
11
86.820320
21
2559.024760
0
LINE
8
Calque 1
10
86.820320
20
2559.024760
11
86.863720
21
2555.141790
0
LINE
8
Calque 1
10
86.863720
20
2555.141790
11
87.027020
21
2552.371420
0
LINE
8
Calque 1
10
87.027020
20
2552.371420
11
87.050320
21
2550.121430
0
LINE
8
Calque 1
10
87.050320
20
2550.121430
11
87.109720
21
2546.934530
0
LINE
8
Calque 1
10
87.109720
20
2546.934530
11
87.087020
21
2541.948810
0
LINE
8
Calque 1
10
87.087020
20
2541.948810
11
87.153620
21
2537.742870
0
LINE
8
Calque 1
10
87.153620
20
2537.742870
11
87.281780
21
2534.854650
0
LINE
8
Calque 1
10
87.281780
20
2534.854650
11
87.476090
21
2532.267740
0
LINE
8
Calque 1
10
87.476090
20
2532.267740
11
87.594410
21
2528.244200
0
LINE
8
Calque 1
10
87.594410
20
2528.244200
11
87.843490
21
2524.427380
0
LINE
8
Calque 1
10
87.843490
20
2524.427380
11
87.875490
21
2521.990840
0
LINE
8
Calque 1
10
87.875490
20
2521.990840
11
87.994370
21
2519.297990
0
LINE
8
Calque 1
10
87.994370
20
2519.297990
11
87.891000
21
2511.813680
0
LINE
8
Calque 1
10
87.891000
20
2511.813680
11
87.876500
21
2508.199950
0
LINE
8
Calque 1
10
87.876500
20
2508.199950
11
87.816600
21
2505.154650
0
LINE
8
Calque 1
10
87.816600
20
2505.154650
11
87.785100
21
2504.557810
0
LINE
8
Calque 1
10
87.785100
20
2504.557810
11
87.742700
21
2503.722700
0
LINE
8
Calque 1
10
87.742700
20
2503.722700
11
87.736700
21
2499.946720
0
LINE
8
Calque 1
10
87.736700
20
2499.946720
11
87.676800
21
2498.022300
0
LINE
8
Calque 1
10
87.676800
20
2498.022300
11
87.625100
21
2495.339770
0
LINE
8
Calque 1
10
87.625100
20
2495.339770
11
87.530000
21
2492.628300
0
LINE
8
Calque 1
10
87.530000
20
2492.628300
11
87.516000
21
2490.073430
0
LINE
8
Calque 1
10
87.516000
20
2490.073430
11
87.552700
21
2485.879870
0
LINE
8
Calque 1
10
87.552700
20
2485.879870
11
87.486600
21
2481.401590
0
LINE
8
Calque 1
10
87.486600
20
2481.401590
11
87.721230
21
2474.970460
0
LINE
8
Calque 1
10
87.721230
20
2474.970460
11
87.676730
21
2471.860570
0
LINE
8
Calque 1
10
87.676730
20
2471.860570
11
87.635930
21
2470.305630
0
LINE
8
Calque 1
10
87.635930
20
2470.305630
11
87.577030
21
2469.804880
0
LINE
8
Calque 1
10
87.577030
20
2469.804880
11
87.541925
21
2465.490223
0
LINE
8
Calque 1
10
87.541925
20
2465.490223
11
87.641130
21
2460.837990
0
LINE
8
Calque 1
10
87.641130
20
2460.837990
11
87.573930
21
2458.828290
0
LINE
8
Calque 1
10
87.573930
20
2458.828290
11
87.493330
21
2455.230060
0
LINE
8
Calque 1
10
87.493330
20
2455.230060
11
87.397230
21
2449.405610
0
LINE
8
Calque 1
10
87.397230
20
2449.405610
11
87.393230
21
2449.261430
0
LINE
8
Calque 1
10
87.393230
20
2449.261430
11
87.393230
21
2449.254430
0
LINE
8
Calque 1
10
87.393230
20
2449.254430
11
87.373630
21
2448.392990
0
LINE
8
Calque 1
10
87.373630
20
2448.392990
11
87.362830
21
2448.261730
0
LINE
8
Calque 1
10
87.362830
20
2448.261730
11
87.337930
21
2448.120650
0
LINE
8
Calque 1
10
87.337930
20
2448.120650
11
87.329930
21
2446.675780
0
LINE
8
Calque 1
10
87.329930
20
2446.675780
11
87.233830
21
2442.292580
0
LINE
8
Calque 1
10
87.233830
20
2442.292580
11
87.204830
21
2440.132510
0
LINE
8
Calque 1
10
87.204830
20
2440.132510
11
87.153130
21
2437.358520
0
LINE
8
Calque 1
10
87.153130
20
2437.358520
11
87.266820
21
2435.216530
0
LINE
8
Calque 1
10
87.266820
20
2435.216530
11
87.700360
21
2435.133830
0
LINE
8
Calque 1
10
87.700360
20
2435.133830
11
89.424810
21
2434.798970
0
LINE
8
Calque 1
10
89.424810
20
2434.798970
11
90.303840
21
2434.529210
0
LINE
8
Calque 1
10
90.303840
20
2434.529210
11
90.307840
21
2434.527210
0
LINE
8
Calque 1
10
90.307840
20
2434.527210
11
93.314202
21
2436.253451
0
LINE
8
Calque 1
10
93.314202
20
2436.253451
11
96.403590
21
2438.294430
0
LINE
8
Calque 1
10
96.403590
20
2438.294430
11
97.647412
21
2439.119306
0
LINE
8
Calque 1
10
97.647412
20
2439.119306
11
99.337260
21
2440.050390
0
LINE
8
Calque 1
10
99.337260
20
2440.050390
11
101.711526
21
2440.935810
0
LINE
8
Calque 1
10
101.711526
20
2440.935810
11
103.571120
21
2441.601720
0
LINE
8
Calque 1
10
103.571120
20
2441.601720
11
106.161930
21
2442.934323
0
LINE
8
Calque 1
10
106.161930
20
2442.934323
11
108.751150
21
2444.442890
0
LINE
8
Calque 1
10
108.751150
20
2444.442890
11
111.163994
21
2446.094063
0
LINE
8
Calque 1
10
111.163994
20
2446.094063
11
114.014920
21
2447.918650
0
LINE
8
Calque 1
10
114.014920
20
2447.918650
11
115.133210
21
2448.573900
0
LINE
8
Calque 1
10
115.133210
20
2448.573900
11
116.571360
21
2449.357320
0
LINE
8
Calque 1
10
116.571360
20
2449.357320
11
119.291090
21
2450.659560
0
LINE
8
Calque 1
10
119.291090
20
2450.659560
11
120.104470
21
2451.174260
0
LINE
8
Calque 1
10
120.104470
20
2451.174260
11
121.689400
21
2452.023290
0
LINE
8
Calque 1
10
121.689400
20
2452.023290
11
125.528950
21
2453.526570
0
LINE
8
Calque 1
10
125.528950
20
2453.526570
11
125.802407
21
2453.718479
0
LINE
8
Calque 1
10
125.802407
20
2453.718479
11
126.707170
21
2454.167360
0
LINE
8
Calque 1
10
126.707170
20
2454.167360
11
128.862656
21
2454.893288
0
LINE
8
Calque 1
10
128.862656
20
2454.893288
11
130.757060
21
2455.424650
0
LINE
8
Calque 1
10
130.757060
20
2455.424650
11
134.884450
21
2456.782700
0
LINE
8
Calque 1
10
134.884450
20
2456.782700
11
137.436750
21
2457.564050
0
LINE
8
Calque 1
10
137.436750
20
2457.564050
11
141.887640
21
2459.481760
0
LINE
8
Calque 1
10
141.887640
20
2459.481760
11
142.985770
21
2459.830060
0
LINE
8
Calque 1
10
142.985770
20
2459.830060
11
143.173890
21
2459.868860
0
LINE
8
Calque 1
10
143.173890
20
2459.868860
11
143.929380
21
2460.190810
0
LINE
8
Calque 1
10
143.929380
20
2460.190810
11
147.058920
21
2461.742650
0
LINE
8
Calque 1
10
147.058920
20
2461.742650
11
148.651333
21
2462.345404
0
LINE
8
Calque 1
10
148.651333
20
2462.345404
11
150.233424
21
2462.786246
0
LINE
8
Calque 1
10
150.233424
20
2462.786246
11
152.879740
21
2463.450560
0
LINE
8
Calque 1
10
152.879740
20
2463.450560
11
154.104940
21
2463.609806
0
LINE
8
Calque 1
10
154.104940
20
2463.609806
11
155.002600
21
2463.477460
0
LINE
8
Calque 1
10
155.002600
20
2463.477460
11
155.464321
21
2463.357904
0
LINE
8
Calque 1
10
155.464321
20
2463.357904
11
155.516790
21
2463.331730
0
LINE
8
Calque 1
10
155.516790
20
2463.331730
11
156.010569
21
2463.466653
0
LINE
8
Calque 1
10
156.010569
20
2463.466653
11
157.622080
21
2463.646440
0
LINE
8
Calque 1
10
157.622080
20
2463.646440
11
158.928359
21
2463.588924
0
LINE
8
Calque 1
10
158.928359
20
2463.588924
11
159.105293
21
2463.518220
0
LINE
8
Calque 1
10
159.105293
20
2463.518220
11
158.985820
21
2463.472810
0
LINE
8
Calque 1
10
158.985820
20
2463.472810
11
159.364261
21
2463.608251
0
LINE
8
Calque 1
10
159.364261
20
2463.608251
11
160.598130
21
2463.843330
0
LINE
8
Calque 1
10
160.598130
20
2463.843330
11
161.643550
21
2463.861930
0
LINE
8
Calque 1
10
161.643550
20
2463.861930
11
162.962840
21
2463.830930
0
LINE
8
Calque 1
10
162.962840
20
2463.830930
11
164.223740
21
2463.792730
0
LINE
8
Calque 1
10
164.223740
20
2463.792730
11
164.763249
21
2463.779843
0
LINE
8
Calque 1
10
164.763249
20
2463.779843
11
164.884280
21
2463.776347
0
LINE
8
Calque 1
10
164.884280
20
2463.776347
11
164.759120
21
2463.775130
0
LINE
8
Calque 1
10
164.759120
20
2463.775130
11
165.245400
21
2463.814930
0
LINE
8
Calque 1
10
165.245400
20
2463.814930
11
166.131120
21
2464.128090
0
LINE
8
Calque 1
10
166.131120
20
2464.128090
11
166.592019
21
2464.484945
0
LINE
8
Calque 1
10
166.592019
20
2464.484945
11
166.823590
21
2464.578700
0
LINE
8
Calque 1
10
166.823590
20
2464.578700
11
167.085600
21
2464.672200
0
LINE
8
Calque 1
10
167.085600
20
2464.672200
11
167.390480
21
2464.752300
0
LINE
8
Calque 1
10
167.390480
20
2464.752300
11
167.958940
21
2464.864960
0
LINE
8
Calque 1
10
167.958940
20
2464.864960
11
168.576450
21
2464.950760
0
LINE
8
Calque 1
10
168.576450
20
2464.950760
11
168.977480
21
2464.971460
0
LINE
8
Calque 1
10
168.977480
20
2464.971460
11
169.290181
21
2465.023675
0
LINE
8
Calque 1
10
169.290181
20
2465.023675
11
170.224430
21
2464.657270
0
LINE
8
Calque 1
10
170.224430
20
2464.657270
11
171.147060
21
2463.858961
0
LINE
8
Calque 1
10
171.147060
20
2463.858961
11
171.624340
21
2463.000000
0
LINE
8
Calque 1
10
171.624340
20
2463.000000
11
171.927680
21
2461.600600
0
LINE
8
Calque 1
10
171.927680
20
2461.600600
11
171.857380
21
2459.119100
0
LINE
8
Calque 1
10
171.857380
20
2459.119100
11
171.577320
21
2456.899080
0
LINE
8
Calque 1
10
171.577320
20
2456.899080
11
171.490194
21
2456.069670
0
LINE
8
Calque 1
10
171.490194
20
2456.069670
11
171.460510
21
2455.826280
0
LINE
8
Calque 1
10
171.460510
20
2455.826280
11
171.628990
21
2451.790350
0
LINE
8
Calque 1
10
171.628990
20
2451.790350
11
171.570090
21
2450.678790
0
LINE
8
Calque 1
10
171.570090
20
2450.678790
11
171.527190
21
2450.228170
0
LINE
8
Calque 1
10
171.527190
20
2450.228170
11
171.413000
21
2445.464640
0
LINE
8
Calque 1
10
171.413000
20
2445.464640
11
171.396600
21
2438.309000
0
LINE
8
Calque 1
10
171.396600
20
2438.309000
11
171.513390
21
2430.197350
0
LINE
8
Calque 1
10
171.513390
20
2430.197350
11
171.429690
21
2420.382960
0
LINE
8
Calque 1
10
171.429690
20
2420.382960
11
171.346990
21
2416.529970
0
LINE
8
Calque 1
10
171.346990
20
2416.529970
11
171.562990
21
2407.794580
0
LINE
8
Calque 1
10
171.562990
20
2407.794580
11
171.513390
21
2406.103220
0
LINE
8
Calque 1
10
171.513390
20
2406.103220
11
171.810020
21
2397.420540
0
LINE
8
Calque 1
10
171.810020
20
2397.420540
11
171.877252
21
2393.734044
0
LINE
8
Calque 1
10
171.877252
20
2393.734044
11
171.780520
21
2389.983790
0
LINE
8
Calque 1
10
171.780520
20
2389.983790
11
172.444040
21
2389.986790
0
LINE
8
Calque 1
10
172.444040
20
2389.986790
11
172.760320
21
2390.176960
0
LINE
8
Calque 1
10
172.760320
20
2390.176960
11
174.861584
21
2391.023791
0
LINE
8
Calque 1
10
174.861584
20
2391.023791
11
176.845330
21
2391.682290
0
LINE
8
Calque 1
10
176.845330
20
2391.682290
11
178.195650
21
2392.026460
0
LINE
8
Calque 1
10
178.195650
20
2392.026460
11
178.378122
21
2392.141106
0
LINE
8
Calque 1
10
178.378122
20
2392.141106
11
179.271550
21
2392.442450
0
LINE
8
Calque 1
10
179.271550
20
2392.442450
11
180.699054
21
2392.711349
0
LINE
8
Calque 1
10
180.699054
20
2392.711349
11
181.516380
21
2392.773180
0
LINE
8
Calque 1
10
181.516380
20
2392.773180
11
182.489940
21
2393.166440
0
LINE
8
Calque 1
10
182.489940
20
2393.166440
11
184.048965
21
2393.448113
0
LINE
8
Calque 1
10
184.048965
20
2393.448113
11
184.796280
21
2393.438770
0
LINE
8
Calque 1
10
184.796280
20
2393.438770
11
187.961460
21
2393.985500
0
LINE
8
Calque 1
10
187.961460
20
2393.985500
11
189.764970
21
2394.596840
0
LINE
8
Calque 1
10
189.764970
20
2394.596840
11
190.618650
21
2394.753420
0
LINE
8
Calque 1
10
190.618650
20
2394.753420
11
191.145068
21
2395.151400
0
LINE
8
Calque 1
10
191.145068
20
2395.151400
11
191.698047
21
2395.384868
0
LINE
8
Calque 1
10
191.698047
20
2395.384868
11
192.777190
21
2395.461900
0
LINE
8
Calque 1
10
192.777190
20
2395.461900
11
193.379707
21
2395.308177
0
LINE
8
Calque 1
10
193.379707
20
2395.308177
11
193.964855
21
2395.002021
0
LINE
8
Calque 1
10
193.964855
20
2395.002021
11
194.482361
21
2394.544045
0
LINE
8
Calque 1
10
194.482361
20
2394.544045
11
194.881950
21
2393.934860
0
LINE
8
Calque 1
10
194.881950
20
2393.934860
11
195.120077
21
2393.279274
0
LINE
8
Calque 1
10
195.120077
20
2393.279274
11
195.142940
21
2392.972130
0
LINE
8
Calque 1
10
195.142940
20
2392.972130
11
195.184840
21
2392.476560
0
LINE
8
Calque 1
10
195.184840
20
2392.476560
11
195.207490
21
2392.062650
0
LINE
8
Calque 1
10
195.207490
20
2392.062650
11
195.209140
21
2391.958760
0
LINE
8
Calque 1
10
195.209140
20
2391.958760
11
195.276340
21
2391.406860
0
LINE
8
Calque 1
10
195.276340
20
2391.406860
11
195.350740
21
2390.474610
0
LINE
8
Calque 1
10
195.350740
20
2390.474610
11
195.457210
21
2386.372540
0
LINE
8
Calque 1
10
195.457210
20
2386.372540
11
195.460210
21
2386.324940
0
LINE
8
Calque 1
10
195.460210
20
2386.324940
11
195.509310
21
2386.149250
0
LINE
8
Calque 1
10
195.509310
20
2386.149250
11
195.527810
21
2386.018500
0
LINE
8
Calque 1
10
195.527810
20
2386.018500
11
195.538110
21
2385.919300
0
LINE
8
Calque 1
10
195.538110
20
2385.919300
11
195.543110
21
2385.850600
0
LINE
8
Calque 1
10
195.543110
20
2385.850600
11
195.549110
21
2385.719340
0
LINE
8
Calque 1
10
195.549110
20
2385.719340
11
195.604410
21
2384.065690
0
LINE
8
Calque 1
10
195.604410
20
2384.065690
11
195.615810
21
2379.811690
0
LINE
8
Calque 1
10
195.615810
20
2379.811690
11
195.700610
21
2377.296080
0
LINE
8
Calque 1
10
195.700610
20
2377.296080
11
195.700610
21
2377.295540
0
LINE
8
Calque 1
10
195.700610
20
2377.295540
11
195.554900
21
2375.694090
0
LINE
8
Calque 1
10
195.554900
20
2375.694090
11
195.559323
21
2375.740586
0
LINE
8
Calque 1
10
195.559323
20
2375.740586
11
195.554887
21
2375.567198
0
LINE
8
Calque 1
10
195.554887
20
2375.567198
11
195.537400
21
2374.963380
0
LINE
8
Calque 1
10
195.537400
20
2374.963380
11
195.503800
21
2373.953110
0
LINE
8
Calque 1
10
195.503800
20
2373.953110
11
195.410800
21
2373.142820
0
LINE
8
Calque 1
10
195.410800
20
2373.142820
11
195.299200
21
2372.180090
0
LINE
8
Calque 1
10
195.299200
20
2372.180090
11
195.307787
21
2372.288449
0
LINE
8
Calque 1
10
195.307787
20
2372.288449
11
195.302200
21
2372.188090
0
LINE
8
Calque 1
10
195.302200
20
2372.188090
11
195.296200
21
2371.977250
0
LINE
8
Calque 1
10
195.296200
20
2371.977250
11
195.280100
21
2371.346270
0
LINE
8
Calque 1
10
195.280100
20
2371.346270
11
195.265000
21
2370.722530
0
LINE
8
Calque 1
10
195.265000
20
2370.722530
11
195.260000
21
2370.517380
0
LINE
8
Calque 1
10
195.260000
20
2370.517380
11
195.257000
21
2370.466180
0
LINE
8
Calque 1
10
195.257000
20
2370.466180
11
195.257000
21
2370.500000
0
LINE
8
Calque 1
10
195.257000
20
2370.500000
11
195.254000
21
2370.390440
0
LINE
8
Calque 1
10
195.254000
20
2370.390440
11
195.040060
21
2366.310070
0
LINE
8
Calque 1
10
195.040060
20
2366.310070
11
195.033060
21
2363.842000
0
LINE
8
Calque 1
10
195.033060
20
2363.842000
11
194.961082
21
2363.247023
0
LINE
8
Calque 1
10
194.961082
20
2363.247023
11
194.940060
21
2363.363990
0
LINE
8
Calque 1
10
194.940060
20
2363.363990
11
194.879060
21
2361.331040
0
LINE
8
Calque 1
10
194.879060
20
2361.331040
11
194.496160
21
2355.907080
0
LINE
8
Calque 1
10
194.496160
20
2355.907080
11
194.402560
21
2349.362260
0
LINE
8
Calque 1
10
194.402560
20
2349.362260
11
194.187590
21
2343.775530
0
LINE
8
Calque 1
10
194.187590
20
2343.775530
11
194.283690
21
2337.123740
0
LINE
8
Calque 1
10
194.283690
20
2337.123740
11
194.283690
21
2337.123200
0
LINE
8
Calque 1
10
194.283690
20
2337.123200
11
194.198990
21
2333.195790
0
LINE
8
Calque 1
10
194.198990
20
2333.195790
11
194.103390
21
2329.871960
0
LINE
8
Calque 1
10
194.103390
20
2329.871960
11
194.185590
21
2326.660790
0
LINE
8
Calque 1
10
194.185590
20
2326.660790
11
194.185590
21
2326.660260
0
LINE
8
Calque 1
10
194.185590
20
2326.660260
11
194.408850
21
2321.418200
0
LINE
8
Calque 1
10
194.408850
20
2321.418200
11
194.438250
21
2319.464830
0
LINE
8
Calque 1
10
194.438250
20
2319.464830
11
194.438250
21
2319.461830
0
LINE
8
Calque 1
10
194.438250
20
2319.461830
11
194.660970
21
2315.756110
0
LINE
8
Calque 1
10
194.660970
20
2315.756110
11
194.648570
21
2313.339200
0
LINE
8
Calque 1
10
194.648570
20
2313.339200
11
194.640570
21
2313.144900
0
LINE
8
Calque 1
10
194.640570
20
2313.144900
11
195.340790
21
2313.457030
0
LINE
8
Calque 1
10
195.340790
20
2313.457030
11
198.718350
21
2315.311180
0
LINE
8
Calque 1
10
198.718350
20
2315.311180
11
199.592720
21
2315.958680
0
LINE
8
Calque 1
10
199.592720
20
2315.958680
11
200.418201
21
2316.440979
0
LINE
8
Calque 1
10
200.418201
20
2316.440979
11
201.646860
21
2316.916250
0
LINE
8
Calque 1
10
201.646860
20
2316.916250
11
205.132960
21
2318.220560
0
LINE
8
Calque 1
10
205.132960
20
2318.220560
11
206.396950
21
2318.539920
0
LINE
8
Calque 1
10
206.396950
20
2318.539920
11
206.804170
21
2318.637620
0
LINE
8
Calque 1
10
206.804170
20
2318.637620
11
207.657870
21
2319.108910
0
LINE
8
Calque 1
10
207.657870
20
2319.108910
11
208.896540
21
2319.540920
0
LINE
8
Calque 1
10
208.896540
20
2319.540920
11
211.325989
21
2320.777600
0
LINE
8
Calque 1
10
211.325989
20
2320.777600
11
213.708150
21
2322.218280
0
LINE
8
Calque 1
10
213.708150
20
2322.218280
11
215.961230
21
2323.830388
0
LINE
8
Calque 1
10
215.961230
20
2323.830388
11
218.499580
21
2325.562780
0
LINE
8
Calque 1
10
218.499580
20
2325.562780
11
220.085020
21
2326.434040
0
LINE
8
Calque 1
10
220.085020
20
2326.434040
11
220.964020
21
2326.970960
0
LINE
8
Calque 1
10
220.964020
20
2326.970960
11
222.535199
21
2328.040499
0
LINE
8
Calque 1
10
222.535199
20
2328.040499
11
224.556580
21
2329.173930
0
LINE
8
Calque 1
10
224.556580
20
2329.173930
11
225.681560
21
2329.537730
0
LINE
8
Calque 1
10
225.681560
20
2329.537730
11
227.912950
21
2330.657040
0
LINE
8
Calque 1
10
227.912950
20
2330.657040
11
229.208930
21
2331.185339
0
LINE
8
Calque 1
10
229.208930
20
2331.185339
11
229.535610
21
2331.293690
0
LINE
8
Calque 1
10
229.535610
20
2331.293690
11
229.708467
21
2331.387313
0
LINE
8
Calque 1
10
229.708467
20
2331.387313
11
231.052300
21
2332.072970
0
LINE
8
Calque 1
10
231.052300
20
2332.072970
11
233.405434
21
2333.378586
0
LINE
8
Calque 1
10
233.405434
20
2333.378586
11
236.075750
21
2334.725010
0
LINE
8
Calque 1
10
236.075750
20
2334.725010
11
239.122579
21
2335.837941
0
LINE
8
Calque 1
10
239.122579
20
2335.837941
11
241.766380
21
2336.763140
0
LINE
8
Calque 1
10
241.766380
20
2336.763140
11
244.463380
21
2337.911390
0
LINE
8
Calque 1
10
244.463380
20
2337.911390
11
245.110870
21
2338.230230
0
LINE
8
Calque 1
10
245.110870
20
2338.230230
11
245.597140
21
2338.595060
0
LINE
8
Calque 1
10
245.597140
20
2338.595060
11
245.865350
21
2338.723740
0
LINE
8
Calque 1
10
245.865350
20
2338.723740
11
246.037940
21
2338.789840
0
LINE
8
Calque 1
10
246.037940
20
2338.789840
11
247.374290
21
2339.266290
0
LINE
8
Calque 1
10
247.374290
20
2339.266290
11
249.652720
21
2340.052810
0
LINE
8
Calque 1
10
249.652720
20
2340.052810
11
251.845350
21
2340.405240
0
LINE
8
Calque 1
10
251.845350
20
2340.405240
11
253.131070
21
2340.546840
0
LINE
8
Calque 1
10
253.131070
20
2340.546840
11
254.849869
21
2341.022620
0
LINE
8
Calque 1
10
254.849869
20
2341.022620
11
256.819190
21
2341.691990
0
LINE
8
Calque 1
10
256.819190
20
2341.691990
11
260.129600
21
2342.763750
0
LINE
8
Calque 1
10
260.129600
20
2342.763750
11
260.610690
21
2342.954440
0
LINE
8
Calque 1
10
260.610690
20
2342.954440
11
260.626290
21
2342.973540
0
LINE
8
Calque 1
10
260.626290
20
2342.973540
11
261.106380
21
2343.326490
0
LINE
8
Calque 1
10
261.106380
20
2343.326490
11
261.515660
21
2343.516660
0
LINE
8
Calque 1
10
261.515660
20
2343.516660
11
262.973970
21
2343.965200
0
LINE
8
Calque 1
10
262.973970
20
2343.965200
11
264.751682
21
2344.380998
0
LINE
8
Calque 1
10
264.751682
20
2344.380998
11
266.421063
21
2344.634367
0
LINE
8
Calque 1
10
266.421063
20
2344.634367
11
269.467100
21
2345.002350
0
LINE
8
Calque 1
10
269.467100
20
2345.002350
11
270.422762
21
2345.284802
0
LINE
8
Calque 1
10
270.422762
20
2345.284802
11
271.567459
21
2345.766820
0
LINE
8
Calque 1
10
271.567459
20
2345.766820
11
272.961124
21
2346.315025
0
LINE
8
Calque 1
10
272.961124
20
2346.315025
11
274.663690
21
2346.796040
0
LINE
8
Calque 1
10
274.663690
20
2346.796040
11
276.797779
21
2347.060377
0
LINE
8
Calque 1
10
276.797779
20
2347.060377
11
278.087240
21
2347.158290
0
LINE
8
Calque 1
10
278.087240
20
2347.158290
11
279.871700
21
2347.769736
0
LINE
8
Calque 1
10
279.871700
20
2347.769736
11
282.065300
21
2348.559240
0
LINE
8
Calque 1
10
282.065300
20
2348.559240
11
285.778240
21
2349.621190
0
LINE
8
Calque 1
10
285.778240
20
2349.621190
11
285.838740
21
2349.626190
0
LINE
8
Calque 1
10
285.838740
20
2349.626190
11
286.164280
21
2349.894400
0
LINE
8
Calque 1
10
286.164280
20
2349.894400
11
287.936953
21
2350.806794
0
LINE
8
Calque 1
10
287.936953
20
2350.806794
11
289.311390
21
2351.366140
0
LINE
8
Calque 1
10
289.311390
20
2351.366140
11
291.432160
21
2352.374627
0
LINE
8
Calque 1
10
291.432160
20
2352.374627
11
293.839280
21
2353.359820
0
LINE
8
Calque 1
10
293.839280
20
2353.359820
11
295.652575
21
2354.075220
0
LINE
8
Calque 1
10
295.652575
20
2354.075220
11
297.378600
21
2354.946800
0
LINE
8
Calque 1
10
297.378600
20
2354.946800
11
297.477300
21
2355.114230
0
LINE
8
Calque 1
10
297.477300
20
2355.114230
11
298.046760
21
2355.604120
0
LINE
8
Calque 1
10
298.046760
20
2355.604120
11
298.672050
21
2355.934340
0
LINE
8
Calque 1
10
298.672050
20
2355.934340
11
300.728790
21
2356.785450
0
LINE
8
Calque 1
10
300.728790
20
2356.785450
11
304.030743
21
2357.879527
0
LINE
8
Calque 1
10
304.030743
20
2357.879527
11
306.735140
21
2358.829770
0
LINE
8
Calque 1
10
306.735140
20
2358.829770
11
306.835390
21
2358.852470
0
LINE
8
Calque 1
10
306.835390
20
2358.852470
11
307.797100
21
2359.707200
0
LINE
8
Calque 1
10
307.797100
20
2359.707200
11
309.201635
21
2360.439728
0
LINE
8
Calque 1
10
309.201635
20
2360.439728
11
310.089450
21
2360.744350
0
LINE
8
Calque 1
10
310.089450
20
2360.744350
11
311.404720
21
2361.361490
0
LINE
8
Calque 1
10
311.404720
20
2361.361490
11
313.075850
21
2362.064160
0
LINE
8
Calque 1
10
313.075850
20
2362.064160
11
314.346560
21
2362.466720
0
LINE
8
Calque 1
10
314.346560
20
2362.466720
11
314.446738
21
2362.569501
0
LINE
8
Calque 1
10
314.446738
20
2362.569501
11
315.267440
21
2362.946280
0
LINE
8
Calque 1
10
315.267440
20
2362.946280
11
317.413364
21
2363.538061
0
LINE
8
Calque 1
10
317.413364
20
2363.538061
11
318.939030
21
2363.912110
0
LINE
8
Calque 1
10
318.939030
20
2363.912110
11
320.333824
21
2364.455900
0
LINE
8
Calque 1
10
320.333824
20
2364.455900
11
322.041690
21
2365.004040
0
LINE
8
Calque 1
10
322.041690
20
2365.004040
11
323.129470
21
2365.178700
0
LINE
8
Calque 1
10
323.129470
20
2365.178700
11
324.060398
21
2365.507183
0
LINE
8
Calque 1
10
324.060398
20
2365.507183
11
325.591340
21
2365.953850
0
LINE
8
Calque 1
10
325.591340
20
2365.953850
11
327.059980
21
2366.199830
0
LINE
8
Calque 1
10
327.059980
20
2366.199830
11
328.226320
21
2366.745020
0
LINE
8
Calque 1
10
328.226320
20
2366.745020
11
332.165979
21
2367.877348
0
LINE
8
Calque 1
10
332.165979
20
2367.877348
11
336.233610
21
2368.535090
0
LINE
8
Calque 1
10
336.233610
20
2368.535090
11
337.192190
21
2368.510790
0
LINE
8
Calque 1
10
337.192190
20
2368.510790
11
337.352900
21
2368.521590
0
LINE
8
Calque 1
10
337.352900
20
2368.521590
11
337.337300
21
2368.512590
0
LINE
8
Calque 1
10
337.337300
20
2368.512590
11
337.356900
21
2368.521590
0
LINE
8
Calque 1
10
337.356900
20
2368.521590
11
337.463840
21
2368.529590
0
LINE
8
Calque 1
10
337.463840
20
2368.529590
11
337.377540
21
2368.532590
0
LINE
8
Calque 1
10
337.377540
20
2368.532590
11
337.584760
21
2368.633360
0
LINE
8
Calque 1
10
337.584760
20
2368.633360
11
338.451479
21
2368.769523
0
LINE
8
Calque 1
10
338.451479
20
2368.769523
11
339.012116
21
2368.706960
0
LINE
8
Calque 1
10
339.012116
20
2368.706960
11
339.607900
21
2368.490740
0
LINE
8
Calque 1
10
339.607900
20
2368.490740
11
340.133102
21
2368.126954
0
LINE
8
Calque 1
10
340.133102
20
2368.126954
11
340.517603
21
2367.693571
0
LINE
8
Calque 1
10
340.517603
20
2367.693571
11
340.928750
21
2366.849490
0
LINE
8
Calque 1
10
340.928750
20
2366.849490
11
340.928750
21
2366.848960
0
LINE
8
Calque 1
10
340.928750
20
2366.848960
11
341.127740
21
2365.702681
0
LINE
8
Calque 1
10
341.127740
20
2365.702681
11
341.131310
21
2364.735900
0
LINE
8
Calque 1
10
341.131310
20
2364.735900
11
341.073410
21
2363.037820
0
LINE
8
Calque 1
10
341.073410
20
2363.037820
11
340.976310
21
2359.926890
0
LINE
8
Calque 1
10
340.976310
20
2359.926890
11
340.692070
21
2356.433570
0
LINE
8
Calque 1
10
340.692070
20
2356.433570
11
340.533960
21
2353.484390
0
LINE
8
Calque 1
10
340.533960
20
2353.484390
11
340.505560
21
2350.609120
0
LINE
8
Calque 1
10
340.505560
20
2350.609120
11
340.652300
21
2345.345870
0
LINE
8
Calque 1
10
340.652300
20
2345.345870
11
340.666800
21
2345.061650
0
LINE
8
Calque 1
10
340.666800
20
2345.061650
11
340.669800
21
2345.029650
0
LINE
8
Calque 1
10
340.669800
20
2345.029650
11
340.689900
21
2344.641560
0
LINE
8
Calque 1
10
340.689900
20
2344.641560
11
340.689900
21
2344.555260
0
LINE
8
Calque 1
10
340.689900
20
2344.555260
11
340.882120
21
2344.344940
0
LINE
8
Calque 1
10
340.882120
20
2344.344940
11
340.961220
21
2344.252440
0
LINE
8
Calque 1
10
340.961220
20
2344.252440
11
342.872190
21
2345.392940
0
LINE
8
Calque 1
10
342.872190
20
2345.392940
11
345.813694
21
2347.412780
0
LINE
8
Calque 1
10
345.813694
20
2347.412780
11
349.025310
21
2349.614390
0
LINE
8
Calque 1
10
349.025310
20
2349.614390
11
351.973980
21
2351.316610
0
LINE
8
Calque 1
10
351.973980
20
2351.316610
11
353.356320
21
2352.189420
0
LINE
8
Calque 1
10
353.356320
20
2352.189420
11
354.403063
21
2352.607594
0
LINE
8
Calque 1
10
354.403063
20
2352.607594
11
354.694210
21
2352.657090
0
LINE
8
Calque 1
10
354.694210
20
2352.657090
11
355.956670
21
2353.447230
0
LINE
8
Calque 1
10
355.956670
20
2353.447230
11
357.771020
21
2354.349500
0
LINE
8
Calque 1
10
357.771020
20
2354.349500
11
360.445058
21
2355.799876
0
LINE
8
Calque 1
10
360.445058
20
2355.799876
11
363.344860
21
2357.221670
0
LINE
8
Calque 1
10
363.344860
20
2357.221670
11
364.075895
21
2357.605918
0
LINE
8
Calque 1
10
364.075895
20
2357.605918
11
365.412420
21
2358.106370
0
LINE
8
Calque 1
10
365.412420
20
2358.106370
11
367.884519
21
2358.518974
0
LINE
8
Calque 1
10
367.884519
20
2358.518974
11
369.125890
21
2358.689800
0
LINE
8
Calque 1
10
369.125890
20
2358.689800
11
369.126000
21
2358.690000
0
LINE
8
Calque 1
10
369.126000
20
2358.690000
11
370.957950
21
2359.773140
0
LINE
8
Calque 1
10
370.957950
20
2359.773140
11
374.187310
21
2361.542841
0
LINE
8
Calque 1
10
374.187310
20
2361.542841
11
377.054210
21
2363.310390
0
LINE
8
Calque 1
10
377.054210
20
2363.310390
11
378.302190
21
2364.319630
0
LINE
8
Calque 1
10
378.302190
20
2364.319630
11
379.571370
21
2365.225000
0
LINE
8
Calque 1
10
379.571370
20
2365.225000
11
380.026110
21
2365.496300
0
LINE
8
Calque 1
10
380.026110
20
2365.496300
11
380.784720
21
2365.753650
0
LINE
8
Calque 1
10
380.784720
20
2365.753650
11
380.888508
21
2365.764480
0
LINE
8
Calque 1
10
380.888508
20
2365.764480
11
380.749976
21
2365.722434
0
LINE
8
Calque 1
10
380.749976
20
2365.722434
11
380.446770
21
2365.647200
0
LINE
8
Calque 1
10
380.446770
20
2365.647200
11
381.303570
21
2366.152590
0
LINE
8
Calque 1
10
381.303570
20
2366.152590
11
381.358370
21
2366.186690
0
LINE
8
Calque 1
10
381.358370
20
2366.186690
11
381.370270
21
2366.205790
0
LINE
8
Calque 1
10
381.370270
20
2366.205790
11
381.559930
21
2366.395440
0
LINE
8
Calque 1
10
381.559930
20
2366.395440
11
381.723760
21
2366.529290
0
LINE
8
Calque 1
10
381.723760
20
2366.529290
11
381.910820
21
2366.657960
0
LINE
8
Calque 1
10
381.910820
20
2366.657960
11
382.118540
21
2366.785600
0
LINE
8
Calque 1
10
382.118540
20
2366.785600
11
382.646670
21
2367.093590
0
LINE
8
Calque 1
10
382.646670
20
2367.093590
11
383.195500
21
2367.397970
0
LINE
8
Calque 1
10
383.195500
20
2367.397970
11
383.518980
21
2367.553000
0
LINE
8
Calque 1
10
383.518980
20
2367.553000
11
383.744300
21
2367.680640
0
LINE
8
Calque 1
10
383.744300
20
2367.680640
11
384.497882
21
2368.186515
0
LINE
8
Calque 1
10
384.497882
20
2368.186515
11
385.825290
21
2368.879530
0
LINE
8
Calque 1
10
385.825290
20
2368.879530
11
388.838550
21
2369.979720
0
LINE
8
Calque 1
10
388.838550
20
2369.979720
11
389.543930
21
2370.085660
0
LINE
8
Calque 1
10
389.543930
20
2370.085660
11
389.712920
21
2370.082660
0
LINE
8
Calque 1
10
389.712920
20
2370.082660
11
389.947520
21
2370.188080
0
LINE
8
Calque 1
10
389.947520
20
2370.188080
11
392.102364
21
2371.322097
0
LINE
8
Calque 1
10
392.102364
20
2371.322097
11
394.381880
21
2372.659770
0
LINE
8
Calque 1
10
394.381880
20
2372.659770
11
396.673730
21
2373.759960
0
LINE
8
Calque 1
10
396.673730
20
2373.759960
11
399.415680
21
2375.184160
0
LINE
8
Calque 1
10
399.415680
20
2375.184160
11
400.269374
21
2375.643954
0
LINE
8
Calque 1
10
400.269374
20
2375.643954
11
400.959260
21
2375.866290
0
LINE
8
Calque 1
10
400.959260
20
2375.866290
11
401.513740
21
2375.997030
0
LINE
8
Calque 1
10
401.513740
20
2375.997030
11
406.588370
21
2378.370530
0
LINE
8
Calque 1
10
406.588370
20
2378.370530
11
407.753670
21
2378.761200
0
LINE
8
Calque 1
10
407.753670
20
2378.761200
11
407.873169
21
2378.868072
0
LINE
8
Calque 1
10
407.873169
20
2378.868072
11
408.680770
21
2379.247480
0
LINE
8
Calque 1
10
408.680770
20
2379.247480
11
409.401525
21
2379.437527
0
LINE
8
Calque 1
10
409.401525
20
2379.437527
11
409.793870
21
2379.456770
0
LINE
8
Calque 1
10
409.793870
20
2379.456770
11
411.694878
21
2379.862714
0
LINE
8
Calque 1
10
411.694878
20
2379.862714
11
413.359635
21
2379.996392
0
LINE
8
Calque 1
10
413.359635
20
2379.996392
11
414.714027
21
2380.035830
0
LINE
8
Calque 1
10
414.714027
20
2380.035830
11
415.683940
21
2380.159050
0
LINE
8
Calque 1
10
415.683940
20
2380.159050
11
416.264554
21
2380.551260
0
LINE
8
Calque 1
10
416.264554
20
2380.551260
11
417.971150
21
2381.319700
0
LINE
8
Calque 1
10
417.971150
20
2381.319700
11
418.404190
21
2381.418400
0
LINE
8
Calque 1
10
418.404190
20
2381.418400
11
419.138520
21
2381.781170
0
LINE
8
Calque 1
10
419.138520
20
2381.781170
11
421.548501
21
2382.535965
0
LINE
8
Calque 1
10
421.548501
20
2382.535965
11
423.343430
21
2383.068430
0
LINE
8
Calque 1
10
423.343430
20
2383.068430
11
424.112880
21
2383.476119
0
LINE
8
Calque 1
10
424.112880
20
2383.476119
11
425.630620
21
2384.007910
0
LINE
8
Calque 1
10
425.630620
20
2384.007910
11
429.832768
21
2384.684800
0
LINE
8
Calque 1
10
429.832768
20
2384.684800
11
433.961910
21
2384.984080
0
LINE
8
Calque 1
10
433.961910
20
2384.984080
11
434.070420
21
2384.959280
0
LINE
8
Calque 1
10
434.070420
20
2384.959280
11
434.070000
21
2676.570000
0
LINE
8
Calque 1
10
434.070000
20
2676.570000
11
434.027600
21
2676.553100
0
LINE
8
Calque 1
10
434.027600
20
2676.553100
11
431.462195
21
2676.710329
0
LINE
8
Calque 1
10
431.462195
20
2676.710329
11
428.939714
21
2677.056850
0
LINE
8
Calque 1
10
428.939714
20
2677.056850
11
424.034910
21
2678.167980
0
LINE
8
Calque 1
10
424.034910
20
2678.167980
11
424.029910
21
2678.170980
0
LINE
8
Calque 1
10
424.029910
20
2678.170980
11
418.408610
21
2679.819480
0
LINE
8
Calque 1
10
418.408610
20
2679.819480
11
412.872229
21
2681.849805
0
LINE
8
Calque 1
10
412.872229
20
2681.849805
11
407.430732
21
2684.247174
0
LINE
8
Calque 1
10
407.430732
20
2684.247174
11
402.094085
21
2686.996803
0
LINE
8
Calque 1
10
402.094085
20
2686.996803
11
396.872254
21
2690.083910
0
LINE
8
Calque 1
10
396.872254
20
2690.083910
11
391.775204
21
2693.493713
0
LINE
8
Calque 1
10
391.775204
20
2693.493713
11
386.812901
21
2697.211431
0
LINE
8
Calque 1
10
386.812901
20
2697.211431
11
381.995310
21
2701.222280
0
LINE
8
Calque 1
10
381.995310
20
2701.222280
11
378.787186
21
2704.014981
0
LINE
8
Calque 1
10
378.787186
20
2704.014981
11
375.727926
21
2707.051285
0
LINE
8
Calque 1
10
375.727926
20
2707.051285
11
372.821929
21
2710.315368
0
LINE
8
Calque 1
10
372.821929
20
2710.315368
11
370.073596
21
2713.791404
0
LINE
8
Calque 1
10
370.073596
20
2713.791404
11
367.487328
21
2717.463568
0
LINE
8
Calque 1
10
367.487328
20
2717.463568
11
365.067524
21
2721.316036
0
LINE
8
Calque 1
10
365.067524
20
2721.316036
11
362.818584
21
2725.332981
0
LINE
8
Calque 1
10
362.818584
20
2725.332981
11
360.744910
21
2729.498580
0
LINE
8
Calque 1
10
360.744910
20
2729.498580
11
357.918806
21
2734.789285
0
LINE
8
Calque 1
10
357.918806
20
2734.789285
11
356.649456
21
2736.990799
0
LINE
8
Calque 1
10
356.649456
20
2736.990799
11
355.258940
21
2739.083000
0
LINE
8
Calque 1
10
355.258940
20
2739.083000
11
342.707240
21
2742.492100
0
LINE
8
Calque 1
10
342.707240
20
2742.492100
11
342.703000
21
2742.490000
0
LINE
8
Calque 1
10
342.703000
20
2742.490000
11
340.531006
21
2743.149767
0
LINE
8
Calque 1
10
340.531006
20
2743.149767
11
338.605107
21
2743.908426
0
LINE
8
Calque 1
10
338.605107
20
2743.908426
11
336.871655
21
2744.773839
0
LINE
8
Calque 1
10
336.871655
20
2744.773839
11
335.277001
21
2745.753866
0
LINE
8
Calque 1
10
335.277001
20
2745.753866
11
332.289495
21
2748.089208
0
LINE
8
Calque 1
10
332.289495
20
2748.089208
11
329.213400
21
2750.977340
0
LINE
8
Calque 1
10
329.213400
20
2750.977340
11
329.145200
21
2751.046540
0
LINE
8
Calque 1
10
329.145200
20
2751.046540
11
327.545574
21
2752.860182
0
LINE
8
Calque 1
10
327.545574
20
2752.860182
11
326.069265
21
2754.757244
0
LINE
8
Calque 1
10
326.069265
20
2754.757244
11
323.408080
21
2758.728760
0
LINE
8
Calque 1
10
323.408080
20
2758.728760
11
323.370880
21
2758.566500
0
LINE
8
Calque 1
10
323.370880
20
2758.566500
11
322.564720
21
2755.857090
0
LINE
8
Calque 1
10
322.564720
20
2755.857090
11
321.753410
21
2753.678930
0
LINE
8
Calque 1
10
321.753410
20
2753.678930
11
321.266761
21
2752.330176
0
LINE
8
Calque 1
10
321.266761
20
2752.330176
11
320.465630
21
2750.878590
0
LINE
8
Calque 1
10
320.465630
20
2750.878590
11
320.166589
21
2750.431396
0
LINE
8
Calque 1
10
320.166589
20
2750.431396
11
319.762160
21
2750.028778
0
LINE
8
Calque 1
10
319.762160
20
2750.028778
11
319.147870
21
2749.627510
0
LINE
8
Calque 1
10
319.147870
20
2749.627510
11
318.419231
21
2749.271795
0
LINE
8
Calque 1
10
318.419231
20
2749.271795
11
317.739680
21
2749.242510
0
LINE
8
Calque 1
10
317.739680
20
2749.242510
11
316.757589
21
2749.316751
0
LINE
8
Calque 1
10
316.757589
20
2749.316751
11
315.947094
21
2749.592122
0
LINE
8
Calque 1
10
315.947094
20
2749.592122
11
315.017390
21
2750.146860
0
LINE
8
Calque 1
10
315.017390
20
2750.146860
11
313.879883
21
2751.039959
0
LINE
8
Calque 1
10
313.879883
20
2751.039959
11
312.821140
21
2752.266110
0
LINE
8
Calque 1
10
312.821140
20
2752.266110
11
312.311600
21
2753.302720
0
LINE
8
Calque 1
10
312.311600
20
2753.302720
11
312.243900
21
2753.536300
0
LINE
8
Calque 1
10
312.243900
20
2753.536300
11
312.135390
21
2753.755420
0
LINE
8
Calque 1
10
312.135390
20
2753.755420
11
312.077990
21
2753.888750
0
LINE
8
Calque 1
10
312.077990
20
2753.888750
11
311.897120
21
2754.348670
0
LINE
8
Calque 1
10
311.897120
20
2754.348670
11
311.083210
21
2756.603820
0
LINE
8
Calque 1
10
311.083210
20
2756.603820
11
310.257420
21
2758.451240
0
LINE
8
Calque 1
10
310.257420
20
2758.451240
11
310.054330
21
2759.046050
0
LINE
8
Calque 1
10
310.054330
20
2759.046050
11
309.942700
21
2759.607250
0
LINE
8
Calque 1
10
309.942700
20
2759.607250
11
309.874500
21
2759.765360
0
LINE
8
Calque 1
10
309.874500
20
2759.765360
11
309.029080
21
2762.058770
0
LINE
8
Calque 1
10
309.029080
20
2762.058770
11
308.160930
21
2765.398630
0
LINE
8
Calque 1
10
308.160930
20
2765.398630
11
307.738730
21
2766.410980
0
LINE
8
Calque 1
10
307.738730
20
2766.410980
11
307.576621
21
2767.068408
0
LINE
8
Calque 1
10
307.576621
20
2767.068408
11
307.645730
21
2766.892600
0
LINE
8
Calque 1
10
307.645730
20
2766.892600
11
307.472610
21
2767.978310
0
LINE
8
Calque 1
10
307.472610
20
2767.978310
11
307.379610
21
2767.998910
0
LINE
8
Calque 1
10
307.379610
20
2767.998910
11
306.705240
21
2768.270740
0
LINE
8
Calque 1
10
306.705240
20
2768.270740
11
306.669234
21
2768.292590
0
LINE
8
Calque 1
10
306.669234
20
2768.292590
11
306.804940
21
2768.223240
0
LINE
8
Calque 1
10
306.804940
20
2768.223240
11
306.756340
21
2768.236240
0
LINE
8
Calque 1
10
306.756340
20
2768.236240
11
305.618420
21
2768.547340
0
LINE
8
Calque 1
10
305.618420
20
2768.547340
11
304.532180
21
2768.914230
0
LINE
8
Calque 1
10
304.532180
20
2768.914230
11
302.019140
21
2769.443400
0
LINE
8
Calque 1
10
302.019140
20
2769.443400
11
301.383010
21
2769.606170
0
LINE
8
Calque 1
10
301.383010
20
2769.606170
11
300.866250
21
2769.730740
0
LINE
8
Calque 1
10
300.866250
20
2769.730740
11
297.096440
21
2770.534810
0
LINE
8
Calque 1
10
297.096440
20
2770.534810
11
296.397280
21
2770.643340
0
LINE
8
Calque 1
10
296.397280
20
2770.643340
11
294.301280
21
2771.160090
0
LINE
8
Calque 1
10
294.301280
20
2771.160090
11
293.108070
21
2771.328550
0
LINE
8
Calque 1
10
293.108070
20
2771.328550
11
291.548480
21
2771.667560
0
LINE
8
Calque 1
10
291.548480
20
2771.667560
11
291.445640
21
2771.680560
0
LINE
8
Calque 1
10
291.445640
20
2771.680560
11
288.920720
21
2771.516230
0
LINE
8
Calque 1
10
288.920720
20
2771.516230
11
283.726220
21
2771.348800
0
LINE
8
Calque 1
10
283.726220
20
2771.348800
11
278.916680
21
2770.937980
0
LINE
8
Calque 1
10
278.916680
20
2770.937980
11
274.760880
21
2770.563830
0
LINE
8
Calque 1
10
274.760880
20
2770.563830
11
270.059340
21
2770.323540
0
LINE
8
Calque 1
10
270.059340
20
2770.323540
11
264.899150
21
2770.253037
0
LINE
8
Calque 1
10
264.899150
20
2770.253037
11
259.617640
21
2770.582960
0
LINE
8
Calque 1
10
259.617640
20
2770.582960
11
255.959363
21
2771.105038
0
LINE
8
Calque 1
10
255.959363
20
2771.105038
11
252.386074
21
2771.876171
0
LINE
8
Calque 1
10
252.386074
20
2771.876171
11
245.502740
21
2773.852520
0
LINE
8
Calque 1
10
245.502740
20
2773.852520
11
241.755828
21
2775.156331
0
LINE
8
Calque 1
10
241.755828
20
2775.156331
11
238.147232
21
2776.662114
0
LINE
8
Calque 1
10
238.147232
20
2776.662114
11
234.637791
21
2778.375660
0
LINE
8
Calque 1
10
234.637791
20
2778.375660
11
231.188340
21
2780.302760
0
LINE
8
Calque 1
10
231.188340
20
2780.302760
11
228.573500
21
2781.937300
0
LINE
8
Calque 1
10
228.573500
20
2781.937300
11
225.774142
21
2783.778865
0
LINE
8
Calque 1
10
225.774142
20
2783.778865
11
223.135600
21
2785.895200
0
LINE
8
Calque 1
10
223.135600
20
2785.895200
11
220.974195
21
2788.073602
0
LINE
8
Calque 1
10
220.974195
20
2788.073602
11
219.069170
21
2790.251510
0
LINE
8
Calque 1
10
219.069170
20
2790.251510
11
217.082952
21
2792.647950
0
LINE
8
Calque 1
10
217.082952
20
2792.647950
11
216.119007
21
2793.997493
0
LINE
8
Calque 1
10
216.119007
20
2793.997493
11
215.239970
21
2795.480140
0
LINE
8
Calque 1
10
215.239970
20
2795.480140
11
214.033320
21
2798.138897
0
LINE
8
Calque 1
10
214.033320
20
2798.138897
11
213.594787
21
2799.657974
0
LINE
8
Calque 1
10
213.594787
20
2799.657974
11
213.372880
21
2801.302000
0
LINE
8
Calque 1
10
213.372880
20
2801.302000
11
213.373000
21
2801.300000
0
LINE
8
Calque 1
10
213.373000
20
2801.300000
11
213.376000
21
2802.295280
0
LINE
8
Calque 1
10
213.376000
20
2802.295280
11
213.618982
21
2804.100953
0
LINE
8
Calque 1
10
213.618982
20
2804.100953
11
214.074344
21
2805.731375
0
LINE
8
Calque 1
10
214.074344
20
2805.731375
11
215.209480
21
2808.556400
0
LINE
8
Calque 1
10
215.209480
20
2808.556400
11
216.159468
21
2810.665051
0
LINE
8
Calque 1
10
216.159468
20
2810.665051
11
217.338550
21
2812.777850
0
LINE
8
Calque 1
10
217.338550
20
2812.777850
11
215.665780
21
2814.249590
0
LINE
8
Calque 1
10
215.665780
20
2814.249590
11
214.836900
21
2815.080040
0
LINE
8
Calque 1
10
214.836900
20
2815.080040
11
214.412640
21
2815.550810
0
LINE
8
Calque 1
10
214.412640
20
2815.550810
11
213.456662
21
2816.478065
0
LINE
8
Calque 1
10
213.456662
20
2816.478065
11
212.287190
21
2817.795110
0
LINE
8
Calque 1
10
212.287190
20
2817.795110
11
211.959560
21
2818.298960
0
LINE
8
Calque 1
10
211.959560
20
2818.298960
11
211.293970
21
2819.213620
0
LINE
8
Calque 1
10
211.293970
20
2819.213620
11
210.330200
21
2820.875020
0
LINE
8
Calque 1
10
210.330200
20
2820.875020
11
209.049650
21
2823.135350
0
LINE
8
Calque 1
10
209.049650
20
2823.135350
11
207.908130
21
2826.281930
0
LINE
8
Calque 1
10
207.908130
20
2826.281930
11
207.879290
21
2826.301729
0
LINE
8
Calque 1
10
207.879290
20
2826.301729
11
207.716410
21
2826.866920
0
LINE
8
Calque 1
10
207.716410
20
2826.866920
11
207.588750
21
2828.115410
0
LINE
8
Calque 1
10
207.588750
20
2828.115410
11
207.589000
21
2828.120000
0
LINE
8
Calque 1
10
207.589000
20
2828.120000
11
207.654600
21
2828.991250
0
LINE
8
Calque 1
10
207.654600
20
2828.991250
11
207.733200
21
2830.233570
0
LINE
8
Calque 1
10
207.733200
20
2830.233570
11
207.997780
21
2831.533230
0
LINE
8
Calque 1
10
207.997780
20
2831.533230
11
208.199310
21
2832.621010
0
LINE
8
Calque 1
10
208.199310
20
2832.621010
11
206.918260
21
2832.662910
0
LINE
8
Calque 1
10
206.918260
20
2832.662910
11
205.900750
21
2832.620010
0
LINE
8
Calque 1
10
205.900750
20
2832.620010
11
205.057390
21
2832.584310
0
LINE
8
Calque 1
10
205.057390
20
2832.584310
11
204.254063
21
2832.598310
0
LINE
8
Calque 1
10
204.254063
20
2832.598310
11
204.125660
21
2832.632410
0
LINE
8
Calque 1
10
204.125660
20
2832.632410
11
204.112160
21
2832.632410
0
LINE
8
Calque 1
10
204.112160
20
2832.632410
11
203.857920
21
2832.612310
0
LINE
8
Calque 1
10
203.857920
20
2832.612310
11
201.685430
21
2832.418000
0
LINE
8
Calque 1
10
201.685430
20
2832.418000
11
201.679430
21
2832.418000
0
LINE
8
Calque 1
10
201.679430
20
2832.418000
11
201.679000
21
2832.420000
0
LINE
8
Calque 1
10
201.679000
20
2832.420000
11
200.286310
21
2832.433000
0
LINE
8
Calque 1
10
200.286310
20
2832.433000
11
200.283310
21
2832.433000
0
LINE
8
Calque 1
10
200.283310
20
2832.433000
11
200.280310
21
2832.433000
0
LINE
8
Calque 1
10
200.280310
20
2832.433000
11
200.277310
21
2832.433000
0
LINE
8
Calque 1
10
200.277310
20
2832.433000
11
198.201838
21
2832.643826
0
LINE
8
Calque 1
10
198.201838
20
2832.643826
11
196.274460
21
2832.996800
0
LINE
8
Calque 1
10
196.274460
20
2832.996800
11
192.946500
21
2833.667040
0
LINE
8
Calque 1
10
192.946500
20
2833.667040
11
192.902600
21
2833.675040
0
LINE
8
Calque 1
10
192.902600
20
2833.675040
11
192.135210
21
2833.754640
0
LINE
8
Calque 1
10
192.135210
20
2833.754640
11
191.040180
21
2833.889530
0
LINE
8
Calque 1
10
191.040180
20
2833.889530
11
189.271280
21
2834.326730
0
LINE
8
Calque 1
10
189.271280
20
2834.326730
11
187.912115
21
2834.554296
0
LINE
8
Calque 1
10
187.912115
20
2834.554296
11
186.141770
21
2834.998500
0
LINE
8
Calque 1
10
186.141770
20
2834.998500
11
182.674800
21
2836.384470
0
LINE
8
Calque 1
10
182.674800
20
2836.384470
11
182.573928
21
2836.387591
0
LINE
8
Calque 1
10
182.573928
20
2836.387591
11
181.953920
21
2836.562740
0
LINE
8
Calque 1
10
181.953920
20
2836.562740
11
179.669800
21
2837.523950
0
LINE
8
Calque 1
10
179.669800
20
2837.523950
11
178.075580
21
2838.177650
0
LINE
8
Calque 1
10
178.075580
20
2838.177650
11
176.356963
21
2839.038844
0
LINE
8
Calque 1
10
176.356963
20
2839.038844
11
174.812750
21
2839.940830
0
LINE
8
Calque 1
10
174.812750
20
2839.940830
11
172.782360
21
2841.230170
0
LINE
8
Calque 1
10
172.782360
20
2841.230170
11
171.046868
21
2842.815604
0
LINE
8
Calque 1
10
171.046868
20
2842.815604
11
169.637340
21
2844.634610
0
LINE
8
Calque 1
10
169.637340
20
2844.634610
11
169.073540
21
2845.587540
0
LINE
8
Calque 1
10
169.073540
20
2845.587540
11
168.074140
21
2847.043250
0
LINE
8
Calque 1
10
168.074140
20
2847.043250
11
167.450410
21
2847.874190
0
LINE
8
Calque 1
10
167.450410
20
2847.874190
11
166.848380
21
2848.818330
0
LINE
8
Calque 1
10
166.848380
20
2848.818330
11
166.337810
21
2849.640000
0
LINE
8
Calque 1
10
166.337810
20
2849.640000
11
164.547220
21
2852.601580
0
LINE
8
Calque 1
10
164.547220
20
2852.601580
11
164.485220
21
2852.575680
0
LINE
8
Calque 1
10
164.485220
20
2852.575680
11
163.266678
21
2852.094496
0
LINE
8
Calque 1
10
163.266678
20
2852.094496
11
161.696250
21
2851.693060
0
LINE
8
Calque 1
10
161.696250
20
2851.693060
11
161.387220
21
2851.659460
0
LINE
8
Calque 1
10
161.387220
20
2851.659460
11
160.517000
21
2849.962390
0
LINE
8
Calque 1
10
160.517000
20
2849.962390
11
159.793098
21
2849.005095
0
LINE
8
Calque 1
10
159.793098
20
2849.005095
11
159.091260
21
2848.291399
0
LINE
8
Calque 1
10
159.091260
20
2848.291399
11
157.889770
21
2847.244730
0
LINE
8
Calque 1
10
157.889770
20
2847.244730
11
157.075330
21
2846.424120
0
LINE
8
Calque 1
10
157.075330
20
2846.424120
11
156.386196
21
2845.637506
0
LINE
8
Calque 1
10
156.386196
20
2845.637506
11
155.215000
21
2844.673330
0
LINE
8
Calque 1
10
155.215000
20
2844.673330
11
153.848659
21
2843.976176
0
LINE
8
Calque 1
10
153.848659
20
2843.976176
11
152.667860
21
2843.552450
0
LINE
8
Calque 1
10
152.667860
20
2843.552450
11
150.088247
21
2842.879372
0
LINE
8
Calque 1
10
150.088247
20
2842.879372
11
147.612360
21
2842.510150
0
LINE
8
Calque 1
10
147.612360
20
2842.510150
11
143.862190
21
2842.039380
0
LINE
8
Calque 1
10
143.862190
20
2842.039380
11
140.707860
21
2842.022480
0
LINE
8
Calque 1
10
140.707860
20
2842.022480
11
137.332360
21
2842.219390
0
LINE
8
Calque 1
10
137.332360
20
2842.219390
11
136.056990
21
2842.432300
0
LINE
8
Calque 1
10
136.056990
20
2842.432300
11
134.155949
21
2842.767369
0
LINE
8
Calque 1
10
134.155949
20
2842.767369
11
133.041297
21
2843.118627
0
LINE
8
Calque 1
10
133.041297
20
2843.118627
11
131.873270
21
2843.705070
0
LINE
8
Calque 1
10
131.873270
20
2843.705070
11
131.422640
21
2844.004790
0
LINE
8
Calque 1
10
131.422640
20
2844.004790
11
130.937920
21
2843.459090
0
LINE
8
Calque 1
10
130.937920
20
2843.459090
11
130.372590
21
2842.690160
0
LINE
8
Calque 1
10
130.372590
20
2842.690160
11
129.659960
21
2841.555860
0
LINE
8
Calque 1
10
129.659960
20
2841.555860
11
128.998500
21
2840.658240
0
LINE
8
Calque 1
10
128.998500
20
2840.658240
11
128.846234
21
2840.412654
0
LINE
8
Calque 1
10
128.846234
20
2840.412654
11
128.346860
21
2839.672240
0
LINE
8
Calque 1
10
128.346860
20
2839.672240
11
127.743290
21
2838.882620
0
LINE
8
Calque 1
10
127.743290
20
2838.882620
11
127.377691
21
2838.378890
0
LINE
8
Calque 1
10
127.377691
20
2838.378890
11
126.947711
21
2838.098523
0
LINE
8
Calque 1
10
126.947711
20
2838.098523
11
126.134600
21
2837.831540
0
LINE
8
Calque 1
10
126.134600
20
2837.831540
11
125.227512
21
2837.755237
0
LINE
8
Calque 1
10
125.227512
20
2837.755237
11
124.526381
21
2837.925929
0
LINE
8
Calque 1
10
124.526381
20
2837.925929
11
123.662920
21
2838.501780
0
LINE
8
Calque 1
10
123.662920
20
2838.501780
11
122.945130
21
2839.319290
0
LINE
8
Calque 1
10
122.945130
20
2839.319290
11
122.548260
21
2839.929080
0
LINE
8
Calque 1
10
122.548260
20
2839.929080
11
122.418030
21
2840.136300
0
LINE
8
Calque 1
10
122.418030
20
2840.136300
11
121.773610
21
2840.968300
0
LINE
8
Calque 1
10
121.773610
20
2840.968300
11
121.301300
21
2841.782190
0
LINE
8
Calque 1
10
121.301300
20
2841.782190
11
120.775230
21
2842.629170
0
LINE
8
Calque 1
10
120.775230
20
2842.629170
11
118.787240
21
2846.618080
0
LINE
8
Calque 1
10
118.787240
20
2846.618080
11
117.474148
21
2849.149221
0
LINE
8
Calque 1
10
117.474148
20
2849.149221
11
116.830190
21
2850.583439
0
LINE
8
Calque 1
10
116.830190
20
2850.583439
11
116.286110
21
2852.147470
0
LINE
8
Calque 1
10
116.286110
20
2852.147470
11
115.663831
21
2855.008207
0
LINE
8
Calque 1
10
115.663831
20
2855.008207
11
115.378130
21
2857.853570
0
LINE
8
Calque 1
10
115.378130
20
2857.853570
11
115.367830
21
2858.093330
0
LINE
8
Calque 1
10
115.367830
20
2858.093330
11
115.221570
21
2858.134130
0
LINE
8
Calque 1
10
115.221570
20
2858.134130
11
115.217570
21
2858.137130
0
LINE
8
Calque 1
10
115.217570
20
2858.137130
11
115.090940
21
2858.205330
0
LINE
8
Calque 1
10
115.090940
20
2858.205330
11
115.014940
21
2858.217730
0
LINE
8
Calque 1
10
115.014940
20
2858.217730
11
114.214784
21
2858.527444
0
LINE
8
Calque 1
10
114.214784
20
2858.527444
11
114.484240
21
2858.482310
0
LINE
8
Calque 1
10
114.484240
20
2858.482310
11
113.792280
21
2858.700910
0
LINE
8
Calque 1
10
113.792280
20
2858.700910
11
113.761280
21
2858.720510
0
LINE
8
Calque 1
10
113.761280
20
2858.720510
11
113.345800
21
2858.855900
0
LINE
8
Calque 1
10
113.345800
20
2858.855900
11
113.420009
21
2858.828100
0
LINE
8
Calque 1
10
113.420009
20
2858.828100
11
113.260000
21
2858.879200
0
LINE
8
Calque 1
10
113.260000
20
2858.879200
11
112.824360
21
2859.049720
0
LINE
8
Calque 1
10
112.824360
20
2859.049720
11
112.268340
21
2859.431620
0
LINE
8
Calque 1
10
112.268340
20
2859.431620
11
111.973250
21
2859.755130
0
LINE
8
Calque 1
10
111.973250
20
2859.755130
11
111.796540
21
2860.025370
0
LINE
8
Calque 1
10
111.796540
20
2860.025370
11
111.622390
21
2860.408830
0
LINE
8
Calque 1
10
111.622390
20
2860.408830
11
111.595890
21
2860.676510
0
LINE
8
Calque 1
10
111.595890
20
2860.676510
11
111.615990
21
2860.625310
0
LINE
8
Calque 1
10
111.615990
20
2860.625310
11
111.591590
21
2860.721910
0
LINE
8
Calque 1
10
111.591590
20
2860.721910
11
111.541490
21
2861.238140
0
LINE
8
Calque 1
10
111.541490
20
2861.238140
11
111.550490
21
2860.882090
0
LINE
8
Calque 1
10
111.550490
20
2860.882090
11
111.493090
21
2861.108440
0
LINE
8
Calque 1
10
111.493090
20
2861.108440
11
111.494000
21
2861.110000
0
LINE
8
Calque 1
10
111.494000
20
2861.110000
11
111.425957
21
2862.095336
0
LINE
8
Calque 1
10
111.425957
20
2862.095336
11
111.471300
21
2862.436010
0
LINE
8
Calque 1
10
111.471300
20
2862.436010
11
111.471000
21
2862.440000
0
LINE
8
Calque 1
10
111.471000
20
2862.440000
11
111.603790
21
2865.216050
0
LINE
8
Calque 1
10
111.603790
20
2865.216050
11
111.490183
21
2865.573108
0
LINE
8
Calque 1
10
111.490183
20
2865.573108
11
111.347490
21
2866.539000
0
LINE
8
Calque 1
10
111.347490
20
2866.539000
11
111.351000
21
2866.540000
0
LINE
8
Calque 1
10
111.351000
20
2866.540000
11
111.380400
21
2867.513080
0
LINE
8
Calque 1
10
111.380400
20
2867.513080
11
111.634670
21
2868.486660
0
LINE
8
Calque 1
10
111.634670
20
2868.486660
11
111.718566
21
2868.707130
0
LINE
8
Calque 1
10
111.718566
20
2868.707130
11
111.716370
21
2868.686640
0
LINE
8
Calque 1
10
111.716370
20
2868.686640
11
111.860540
21
2869.183260
0
LINE
8
Calque 1
10
111.860540
20
2869.183260
11
111.897240
21
2869.356880
0
LINE
8
Calque 1
10
111.897240
20
2869.356880
11
111.884840
21
2869.519150
0
LINE
8
Calque 1
10
111.884840
20
2869.519150
11
111.956640
21
2870.304640
0
LINE
8
Calque 1
10
111.956640
20
2870.304640
11
112.290670
21
2871.869209
0
LINE
8
Calque 1
10
112.290670
20
2871.869209
11
112.611380
21
2873.004740
0
LINE
8
Calque 1
10
112.611380
20
2873.004740
11
112.888667
21
2874.434891
0
LINE
8
Calque 1
10
112.888667
20
2874.434891
11
113.155962
21
2875.361602
0
LINE
8
Calque 1
10
113.155962
20
2875.361602
11
113.609760
21
2876.390050
0
LINE
8
Calque 1
10
113.609760
20
2876.390050
11
113.894482
21
2876.868999
0
LINE
8
Calque 1
10
113.894482
20
2876.868999
11
113.927070
21
2876.884080
0
LINE
8
Calque 1
10
113.927070
20
2876.884080
11
115.046360
21
2878.937190
0
LINE
8
Calque 1
10
115.046360
20
2878.937190
11
116.115050
21
2880.517440
0
LINE
8
Calque 1
10
116.115050
20
2880.517440
11
116.483444
21
2880.993636
0
LINE
8
Calque 1
10
116.483444
20
2880.993636
11
116.497980
21
2880.965480
0
LINE
8
Calque 1
10
116.497980
20
2880.965480
11
117.047810
21
2882.235160
0
LINE
8
Calque 1
10
117.047810
20
2882.235160
11
117.224550
21
2883.147260
0
LINE
8
Calque 1
10
117.224550
20
2883.147260
11
117.760983
21
2884.848911
0
LINE
8
Calque 1
10
117.760983
20
2884.848911
11
118.192725
21
2885.767687
0
LINE
8
Calque 1
10
118.192725
20
2885.767687
11
118.790330
21
2886.691750
0
LINE
8
Calque 1
10
118.790330
20
2886.691750
11
119.740286
21
2887.757571
0
LINE
8
Calque 1
10
119.740286
20
2887.757571
11
120.477580
21
2888.458060
0
LINE
8
Calque 1
10
120.477580
20
2888.458060
11
120.893050
21
2888.916420
0
LINE
8
Calque 1
10
120.893050
20
2888.916420
11
122.670258
21
2890.517721
0
LINE
8
Calque 1
10
122.670258
20
2890.517721
11
124.406530
21
2891.930210
0
LINE
8
Calque 1
10
124.406530
20
2891.930210
11
126.362480
21
2893.504770
0
LINE
8
Calque 1
10
126.362480
20
2893.504770
11
127.661474
21
2894.568814
0
LINE
8
Calque 1
10
127.661474
20
2894.568814
11
129.262050
21
2895.664350
0
LINE
8
Calque 1
10
129.262050
20
2895.664350
11
130.620046
21
2896.338306
0
LINE
8
Calque 1
10
130.620046
20
2896.338306
11
131.639170
21
2896.778480
0
LINE
8
Calque 1
10
131.639170
20
2896.778480
11
132.794130
21
2897.351570
0
LINE
8
Calque 1
10
132.794130
20
2897.351570
11
132.794917
21
2897.349170
0
LINE
8
Calque 1
10
132.794917
20
2897.349170
11
132.917130
21
2897.446670
0
LINE
8
Calque 1
10
132.917130
20
2897.446670
11
134.023510
21
2898.037330
0
LINE
8
Calque 1
10
134.023510
20
2898.037330
11
135.083910
21
2898.351520
0
LINE
8
Calque 1
10
135.083910
20
2898.351520
11
135.164510
21
2898.374220
0
LINE
8
Calque 1
10
135.164510
20
2898.374220
11
137.310110
21
2899.630990
0
LINE
8
Calque 1
10
137.310110
20
2899.630990
11
138.511337
21
2900.171879
0
LINE
8
Calque 1
10
138.511337
20
2900.171879
11
139.290360
21
2900.458840
0
LINE
8
Calque 1
10
139.290360
20
2900.458840
11
139.264356
21
2900.464497
0
LINE
8
Calque 1
10
139.264356
20
2900.464497
11
139.681040
21
2900.682600
0
LINE
8
Calque 1
10
139.681040
20
2900.682600
11
141.085610
21
2901.197300
0
LINE
8
Calque 1
10
141.085610
20
2901.197300
11
142.599980
21
2901.514761
0
LINE
8
Calque 1
10
142.599980
20
2901.514761
11
143.691650
21
2901.654120
0
LINE
8
Calque 1
10
143.691650
20
2901.654120
11
146.365390
21
2902.111460
0
LINE
8
Calque 1
10
146.365390
20
2902.111460
11
147.250070
21
2902.165160
0
LINE
8
Calque 1
10
147.250070
20
2902.165160
11
150.118130
21
2902.510360
0
LINE
8
Calque 1
10
150.118130
20
2902.510360
11
153.893600
21
2902.641620
0
LINE
8
Calque 1
10
153.893600
20
2902.641620
11
155.547770
21
2902.787360
0
LINE
8
Calque 1
10
155.547770
20
2902.787360
11
159.547020
21
2902.842660
0
LINE
8
Calque 1
10
159.547020
20
2902.842660
11
159.971780
21
2902.845660
0
LINE
8
Calque 1
10
159.971780
20
2902.845660
11
160.184670
21
2904.543025
0
LINE
8
Calque 1
10
160.184670
20
2904.543025
11
160.572280
21
2906.237690
0
LINE
8
Calque 1
10
160.572280
20
2906.237690
11
160.933990
21
2907.359600
0
LINE
8
Calque 1
10
160.933990
20
2907.359600
11
162.208350
21
2909.720190
0
LINE
8
Calque 1
10
162.208350
20
2909.720190
11
163.999450
21
2912.399090
0
LINE
8
Calque 1
10
163.999450
20
2912.399090
11
165.719763
21
2914.859869
0
LINE
8
Calque 1
10
165.719763
20
2914.859869
11
167.575450
21
2917.268560
0
LINE
8
Calque 1
10
167.575450
20
2917.268560
11
168.535090
21
2918.507250
0
LINE
8
Calque 1
10
168.535090
20
2918.507250
11
169.316657
21
2919.300045
0
LINE
8
Calque 1
10
169.316657
20
2919.300045
11
170.046100
21
2919.884940
0
LINE
8
Calque 1
10
170.046100
20
2919.884940
11
170.707050
21
2920.336580
0
LINE
8
Calque 1
10
170.707050
20
2920.336580
11
170.842970
21
2920.393480
0
LINE
8
Calque 1
10
170.842970
20
2920.393480
11
170.789770
21
2920.325280
0
LINE
8
Calque 1
10
170.789770
20
2920.325280
11
170.938070
21
2920.433280
0
LINE
8
Calque 1
10
170.938070
20
2920.433280
11
171.228500
21
2920.554700
0
LINE
8
Calque 1
10
171.228500
20
2920.554700
11
171.644510
21
2920.604300
0
LINE
8
Calque 1
10
171.644510
20
2920.604300
11
171.084330
21
2920.546400
0
LINE
8
Calque 1
10
171.084330
20
2920.546400
11
172.088400
21
2921.446080
0
LINE
8
Calque 1
10
172.088400
20
2921.446080
11
173.036140
21
2922.406230
0
LINE
8
Calque 1
10
173.036140
20
2922.406230
11
174.352398
21
2923.269512
0
LINE
8
Calque 1
10
174.352398
20
2923.269512
11
175.300600
21
2923.739990
0
LINE
8
Calque 1
10
175.300600
20
2923.739990
11
177.387204
21
2924.935650
0
LINE
8
Calque 1
10
177.387204
20
2924.935650
11
179.946330
21
2926.103170
0
LINE
8
Calque 1
10
179.946330
20
2926.103170
11
180.680650
21
2926.303670
0
LINE
8
Calque 1
10
180.680650
20
2926.303670
11
181.432020
21
2926.583230
0
LINE
8
Calque 1
10
181.432020
20
2926.583230
11
184.701070
21
2927.547000
0
LINE
8
Calque 1
10
184.701070
20
2927.547000
11
186.810490
21
2928.211550
0
LINE
8
Calque 1
10
186.810490
20
2928.211550
11
188.184570
21
2928.560380
0
LINE
8
Calque 1
10
188.184570
20
2928.560380
11
191.506860
21
2929.601140
0
LINE
8
Calque 1
10
191.506860
20
2929.601140
11
194.662220
21
2930.330810
0
LINE
8
Calque 1
10
194.662220
20
2930.330810
11
196.384580
21
2930.755590
0
LINE
8
Calque 1
10
196.384580
20
2930.755590
11
200.114090
21
2931.526590
0
LINE
8
Calque 1
10
200.114090
20
2931.526590
11
201.032880
21
2931.778260
0
LINE
8
Calque 1
10
201.032880
20
2931.778260
11
202.177520
21
2931.979790
0
LINE
8
Calque 1
10
202.177520
20
2931.979790
11
203.168140
21
2932.248000
0
LINE
8
Calque 1
10
203.168140
20
2932.248000
11
203.795500
21
2932.464010
0
LINE
8
Calque 1
10
203.795500
20
2932.464010
11
205.005250
21
2932.599390
0
LINE
8
Calque 1
10
205.005250
20
2932.599390
11
205.016650
21
2932.603390
0
LINE
8
Calque 1
10
205.016650
20
2932.603390
11
205.020000
21
2932.600000
0
LINE
8
Calque 1
10
205.020000
20
2932.600000
11
205.008600
21
2932.595000
0
LINE
8
Calque 1
10
205.008600
20
2932.595000
11
205.013600
21
2932.592000
0
LINE
8
Calque 1
10
205.013600
20
2932.592000
11
205.734480
21
2932.883970
0
LINE
8
Calque 1
10
205.734480
20
2932.883970
11
206.972032
21
2933.130629
0
LINE
8
Calque 1
10
206.972032
20
2933.130629
11
207.691470
21
2933.197130
0
LINE
8
Calque 1
10
207.691470
20
2933.197130
11
209.090350
21
2933.501500
0
LINE
8
Calque 1
10
209.090350
20
2933.501500
11
210.577090
21
2933.835330
0
LINE
8
Calque 1
10
210.577090
20
2933.835330
11
211.189116
21
2934.079027
0
LINE
8
Calque 1
10
211.189116
20
2934.079027
11
212.338210
21
2934.369150
0
LINE
8
Calque 1
10
212.338210
20
2934.369150
11
212.858090
21
2934.413550
0
LINE
8
Calque 1
10
212.858090
20
2934.413550
11
213.401200
21
2934.566540
0
LINE
8
Calque 1
10
213.401200
20
2934.566540
11
212.834830
21
2935.810900
0
LINE
8
Calque 1
10
212.834830
20
2935.810900
11
211.237034
21
2941.016945
0
LINE
8
Calque 1
10
211.237034
20
2941.016945
11
209.732170
21
2945.899200
0
LINE
8
Calque 1
10
209.732170
20
2945.899200
11
207.640484
21
2951.499610
0
LINE
8
Calque 1
10
207.640484
20
2951.499610
11
206.670422
21
2954.453964
0
LINE
8
Calque 1
10
206.670422
20
2954.453964
11
205.891060
21
2957.536700
0
LINE
8
Calque 1
10
205.891060
20
2957.536700
11
205.304046
21
2961.480469
0
LINE
8
Calque 1
10
205.304046
20
2961.480469
11
204.926260
21
2965.205980
0
LINE
8
Calque 1
10
204.926260
20
2965.205980
11
204.760852
21
2966.224494
0
LINE
8
Calque 1
10
204.760852
20
2966.224494
11
204.628100
21
2967.683880
0
LINE
8
Calque 1
10
204.628100
20
2967.683880
11
204.800180
21
2970.211360
0
LINE
8
Calque 1
10
204.800180
20
2970.211360
11
204.891080
21
2971.210800
0
LINE
8
Calque 1
10
204.891080
20
2971.210800
11
202.686724
21
2971.441554
0
LINE
8
Calque 1
10
202.686724
20
2971.441554
11
200.543560
21
2971.375630
0
LINE
8
Calque 1
10
200.543560
20
2971.375630
11
199.142659
21
2971.110253
0
LINE
8
Calque 1
10
199.142659
20
2971.110253
11
198.146389
21
2970.988155
0
LINE
8
Calque 1
10
198.146389
20
2970.988155
11
196.982540
21
2970.984450
0
LINE
8
Calque 1
10
196.982540
20
2970.984450
11
194.877832
21
2971.315611
0
LINE
8
Calque 1
10
194.877832
20
2971.315611
11
193.895890
21
2971.535330
0
LINE
8
Calque 1
10
193.895890
20
2971.535330
11
193.609080
21
2971.513630
0
LINE
8
Calque 1
10
193.609080
20
2971.513630
11
192.929951
21
2971.230749
0
LINE
8
Calque 1
10
192.929951
20
2971.230749
11
192.348180
21
2971.148290
0
LINE
8
Calque 1
10
192.348180
20
2971.148290
11
192.114610
21
2971.179290
0
LINE
8
Calque 1
10
192.114610
20
2971.179290
11
191.579640
21
2971.093515
0
LINE
8
Calque 1
10
191.579640
20
2971.093515
11
190.868180
21
2971.135390
0
LINE
8
Calque 1
10
190.868180
20
2971.135390
11
190.911960
21
2971.066751
0
LINE
8
Calque 1
10
190.911960
20
2971.066751
11
190.572031
21
2971.017243
0
LINE
8
Calque 1
10
190.572031
20
2971.017243
11
189.888087
21
2971.102903
0
LINE
8
Calque 1
10
189.888087
20
2971.102903
11
188.899820
21
2971.439770
0
LINE
8
Calque 1
10
188.899820
20
2971.439770
11
188.862120
21
2971.463570
0
LINE
8
Calque 1
10
188.862120
20
2971.463570
11
188.396000
21
2971.566920
0
LINE
8
Calque 1
10
188.396000
20
2971.566920
11
188.074060
21
2971.722970
0
LINE
8
Calque 1
10
188.074060
20
2971.722970
11
187.975360
21
2971.741470
0
LINE
8
Calque 1
10
187.975360
20
2971.741470
11
187.670480
21
2971.795670
0
LINE
8
Calque 1
10
187.670480
20
2971.795670
11
187.668000
21
2971.800000
0
LINE
8
Calque 1
10
187.668000
20
2971.800000
11
186.863819
21
2971.709824
0
LINE
8
Calque 1
10
186.863819
20
2971.709824
11
185.931170
21
2971.909560
0
LINE
8
Calque 1
10
185.931170
20
2971.909560
11
184.035670
21
2971.873860
0
LINE
8
Calque 1
10
184.035670
20
2971.873860
11
182.621117
21
2972.062720
0
LINE
8
Calque 1
10
182.621117
20
2972.062720
11
182.080240
21
2972.220620
0
LINE
8
Calque 1
10
182.080240
20
2972.220620
11
181.379163
21
2972.200550
0
LINE
8
Calque 1
10
181.379163
20
2972.200550
11
179.961490
21
2972.342570
0
LINE
8
Calque 1
10
179.961490
20
2972.342570
11
177.991395
21
2972.926343
0
LINE
8
Calque 1
10
177.991395
20
2972.926343
11
177.159080
21
2973.324940
0
LINE
8
Calque 1
10
177.159080
20
2973.324940
11
176.668670
21
2973.308840
0
LINE
8
Calque 1
10
176.668670
20
2973.308840
11
175.350223
21
2973.418811
0
LINE
8
Calque 1
10
175.350223
20
2973.418811
11
174.275164
21
2973.668844
0
LINE
8
Calque 1
10
174.275164
20
2973.668844
11
172.882360
21
2974.109810
0
LINE
8
Calque 1
10
172.882360
20
2974.109810
11
170.136302
21
2974.502661
0
LINE
8
Calque 1
10
170.136302
20
2974.502661
11
168.577016
21
2974.791215
0
LINE
8
Calque 1
10
168.577016
20
2974.791215
11
166.927150
21
2975.263230
0
LINE
8
Calque 1
10
166.927150
20
2975.263230
11
164.018506
21
2976.571024
0
LINE
8
Calque 1
10
164.018506
20
2976.571024
11
161.643240
21
2977.773150
0
LINE
8
Calque 1
10
161.643240
20
2977.773150
11
159.387998
21
2978.686139
0
LINE
8
Calque 1
10
159.387998
20
2978.686139
11
156.898320
21
2979.887240
0
LINE
8
Calque 1
10
156.898320
20
2979.887240
11
153.529510
21
2982.137730
0
LINE
8
Calque 1
10
153.529510
20
2982.137730
11
153.119730
21
2982.464330
0
LINE
8
Calque 1
10
153.119730
20
2982.464330
11
152.607600
21
2982.887560
0
LINE
8
Calque 1
10
152.607600
20
2982.887560
11
152.169400
21
2983.247770
0
LINE
8
Calque 1
10
152.169400
20
2983.247770
11
150.885750
21
2983.704570
0
LINE
8
Calque 1
10
150.885750
20
2983.704570
11
148.624179
21
2984.941769
0
LINE
8
Calque 1
10
148.624179
20
2984.941769
11
146.621410
21
2986.460990
0
LINE
8
Calque 1
10
146.621410
20
2986.460990
11
146.204900
21
2986.860460
0
LINE
8
Calque 1
10
146.204900
20
2986.860460
11
145.874180
21
2985.734950
0
LINE
8
Calque 1
10
145.874180
20
2985.734950
11
145.527520
21
2982.875666
0
LINE
8
Calque 1
10
145.527520
20
2982.875666
11
145.139850
21
2980.325450
0
LINE
8
Calque 1
10
145.139850
20
2980.325450
11
145.164527
21
2979.473465
0
LINE
8
Calque 1
10
145.164527
20
2979.473465
11
145.353395
21
2978.424074
0
LINE
8
Calque 1
10
145.353395
20
2978.424074
11
145.796650
21
2975.559330
0
LINE
8
Calque 1
10
145.796650
20
2975.559330
11
145.756609
21
2972.982060
0
LINE
8
Calque 1
10
145.756609
20
2972.982060
11
145.613720
21
2971.048500
0
LINE
8
Calque 1
10
145.613720
20
2971.048500
11
145.894896
21
2967.968231
0
LINE
8
Calque 1
10
145.894896
20
2967.968231
11
146.221440
21
2964.415830
0
LINE
8
Calque 1
10
146.221440
20
2964.415830
11
146.144440
21
2960.834150
0
LINE
8
Calque 1
10
146.144440
20
2960.834150
11
146.070540
21
2959.719990
0
LINE
8
Calque 1
10
146.070540
20
2959.719990
11
146.247899
21
2958.626790
0
LINE
8
Calque 1
10
146.247899
20
2958.626790
11
146.264894
21
2957.682373
0
LINE
8
Calque 1
10
146.264894
20
2957.682373
11
146.058140
21
2956.497960
0
LINE
8
Calque 1
10
146.058140
20
2956.497960
11
145.574096
21
2955.424926
0
LINE
8
Calque 1
10
145.574096
20
2955.424926
11
144.991030
21
2954.734760
0
LINE
8
Calque 1
10
144.991030
20
2954.734760
11
143.749760
21
2953.639730
0
LINE
8
Calque 1
10
143.749760
20
2953.639730
11
142.492205
21
2952.773610
0
LINE
8
Calque 1
10
142.492205
20
2952.773610
11
141.067760
21
2952.144220
0
LINE
8
Calque 1
10
141.067760
20
2952.144220
11
140.399060
21
2951.960760
0
LINE
8
Calque 1
10
140.399060
20
2951.960760
11
139.937070
21
2951.910160
0
LINE
8
Calque 1
10
139.937070
20
2951.910160
11
139.192430
21
2952.014540
0
LINE
8
Calque 1
10
139.192430
20
2952.014540
11
139.084930
21
2952.073940
0
LINE
8
Calque 1
10
139.084930
20
2952.073940
11
138.591430
21
2952.106540
0
LINE
8
Calque 1
10
138.591430
20
2952.106540
11
136.795602
21
2952.582684
0
LINE
8
Calque 1
10
136.795602
20
2952.582684
11
135.609180
21
2953.047060
0
LINE
8
Calque 1
10
135.609180
20
2953.047060
11
134.264575
21
2953.449353
0
LINE
8
Calque 1
10
134.264575
20
2953.449353
11
132.596420
21
2954.086260
0
LINE
8
Calque 1
10
132.596420
20
2954.086260
11
130.759350
21
2955.045900
0
LINE
8
Calque 1
10
130.759350
20
2955.045900
11
129.115520
21
2955.494980
0
LINE
8
Calque 1
10
129.115520
20
2955.494980
11
127.877482
21
2955.993274
0
LINE
8
Calque 1
10
127.877482
20
2955.993274
11
126.910990
21
2956.479920
0
LINE
8
Calque 1
10
126.910990
20
2956.479920
11
125.631124
21
2957.186198
0
LINE
8
Calque 1
10
125.631124
20
2957.186198
11
124.320980
21
2958.073630
0
LINE
8
Calque 1
10
124.320980
20
2958.073630
11
123.383040
21
2958.861160
0
LINE
8
Calque 1
10
123.383040
20
2958.861160
11
123.276070
21
2958.975380
0
LINE
8
Calque 1
10
123.276070
20
2958.975380
11
122.797540
21
2959.211025
0
LINE
8
Calque 1
10
122.797540
20
2959.211025
11
121.431372
21
2959.706888
0
LINE
8
Calque 1
10
121.431372
20
2959.706888
11
119.803089
21
2960.131020
0
LINE
8
Calque 1
10
119.803089
20
2960.131020
11
117.962449
21
2960.654167
0
LINE
8
Calque 1
10
117.962449
20
2960.654167
11
115.959210
21
2961.447075
0
LINE
8
Calque 1
10
115.959210
20
2961.447075
11
114.056731
21
2962.486653
0
LINE
8
Calque 1
10
114.056731
20
2962.486653
11
112.513930
21
2963.378735
0
LINE
8
Calque 1
10
112.513930
20
2963.378735
11
110.101140
21
2964.528535
0
LINE
8
Calque 1
10
110.101140
20
2964.528535
11
105.877630
21
2966.815725
0
LINE
8
Calque 1
10
105.877630
20
2966.815725
11
104.718550
21
2967.249295
0
LINE
8
Calque 1
10
104.718550
20
2967.249295
11
104.649350
21
2967.277195
0
LINE
8
Calque 1
10
104.649350
20
2967.277195
11
103.627690
21
2967.706115
0
LINE
8
Calque 1
10
103.627690
20
2967.706115
11
102.578670
21
2968.262665
0
LINE
8
Calque 1
10
102.578670
20
2968.262665
11
102.380730
21
2968.395985
0
LINE
8
Calque 1
10
102.380730
20
2968.395985
11
101.822620
21
2968.537065
0
LINE
8
Calque 1
10
101.822620
20
2968.537065
11
101.689830
21
2967.546945
0
LINE
8
Calque 1
10
101.689830
20
2967.546945
11
101.649030
21
2965.344505
0
LINE
8
Calque 1
10
101.649030
20
2965.344505
11
101.404610
21
2962.865565
0
LINE
8
Calque 1
10
101.404610
20
2962.865565
11
100.917800
21
2960.561315
0
LINE
8
Calque 1
10
100.917800
20
2960.561315
11
100.686290
21
2956.769305
0
LINE
8
Calque 1
10
100.686290
20
2956.769305
11
100.162820
21
2953.856795
0
LINE
8
Calque 1
10
100.162820
20
2953.856795
11
100.160342
21
2950.607080
0
LINE
8
Calque 1
10
100.160342
20
2950.607080
11
100.246520
21
2946.907365
0
LINE
8
Calque 1
10
100.246520
20
2946.907365
11
100.088820
21
2944.857049
0
LINE
8
Calque 1
10
100.088820
20
2944.857049
11
99.848612
21
2943.066765
0
LINE
8
Calque 1
10
99.848612
20
2943.066765
11
99.361231
21
2938.683048
0
LINE
8
Calque 1
10
99.361231
20
2938.683048
11
98.632672
21
2934.098855
0
LINE
8
Calque 1
10
98.632672
20
2934.098855
11
98.017541
21
2932.045119
0
LINE
8
Calque 1
10
98.017541
20
2932.045119
11
97.434292
21
2930.458745
0
LINE
8
Calque 1
10
97.434292
20
2930.458745
11
96.808502
21
2927.768495
0
LINE
8
Calque 1
10
96.808502
20
2927.768495
11
96.577448
21
2926.034166
0
LINE
8
Calque 1
10
96.577448
20
2926.034166
11
96.434362
21
2924.021415
0
LINE
8
Calque 1
10
96.434362
20
2924.021415
11
95.979592
21
2919.740545
0
LINE
8
Calque 1
10
95.979592
20
2919.740545
11
95.983592
21
2916.374865
0
LINE
8
Calque 1
10
95.983592
20
2916.374865
11
95.715392
21
2909.972135
0
LINE
8
Calque 1
10
95.715392
20
2909.972135
11
95.625992
21
2907.179045
0
LINE
8
Calque 1
10
95.625992
20
2907.179045
11
95.371232
21
2904.970905
0
LINE
8
Calque 1
10
95.371232
20
2904.970905
11
95.626502
21
2903.661435
0
LINE
8
Calque 1
10
95.626502
20
2903.661435
11
95.805746
21
2899.697422
0
LINE
8
Calque 1
10
95.805746
20
2899.697422
11
95.798082
21
2893.951425
0
LINE
8
Calque 1
10
95.798082
20
2893.951425
11
95.607902
21
2888.197775
0
LINE
8
Calque 1
10
95.607902
20
2888.197775
11
95.413082
21
2885.975185
0
LINE
8
Calque 1
10
95.413082
20
2885.975185
11
95.292534
21
2885.100035
0
LINE
8
Calque 1
10
95.292534
20
2885.100035
11
94.993982
21
2884.143765
0
LINE
8
Calque 1
10
94.993982
20
2884.143765
11
94.368611
21
2883.172919
0
LINE
8
Calque 1
10
94.368611
20
2883.172919
11
93.797172
21
2882.768645
0
LINE
8
Calque 1
10
93.797172
20
2882.768645
11
93.155342
21
2881.979555
0
LINE
8
Calque 1
10
93.155342
20
2881.979555
11
92.404957
21
2881.539572
0
LINE
8
Calque 1
10
92.404957
20
2881.539572
11
91.748712
21
2881.335135
0
LINE
8
Calque 1
10
91.748712
20
2881.335135
11
91.175102
21
2880.894345
0
LINE
8
Calque 1
10
91.175102
20
2880.894345
11
90.275717
21
2880.472804
0
LINE
8
Calque 1
10
90.275717
20
2880.472804
11
89.751932
21
2880.424605
0
LINE
8
Calque 1
10
89.751932
20
2880.424605
11
89.429462
21
2880.248385
0
LINE
8
Calque 1
10
89.429462
20
2880.248385
11
88.701352
21
2880.070615
0
LINE
8
Calque 1
10
88.701352
20
2880.070615
11
87.504550
21
2879.981630
0
LINE
8
Calque 1
10
87.504550
20
2879.981630
11
86.372609
21
2880.059389
0
LINE
8
Calque 1
10
86.372609
20
2880.059389
11
84.194662
21
2880.469055
0
LINE
8
Calque 1
10
84.194662
20
2880.469055
11
80.678062
21
2881.202845
0
LINE
8
Calque 1
10
80.678062
20
2881.202845
11
78.917583
21
2881.369853
0
LINE
8
Calque 1
10
78.917583
20
2881.369853
11
76.838512
21
2881.650365
0
LINE
8
Calque 1
10
76.838512
20
2881.650365
11
72.816846
21
2882.560915
0
LINE
8
Calque 1
10
72.816846
20
2882.560915
11
68.953722
21
2883.576345
0
LINE
8
Calque 1
10
68.953722
20
2883.576345
11
65.709992
21
2884.154615
0
LINE
8
Calque 1
10
65.709992
20
2884.154615
11
63.208332
21
2884.534425
0
LINE
8
Calque 1
10
63.208332
20
2884.534425
11
61.180542
21
2885.159715
0
LINE
8
Calque 1
10
61.180542
20
2885.159715
11
61.301482
21
2883.515385
0
LINE
8
Calque 1
10
61.301482
20
2883.515385
11
61.297223
21
2882.050519
0
LINE
8
Calque 1
10
61.297223
20
2882.050519
11
61.194512
21
2881.144455
0
LINE
8
Calque 1
10
61.194512
20
2881.144455
11
61.198512
21
2881.258145
0
LINE
8
Calque 1
10
61.198512
20
2881.258145
11
61.065151
21
2880.306080
0
LINE
8
Calque 1
10
61.065151
20
2880.306080
11
60.821802
21
2879.563175
0
LINE
8
Calque 1
10
60.821802
20
2879.563175
11
60.415612
21
2878.357045
0
LINE
8
Calque 1
10
60.415612
20
2878.357045
11
59.867342
21
2876.969515
0
LINE
8
Calque 1
10
59.867342
20
2876.969515
11
59.699922
21
2876.466695
0
LINE
8
Calque 1
10
59.699922
20
2876.466695
11
59.420332
21
2874.020865
0
LINE
8
Calque 1
10
59.420332
20
2874.020865
11
58.819332
21
2870.272255
0
LINE
8
Calque 1
10
58.819332
20
2870.272255
11
58.627112
21
2867.804165
0
LINE
8
Calque 1
10
58.627112
20
2867.804165
11
58.410582
21
2866.727245
0
LINE
8
Calque 1
10
58.410582
20
2866.727245
11
58.310882
21
2866.288505
0
LINE
8
Calque 1
10
58.310882
20
2866.288505
11
58.067992
21
2863.083535
0
LINE
8
Calque 1
10
58.067992
20
2863.083535
11
57.860242
21
2861.474855
0
LINE
8
Calque 1
10
57.860242
20
2861.474855
11
57.784544
21
2849.750811
0
LINE
8
Calque 1
10
57.784544
20
2849.750811
11
57.810142
21
2837.940855
0
LINE
8
Calque 1
10
57.810142
20
2837.940855
11
57.815142
21
2822.800655
0
LINE
8
Calque 1
10
57.815142
20
2822.800655
11
57.960342
21
2796.606955
0
LINE
8
Calque 1
10
57.960342
20
2796.606955
11
57.778365
21
2795.671504
0
LINE
8
Calque 1
10
57.778365
20
2795.671504
11
57.269480
21
2794.905040
0
LINE
8
Calque 1
10
57.269480
20
2794.905040
11
56.510331
21
2794.385307
0
LINE
8
Calque 1
10
56.510331
20
2794.385307
11
55.577562
21
2794.190045
0
LINE
8
Calque 1
10
55.577562
20
2794.190045
11
54.657609
21
2794.366120
0
LINE
8
Calque 1
10
54.657609
20
2794.366120
11
53.875111
21
2794.880913
0
LINE
8
Calque 1
10
53.875111
20
2794.880913
11
53.349251
21
2795.656017
0
LINE
8
Calque 1
10
53.349251
20
2795.656017
11
53.160122
21
2796.573375
0
LINE
8
Calque 1
10
53.160122
20
2796.573375
11
53.015442
21
2822.788775
0
LINE
8
Calque 1
10
53.015442
20
2822.788775
11
53.010442
21
2837.929975
0
LINE
8
Calque 1
10
53.010442
20
2837.929975
11
52.987142
21
2847.413125
0
LINE
8
Calque 1
10
52.987142
20
2847.413125
11
52.122082
21
2847.212095
0
LINE
8
Calque 1
10
52.122082
20
2847.212095
11
51.004566
21
2847.244809
0
LINE
8
Calque 1
10
51.004566
20
2847.244809
11
50.143902
21
2847.431205
0
LINE
8
Calque 1
10
50.143902
20
2847.431205
11
49.498982
21
2847.620855
0
LINE
8
Calque 1
10
49.498982
20
2847.620855
11
49.245782
21
2847.626855
0
LINE
8
Calque 1
10
49.245782
20
2847.626855
11
48.808612
21
2847.667155
0
LINE
8
Calque 1
10
48.808612
20
2847.667155
11
48.295452
21
2847.762755
0
LINE
8
Calque 1
10
48.295452
20
2847.762755
11
46.258372
21
2848.266595
0
LINE
8
Calque 1
10
46.258372
20
2848.266595
11
42.307888
21
2848.986665
0
LINE
8
Calque 1
10
42.307888
20
2848.986665
11
38.407692
21
2849.452065
0
LINE
8
Calque 1
10
38.407692
20
2849.452065
11
37.267784
21
2849.692226
0
LINE
8
Calque 1
10
37.267784
20
2849.692226
11
36.542672
21
2849.999295
0
LINE
8
Calque 1
10
36.542672
20
2849.999295
11
36.247612
21
2850.138835
0
LINE
8
Calque 1
10
36.247612
20
2850.138835
11
32.309872
21
2850.468005
0
LINE
8
Calque 1
10
32.309872
20
2850.468005
11
30.635017
21
2850.777021
0
LINE
8
Calque 1
10
30.635017
20
2850.777021
11
29.783392
21
2851.036965
0
LINE
8
Calque 1
10
29.783392
20
2851.036965
11
27.839384
21
2851.170791
0
LINE
8
Calque 1
10
27.839384
20
2851.170791
11
26.546233
21
2851.312577
0
LINE
8
Calque 1
10
26.546233
20
2851.312577
11
25.163542
21
2851.614705
0
LINE
8
Calque 1
10
25.163542
20
2851.614705
11
24.156693
21
2851.998543
0
LINE
8
Calque 1
10
24.156693
20
2851.998543
11
23.938282
21
2852.148005
0
LINE
8
Calque 1
10
23.938282
20
2852.148005
11
19.948342
21
2853.090075
0
LINE
8
Calque 1
10
19.948342
20
2853.090075
11
19.738022
21
2853.099075
0
LINE
8
Calque 1
10
19.738022
20
2853.099075
11
19.051252
21
2853.128075
0
LINE
8
Calque 1
10
19.051252
20
2853.128075
11
18.368072
21
2853.155975
0
LINE
8
Calque 1
10
18.368072
20
2853.155975
11
18.142772
21
2853.164975
0
LINE
8
Calque 1
10
18.142772
20
2853.164975
11
18.099872
21
2853.167975
0
LINE
8
Calque 1
10
18.099872
20
2853.167975
11
18.151100
21
2853.160000
0
LINE
8
Calque 1
10
18.151100
20
2853.160000
11
17.909240
21
2853.171900
0
LINE
8
Calque 1
10
17.909240
20
2853.171900
11
16.335690
21
2853.477310
0
LINE
8
Calque 1
10
16.335690
20
2853.477310
11
16.477800
21
2848.562370
0
LINE
8
Calque 1
10
16.477800
20
2848.562370
11
16.298566
21
2844.879921
0
LINE
8
Calque 1
10
16.298566
20
2844.879921
11
16.050970
21
2841.370580
0
LINE
8
Calque 1
10
16.050970
20
2841.370580
11
16.050900
21
2841.370000
0
LINE
8
Calque 1
10
25.735060
20
2824.593800
11
25.853904
21
2825.522731
0
LINE
8
Calque 1
10
25.853904
20
2825.522731
11
26.319210
21
2826.335458
0
LINE
8
Calque 1
10
26.319210
20
2826.335458
11
27.060130
21
2826.908236
0
LINE
8
Calque 1
10
27.060130
20
2826.908236
11
27.963850
21
2827.153850
0
LINE
8
Calque 1
10
27.963850
20
2827.153850
11
28.892781
21
2827.035006
0
LINE
8
Calque 1
10
28.892781
20
2827.035006
11
29.705508
21
2826.569700
0
LINE
8
Calque 1
10
29.705508
20
2826.569700
11
30.278286
21
2825.828780
0
LINE
8
Calque 1
10
30.278286
20
2825.828780
11
30.523900
21
2824.925060
0
LINE
8
Calque 1
10
30.523900
20
2824.925060
11
31.092860
21
2820.411640
0
LINE
8
Calque 1
10
31.092860
20
2820.411640
11
31.150760
21
2818.251560
0
LINE
8
Calque 1
10
31.150760
20
2818.251560
11
31.198260
21
2816.071340
0
LINE
8
Calque 1
10
31.198260
20
2816.071340
11
31.318170
21
2813.992380
0
LINE
8
Calque 1
10
31.318170
20
2813.992380
11
31.422806
21
2812.949817
0
LINE
8
Calque 1
10
31.422806
20
2812.949817
11
31.461810
21
2811.494350
0
LINE
8
Calque 1
10
31.461810
20
2811.494350
11
31.021550
21
2807.693560
0
LINE
8
Calque 1
10
31.021550
20
2807.693560
11
30.725297
21
2806.787760
0
LINE
8
Calque 1
10
30.725297
20
2806.787760
11
30.125523
21
2806.090087
0
LINE
8
Calque 1
10
30.125523
20
2806.090087
11
29.307905
21
2805.668212
0
LINE
8
Calque 1
10
29.307905
20
2805.668212
11
28.358120
21
2805.589810
0
LINE
8
Calque 1
10
28.358120
20
2805.589810
11
27.452338
21
2805.886068
0
LINE
8
Calque 1
10
27.452338
20
2805.886068
11
26.754677
21
2806.485836
0
LINE
8
Calque 1
10
26.754677
20
2806.485836
11
26.332808
21
2807.303441
0
LINE
8
Calque 1
10
26.332808
20
2807.303441
11
26.254400
21
2808.253210
0
LINE
8
Calque 1
10
26.254400
20
2808.253210
11
26.667810
21
2811.726890
0
LINE
8
Calque 1
10
26.667810
20
2811.726890
11
26.526730
21
2813.701970
0
LINE
8
Calque 1
10
26.526730
20
2813.701970
11
26.402700
21
2815.870310
0
LINE
8
Calque 1
10
26.402700
20
2815.870310
11
26.351500
21
2818.162690
0
LINE
8
Calque 1
10
26.351500
20
2818.162690
11
26.305000
21
2820.070060
0
LINE
8
Calque 1
10
26.305000
20
2820.070060
11
26.032736
21
2822.133922
0
LINE
8
Calque 1
10
26.032736
20
2822.133922
11
25.735010
21
2824.593800
0
LINE
8
Calque 1
10
25.735010
20
2824.593800
11
25.735060
21
2824.593800
0
LINE
8
Calque 1
10
29.100740
20
2658.299800
11
29.103700
21
2658.300000
0
LINE
8
Calque 1
10
29.103700
20
2658.300000
11
29.186325
21
2659.232852
0
LINE
8
Calque 1
10
29.186325
20
2659.232852
11
29.619670
21
2660.063063
0
LINE
8
Calque 1
10
29.619670
20
2660.063063
11
30.337755
21
2660.664224
0
LINE
8
Calque 1
10
30.337755
20
2660.664224
11
31.231240
21
2660.944800
0
LINE
8
Calque 1
10
31.231240
20
2660.944800
11
32.164085
21
2660.862178
0
LINE
8
Calque 1
10
32.164085
20
2660.862178
11
32.994293
21
2660.428840
0
LINE
8
Calque 1
10
32.994293
20
2660.428840
11
33.595456
21
2659.710766
0
LINE
8
Calque 1
10
33.595456
20
2659.710766
11
33.876040
21
2658.817290
0
LINE
8
Calque 1
10
33.876040
20
2658.817290
11
34.133764
21
2655.756695
0
LINE
8
Calque 1
10
34.133764
20
2655.756695
11
34.173170
21
2652.603190
0
LINE
8
Calque 1
10
34.173170
20
2652.603190
11
34.167308
21
2652.457289
0
LINE
8
Calque 1
10
34.167308
20
2652.457289
11
34.169170
21
2652.526690
0
LINE
8
Calque 1
10
34.169170
20
2652.526690
11
34.166170
21
2652.494690
0
LINE
8
Calque 1
10
34.166170
20
2652.494690
11
34.159170
21
2652.383060
0
LINE
8
Calque 1
10
34.159170
20
2652.383060
11
34.134270
21
2651.989810
0
LINE
8
Calque 1
10
34.134270
20
2651.989810
11
34.059370
21
2650.778000
0
LINE
8
Calque 1
10
34.059370
20
2650.778000
11
33.949310
21
2648.809130
0
LINE
8
Calque 1
10
33.949310
20
2648.809130
11
33.980310
21
2647.842260
0
LINE
8
Calque 1
10
33.980310
20
2647.842260
11
34.072270
21
2647.649869
0
LINE
8
Calque 1
10
34.072270
20
2647.649869
11
34.151360
21
2646.533290
0
LINE
8
Calque 1
10
34.151360
20
2646.533290
11
33.871770
21
2644.090030
0
LINE
8
Calque 1
10
33.871770
20
2644.090030
11
33.582502
21
2643.199300
0
LINE
8
Calque 1
10
33.582502
20
2643.199300
11
32.974359
21
2642.487093
0
LINE
8
Calque 1
10
32.974359
20
2642.487093
11
32.139943
21
2642.061856
0
LINE
8
Calque 1
10
32.139943
20
2642.061856
11
31.206310
21
2641.988340
0
LINE
8
Calque 1
10
31.206310
20
2641.988340
11
30.300766
21
2642.285283
0
LINE
8
Calque 1
10
30.300766
20
2642.285283
11
29.603567
21
2642.885572
0
LINE
8
Calque 1
10
29.603567
20
2642.885572
11
29.182318
21
2643.703485
0
LINE
8
Calque 1
10
29.182318
20
2643.703485
11
29.104620
21
2644.653300
0
LINE
8
Calque 1
10
29.104620
20
2644.653300
11
29.353730
21
2646.683680
0
LINE
8
Calque 1
10
29.353730
20
2646.683680
11
29.335630
21
2646.521495
0
LINE
8
Calque 1
10
29.335630
20
2646.521495
11
29.301553
21
2646.586130
0
LINE
8
Calque 1
10
29.301553
20
2646.586130
11
29.199710
21
2647.407660
0
LINE
8
Calque 1
10
29.199710
20
2647.407660
11
29.149610
21
2648.880430
0
LINE
8
Calque 1
10
29.149610
20
2648.880430
11
29.267930
21
2651.069460
0
LINE
8
Calque 1
10
29.267930
20
2651.069460
11
29.343430
21
2652.290040
0
LINE
8
Calque 1
10
29.343430
20
2652.290040
11
29.368330
21
2652.684340
0
LINE
8
Calque 1
10
29.368330
20
2652.684340
11
29.374330
21
2652.782540
0
LINE
8
Calque 1
10
29.374330
20
2652.782540
11
29.337701
21
2655.506055
0
LINE
8
Calque 1
10
29.337701
20
2655.506055
11
29.102000
21
2658.300550
0
LINE
8
Calque 1
10
29.102000
20
2658.300550
11
29.100740
21
2658.299800
0
LINE
8
Calque 1
10
109.043640
20
2579.698400
11
109.044000
21
2579.700000
0
LINE
8
Calque 1
10
109.044000
20
2579.700000
11
109.314714
21
2582.033784
0
LINE
8
Calque 1
10
109.314714
20
2582.033784
11
109.996930
21
2584.273870
0
LINE
8
Calque 1
10
109.996930
20
2584.273870
11
110.451100
21
2585.572024
0
LINE
8
Calque 1
10
110.451100
20
2585.572024
11
111.287800
21
2587.267490
0
LINE
8
Calque 1
10
111.287800
20
2587.267490
11
112.120430
21
2588.289789
0
LINE
8
Calque 1
10
112.120430
20
2588.289789
11
112.946101
21
2588.947506
0
LINE
8
Calque 1
10
112.946101
20
2588.947506
11
114.031320
21
2589.546930
0
LINE
8
Calque 1
10
114.031320
20
2589.546930
11
114.465860
21
2590.017822
0
LINE
8
Calque 1
10
114.465860
20
2590.017822
11
115.723720
21
2590.986130
0
LINE
8
Calque 1
10
115.723720
20
2590.986130
11
116.910230
21
2591.524080
0
LINE
8
Calque 1
10
116.910230
20
2591.524080
11
117.390906
21
2591.714261
0
LINE
8
Calque 1
10
117.390906
20
2591.714261
11
117.539640
21
2591.769030
0
LINE
8
Calque 1
10
117.539640
20
2591.769030
11
117.487835
21
2591.767654
0
LINE
8
Calque 1
10
117.487835
20
2591.767654
11
117.624644
21
2591.877955
0
LINE
8
Calque 1
10
117.624644
20
2591.877955
11
118.525610
21
2592.300260
0
LINE
8
Calque 1
10
118.525610
20
2592.300260
11
120.602629
21
2592.807564
0
LINE
8
Calque 1
10
120.602629
20
2592.807564
11
122.700550
21
2592.873350
0
LINE
8
Calque 1
10
122.700550
20
2592.873350
11
124.386199
21
2592.647294
0
LINE
8
Calque 1
10
124.386199
20
2592.647294
11
125.619770
21
2592.429450
0
LINE
8
Calque 1
10
125.619770
20
2592.429450
11
127.628332
21
2592.285832
0
LINE
8
Calque 1
10
127.628332
20
2592.285832
11
129.465010
21
2592.380850
0
LINE
8
Calque 1
10
129.465010
20
2592.380850
11
129.846880
21
2592.411850
0
LINE
8
Calque 1
10
129.846880
20
2592.411850
11
130.313520
21
2592.695040
0
LINE
8
Calque 1
10
130.313520
20
2592.695040
11
131.742270
21
2593.445562
0
LINE
8
Calque 1
10
131.742270
20
2593.445562
11
133.406370
21
2594.139400
0
LINE
8
Calque 1
10
133.406370
20
2594.139400
11
134.858980
21
2594.514050
0
LINE
8
Calque 1
10
134.858980
20
2594.514050
11
136.400512
21
2595.222446
0
LINE
8
Calque 1
10
136.400512
20
2595.222446
11
137.873270
21
2595.680380
0
LINE
8
Calque 1
10
137.873270
20
2595.680380
11
139.177080
21
2596.109800
0
LINE
8
Calque 1
10
139.177080
20
2596.109800
11
139.444230
21
2596.255530
0
LINE
8
Calque 1
10
139.444230
20
2596.255530
11
139.462230
21
2596.273530
0
LINE
8
Calque 1
10
139.462230
20
2596.273530
11
139.724220
21
2596.527770
0
LINE
8
Calque 1
10
139.724220
20
2596.527770
11
139.983650
21
2596.744310
0
LINE
8
Calque 1
10
139.983650
20
2596.744310
11
140.487490
21
2597.033680
0
LINE
8
Calque 1
10
140.487490
20
2597.033680
11
140.841012
21
2597.166167
0
LINE
8
Calque 1
10
140.841012
20
2597.166167
11
141.517410
21
2597.226430
0
LINE
8
Calque 1
10
141.517410
20
2597.226430
11
142.661450
21
2596.809391
0
LINE
8
Calque 1
10
142.661450
20
2596.809391
11
143.223771
21
2596.372033
0
LINE
8
Calque 1
10
143.223771
20
2596.372033
11
143.615470
21
2595.835830
0
LINE
8
Calque 1
10
143.615470
20
2595.835830
11
143.845919
21
2595.232945
0
LINE
8
Calque 1
10
143.845919
20
2595.232945
11
143.828380
21
2595.113390
0
LINE
8
Calque 1
10
143.828380
20
2595.113390
11
143.865580
21
2594.833830
0
LINE
8
Calque 1
10
143.865580
20
2594.833830
11
143.923480
21
2594.261780
0
LINE
8
Calque 1
10
143.923480
20
2594.261780
11
143.996880
21
2593.372940
0
LINE
8
Calque 1
10
143.996880
20
2593.372940
11
144.149840
21
2592.159560
0
LINE
8
Calque 1
10
144.149840
20
2592.159560
11
144.139540
21
2590.500760
0
LINE
8
Calque 1
10
144.139540
20
2590.500760
11
144.250130
21
2586.509260
0
LINE
8
Calque 1
10
144.250130
20
2586.509260
11
144.250130
21
2586.504260
0
LINE
8
Calque 1
10
144.250130
20
2586.504260
11
144.195330
21
2585.589060
0
LINE
8
Calque 1
10
144.195330
20
2585.589060
11
144.195330
21
2584.528640
0
LINE
8
Calque 1
10
144.195330
20
2584.528640
11
144.483170
21
2576.429910
0
LINE
8
Calque 1
10
144.483170
20
2576.429910
11
144.607180
21
2569.919720
0
LINE
8
Calque 1
10
144.607180
20
2569.919720
11
144.676380
21
2567.715210
0
LINE
8
Calque 1
10
144.676380
20
2567.715210
11
144.635080
21
2564.988230
0
LINE
8
Calque 1
10
144.635080
20
2564.988230
11
144.635000
21
2561.710000
0
LINE
8
Calque 1
10
144.635000
20
2561.710000
11
144.588500
21
2559.960230
0
LINE
8
Calque 1
10
144.588500
20
2559.960230
11
144.608050
21
2559.198974
0
LINE
8
Calque 1
10
144.608050
20
2559.198974
11
144.617328
21
2558.994540
0
LINE
8
Calque 1
10
144.617328
20
2558.994540
11
144.600900
21
2559.011460
0
LINE
8
Calque 1
10
144.600900
20
2559.011460
11
144.707340
21
2557.957760
0
LINE
8
Calque 1
10
144.707340
20
2557.957760
11
144.704340
21
2557.544880
0
LINE
8
Calque 1
10
144.704340
20
2557.544880
11
144.670274
21
2556.800345
0
LINE
8
Calque 1
10
144.670274
20
2556.800345
11
144.247010
21
2555.911900
0
LINE
8
Calque 1
10
144.247010
20
2555.911900
11
143.740601
21
2555.421535
0
LINE
8
Calque 1
10
143.740601
20
2555.421535
11
143.201797
21
2555.133409
0
LINE
8
Calque 1
10
143.201797
20
2555.133409
11
142.317400
21
2554.963130
0
LINE
8
Calque 1
10
142.317400
20
2554.963130
11
141.637950
21
2555.071247
0
LINE
8
Calque 1
10
141.637950
20
2555.071247
11
141.068537
21
2555.336061
0
LINE
8
Calque 1
10
141.068537
20
2555.336061
11
140.355250
21
2555.978550
0
LINE
8
Calque 1
10
140.355250
20
2555.978550
11
140.228650
21
2556.198180
0
LINE
8
Calque 1
10
140.228650
20
2556.198180
11
140.182650
21
2556.254480
0
LINE
8
Calque 1
10
140.182650
20
2556.254480
11
140.073080
21
2556.408490
0
LINE
8
Calque 1
10
140.073080
20
2556.408490
11
140.015680
21
2556.527340
0
LINE
8
Calque 1
10
140.015680
20
2556.527340
11
138.623699
21
2556.842553
0
LINE
8
Calque 1
10
138.623699
20
2556.842553
11
137.571910
21
2557.276640
0
LINE
8
Calque 1
10
137.571910
20
2557.276640
11
136.429840
21
2557.936040
0
LINE
8
Calque 1
10
136.429840
20
2557.936040
11
134.899941
21
2558.418768
0
LINE
8
Calque 1
10
134.899941
20
2558.418768
11
133.344250
21
2558.791800
0
LINE
8
Calque 1
10
133.344250
20
2558.791800
11
132.386994
21
2559.113473
0
LINE
8
Calque 1
10
132.386994
20
2559.113473
11
131.857530
21
2559.457390
0
LINE
8
Calque 1
10
131.857530
20
2559.457390
11
131.680260
21
2559.579860
0
LINE
8
Calque 1
10
131.680260
20
2559.579860
11
130.691700
21
2559.966920
0
LINE
8
Calque 1
10
130.691700
20
2559.966920
11
125.145770
21
2562.780180
0
LINE
8
Calque 1
10
125.145770
20
2562.780180
11
123.385160
21
2563.472650
0
LINE
8
Calque 1
10
123.385160
20
2563.472650
11
121.822480
21
2564.177520
0
LINE
8
Calque 1
10
121.822480
20
2564.177520
11
121.683470
21
2564.246720
0
LINE
8
Calque 1
10
121.683470
20
2564.246720
11
121.444200
21
2564.392960
0
LINE
8
Calque 1
10
121.444200
20
2564.392960
11
121.367700
21
2564.481860
0
LINE
8
Calque 1
10
121.367700
20
2564.481860
11
121.280900
21
2564.523760
0
LINE
8
Calque 1
10
121.280900
20
2564.523760
11
119.860138
21
2565.093358
0
LINE
8
Calque 1
10
119.860138
20
2565.093358
11
118.901283
21
2565.611860
0
LINE
8
Calque 1
10
118.901283
20
2565.611860
11
117.882650
21
2566.410450
0
LINE
8
Calque 1
10
117.882650
20
2566.410450
11
117.190942
21
2567.180269
0
LINE
8
Calque 1
10
117.190942
20
2567.180269
11
116.680246
21
2567.946263
0
LINE
8
Calque 1
10
116.680246
20
2567.946263
11
116.003720
21
2569.299690
0
LINE
8
Calque 1
10
116.003720
20
2569.299690
11
115.329840
21
2570.457750
0
LINE
8
Calque 1
10
115.329840
20
2570.457750
11
114.731430
21
2570.889760
0
LINE
8
Calque 1
10
114.731430
20
2570.889760
11
114.465290
21
2571.146590
0
LINE
8
Calque 1
10
114.465290
20
2571.146590
11
114.179010
21
2571.278380
0
LINE
8
Calque 1
10
114.179010
20
2571.278380
11
113.519090
21
2571.735210
0
LINE
8
Calque 1
10
113.519090
20
2571.735210
11
113.126039
21
2571.844895
0
LINE
8
Calque 1
10
113.126039
20
2571.844895
11
112.198230
21
2572.403890
0
LINE
8
Calque 1
10
112.198230
20
2572.403890
11
111.567489
21
2572.958614
0
LINE
8
Calque 1
10
111.567489
20
2572.958614
11
111.319240
21
2573.317520
0
LINE
8
Calque 1
10
111.319240
20
2573.317520
11
111.020550
21
2573.732490
0
LINE
8
Calque 1
10
111.020550
20
2573.732490
11
110.126846
21
2575.142562
0
LINE
8
Calque 1
10
110.126846
20
2575.142562
11
109.506734
21
2576.632140
0
LINE
8
Calque 1
10
109.506734
20
2576.632140
11
109.149367
21
2578.164048
0
LINE
8
Calque 1
10
109.149367
20
2578.164048
11
109.043900
21
2579.701110
0
LINE
8
Calque 1
10
109.043900
20
2579.701110
11
109.043640
21
2579.698400
0
LINE
8
Calque 1
10
126.800740
20
2502.588400
11
127.032250
21
2505.066800
0
LINE
8
Calque 1
10
127.032250
20
2505.066800
11
127.231720
21
2510.477840
0
LINE
8
Calque 1
10
127.231720
20
2510.477840
11
127.468833
21
2511.353639
0
LINE
8
Calque 1
10
127.468833
20
2511.353639
11
127.993205
21
2512.058534
0
LINE
8
Calque 1
10
127.993205
20
2512.058534
11
128.735596
21
2512.528318
0
LINE
8
Calque 1
10
128.735596
20
2512.528318
11
129.626768
21
2512.698788
0
LINE
8
Calque 1
10
129.626768
20
2512.698788
11
130.517725
21
2512.527202
0
LINE
8
Calque 1
10
130.517725
20
2512.527202
11
131.259527
21
2512.056487
0
LINE
8
Calque 1
10
131.259527
20
2512.056487
11
131.783014
21
2511.350936
0
LINE
8
Calque 1
10
131.783014
20
2511.350936
11
132.019030
21
2510.474840
0
LINE
8
Calque 1
10
132.019030
20
2510.474840
11
132.037030
21
2510.216480
0
LINE
8
Calque 1
10
132.037030
20
2510.216480
11
132.043030
21
2510.056770
0
LINE
8
Calque 1
10
132.043030
20
2510.056770
11
132.159810
21
2487.435470
0
LINE
8
Calque 1
10
132.159810
20
2487.435470
11
132.160000
21
2487.410000
0
LINE
8
Calque 1
10
132.160000
20
2487.410000
11
132.341910
21
2480.889980
0
LINE
8
Calque 1
10
132.341910
20
2480.889980
11
132.244710
21
2471.066810
0
LINE
8
Calque 1
10
132.244710
20
2471.066810
11
132.244710
21
2471.000710
0
LINE
8
Calque 1
10
132.244710
20
2471.000710
11
132.033471
21
2470.085053
0
LINE
8
Calque 1
10
132.033471
20
2470.085053
11
131.509440
21
2469.343541
0
LINE
8
Calque 1
10
131.509440
20
2469.343541
11
130.748093
21
2468.848767
0
LINE
8
Calque 1
10
130.748093
20
2468.848767
11
129.824909
21
2468.673326
0
LINE
8
Calque 1
10
129.824909
20
2468.673326
11
128.904880
21
2468.864629
0
LINE
8
Calque 1
10
128.904880
20
2468.864629
11
128.152161
21
2469.372432
0
LINE
8
Calque 1
10
128.152161
20
2469.372432
11
127.640969
21
2470.122853
0
LINE
8
Calque 1
10
127.640969
20
2470.122853
11
127.445520
21
2471.042010
0
LINE
8
Calque 1
10
127.445520
20
2471.042010
11
127.361320
21
2487.341310
0
LINE
8
Calque 1
10
127.361320
20
2487.341310
11
127.291520
21
2488.481290
0
LINE
8
Calque 1
10
127.291520
20
2488.481290
11
127.287520
21
2488.719520
0
LINE
8
Calque 1
10
127.287520
20
2488.719520
11
127.216164
21
2491.609404
0
LINE
8
Calque 1
10
127.216164
20
2491.609404
11
127.090620
21
2494.817340
0
LINE
8
Calque 1
10
127.090620
20
2494.817340
11
127.090000
21
2494.790000
0
LINE
8
Calque 1
10
127.090000
20
2494.790000
11
126.968735
21
2497.290821
0
LINE
8
Calque 1
10
126.968735
20
2497.290821
11
126.933420
21
2500.120420
0
LINE
8
Calque 1
10
126.933420
20
2500.120420
11
126.800090
21
2502.586940
0
LINE
8
Calque 1
10
126.800090
20
2502.586940
11
126.800740
21
2502.588400
0
LINE
8
Calque 1
10
152.126340
20
2794.446400
11
152.126340
21
2795.098040
0
LINE
8
Calque 1
10
152.126340
20
2795.098040
11
152.126000
21
2795.100000
0
LINE
8
Calque 1
10
152.126000
20
2795.100000
11
152.153900
21
2795.377000
0
LINE
8
Calque 1
10
152.153900
20
2795.377000
11
152.178356
21
2796.844504
0
LINE
8
Calque 1
10
152.178356
20
2796.844504
11
152.234969
21
2797.923121
0
LINE
8
Calque 1
10
152.234969
20
2797.923121
11
152.444830
21
2799.187100
0
LINE
8
Calque 1
10
152.444830
20
2799.187100
11
152.386636
21
2800.794100
0
LINE
8
Calque 1
10
152.386636
20
2800.794100
11
152.425230
21
2803.010640
0
LINE
8
Calque 1
10
152.425230
20
2803.010640
11
152.317119
21
2805.007329
0
LINE
8
Calque 1
10
152.317119
20
2805.007329
11
152.484130
21
2806.764940
0
LINE
8
Calque 1
10
152.484130
20
2806.764940
11
152.330640
21
2811.467480
0
LINE
8
Calque 1
10
152.330640
20
2811.467480
11
152.637080
21
2812.112400
0
LINE
8
Calque 1
10
152.637080
20
2812.112400
11
152.637000
21
2812.450000
0
LINE
8
Calque 1
10
152.637000
20
2812.450000
11
152.580100
21
2812.300140
0
LINE
8
Calque 1
10
152.580100
20
2812.300140
11
152.557337
21
2812.164304
0
LINE
8
Calque 1
10
152.557337
20
2812.164304
11
152.560000
21
2812.240140
0
LINE
8
Calque 1
10
152.560000
20
2812.240140
11
152.554000
21
2812.865930
0
LINE
8
Calque 1
10
152.554000
20
2812.865930
11
152.617665
21
2813.531320
0
LINE
8
Calque 1
10
152.617665
20
2813.531320
11
153.105920
21
2814.540270
0
LINE
8
Calque 1
10
153.105920
20
2814.540270
11
153.646134
21
2815.072242
0
LINE
8
Calque 1
10
153.646134
20
2815.072242
11
154.308674
21
2815.403610
0
LINE
8
Calque 1
10
154.308674
20
2815.403610
11
155.040654
21
2815.517487
0
LINE
8
Calque 1
10
155.040654
20
2815.517487
11
155.789190
21
2815.396989
0
LINE
8
Calque 1
10
155.789190
20
2815.396989
11
156.462948
21
2815.049318
0
LINE
8
Calque 1
10
156.462948
20
2815.049318
11
156.984175
21
2814.522928
0
LINE
8
Calque 1
10
156.984175
20
2814.522928
11
157.320354
21
2813.862816
0
LINE
8
Calque 1
10
157.320354
20
2813.862816
11
157.438970
21
2813.113980
0
LINE
8
Calque 1
10
157.438970
20
2813.113980
11
157.394570
21
2789.656480
0
LINE
8
Calque 1
10
157.394570
20
2789.656480
11
157.389570
21
2787.401840
0
LINE
8
Calque 1
10
157.389570
20
2787.401840
11
157.390000
21
2787.340000
0
LINE
8
Calque 1
10
157.390000
20
2787.340000
11
157.387000
21
2786.146790
0
LINE
8
Calque 1
10
157.387000
20
2786.146790
11
157.765780
21
2782.419900
0
LINE
8
Calque 1
10
157.765780
20
2782.419900
11
157.848841
21
2779.895981
0
LINE
8
Calque 1
10
157.848841
20
2779.895981
11
157.734780
21
2777.770560
0
LINE
8
Calque 1
10
157.734780
20
2777.770560
11
157.784092
21
2776.261619
0
LINE
8
Calque 1
10
157.784092
20
2776.261619
11
157.609740
21
2775.045650
0
LINE
8
Calque 1
10
157.609740
20
2775.045650
11
157.362720
21
2773.327420
0
LINE
8
Calque 1
10
157.362720
20
2773.327420
11
157.363000
21
2773.220000
0
LINE
8
Calque 1
10
157.363000
20
2773.220000
11
157.172570
21
2772.302517
0
LINE
8
Calque 1
10
157.172570
20
2772.302517
11
156.667214
21
2771.551069
0
LINE
8
Calque 1
10
156.667214
20
2771.551069
11
155.920053
21
2771.039397
0
LINE
8
Calque 1
10
155.920053
20
2771.039397
11
155.004207
21
2770.841240
0
LINE
8
Calque 1
10
155.004207
20
2770.841240
11
154.082077
21
2771.007718
0
LINE
8
Calque 1
10
154.082077
20
2771.007718
11
153.317726
21
2771.493338
0
LINE
8
Calque 1
10
153.317726
20
2771.493338
11
152.786774
21
2772.226924
0
LINE
8
Calque 1
10
152.786774
20
2772.226924
11
152.564840
21
2773.137300
0
LINE
8
Calque 1
10
152.564840
20
2773.137300
11
152.571840
21
2773.228800
0
LINE
8
Calque 1
10
152.571840
20
2773.228800
11
152.564000
21
2773.230000
0
LINE
8
Calque 1
10
152.564000
20
2773.230000
11
152.587800
21
2785.935200
0
LINE
8
Calque 1
10
152.587800
20
2785.935200
11
152.518600
21
2786.921200
0
LINE
8
Calque 1
10
152.518600
20
2786.921200
11
152.590900
21
2787.506690
0
LINE
8
Calque 1
10
152.590900
20
2787.506690
11
152.593900
21
2789.439390
0
LINE
8
Calque 1
10
152.593900
20
2789.439390
11
152.363950
21
2791.234110
0
LINE
8
Calque 1
10
152.363950
20
2791.234110
11
152.385650
21
2791.844930
0
LINE
8
Calque 1
10
152.385650
20
2791.844930
11
152.303550
21
2792.863970
0
LINE
8
Calque 1
10
152.303550
20
2792.863970
11
152.125780
21
2794.448900
0
LINE
8
Calque 1
10
152.125780
20
2794.448900
11
152.126340
21
2794.446400
0
LINE
8
Calque 1
10
209.922840
20
2533.547400
11
209.926000
21
2533.550000
0
LINE
8
Calque 1
10
209.926000
20
2533.550000
11
209.982900
21
2534.818120
0
LINE
8
Calque 1
10
209.982900
20
2534.818120
11
209.999725
21
2540.385180
0
LINE
8
Calque 1
10
209.999725
20
2540.385180
11
209.927600
21
2545.843820
0
LINE
8
Calque 1
10
209.927600
20
2545.843820
11
209.934600
21
2546.136290
0
LINE
8
Calque 1
10
209.934600
20
2546.136290
11
210.041070
21
2550.447670
0
LINE
8
Calque 1
10
210.041070
20
2550.447670
11
210.038070
21
2550.377870
0
LINE
8
Calque 1
10
210.038070
20
2550.377870
11
210.104170
21
2554.120790
0
LINE
8
Calque 1
10
210.104170
20
2554.120790
11
210.096170
21
2554.775030
0
LINE
8
Calque 1
10
210.096170
20
2554.775030
11
210.096170
21
2554.867030
0
LINE
8
Calque 1
10
210.096170
20
2554.867030
11
210.125570
21
2555.589970
0
LINE
8
Calque 1
10
210.125570
20
2555.589970
11
210.125570
21
2555.640670
0
LINE
8
Calque 1
10
210.125570
20
2555.640670
11
210.133570
21
2555.826170
0
LINE
8
Calque 1
10
210.133570
20
2555.826170
11
210.392296
21
2556.716186
0
LINE
8
Calque 1
10
210.392296
20
2556.716186
11
210.946162
21
2557.420908
0
LINE
8
Calque 1
10
210.946162
20
2557.420908
11
211.719406
21
2557.874226
0
LINE
8
Calque 1
10
211.719406
20
2557.874226
11
212.636262
21
2558.010026
0
LINE
8
Calque 1
10
212.636262
20
2558.010026
11
213.536470
21
2557.789360
0
LINE
8
Calque 1
10
213.536470
20
2557.789360
11
214.264095
21
2557.265945
0
LINE
8
Calque 1
10
214.264095
20
2557.265945
11
214.749866
21
2556.512666
0
LINE
8
Calque 1
10
214.749866
20
2556.512666
11
214.924510
21
2555.602410
0
LINE
8
Calque 1
10
214.924510
20
2555.602410
11
214.902810
21
2554.101220
0
LINE
8
Calque 1
10
214.902810
20
2554.101220
11
215.417510
21
2510.999420
0
LINE
8
Calque 1
10
215.417510
20
2510.999420
11
215.259196
21
2510.117502
0
LINE
8
Calque 1
10
215.259196
20
2510.117502
11
214.806754
21
2509.376491
0
LINE
8
Calque 1
10
214.806754
20
2509.376491
11
214.120830
21
2508.844223
0
LINE
8
Calque 1
10
214.120830
20
2508.844223
11
213.262072
21
2508.588532
0
LINE
8
Calque 1
10
213.262072
20
2508.588532
11
212.369302
21
2508.664723
0
LINE
8
Calque 1
10
212.369302
20
2508.664723
11
211.589675
21
2509.046799
0
LINE
8
Calque 1
10
211.589675
20
2509.046799
11
210.996336
21
2509.680635
0
LINE
8
Calque 1
10
210.996336
20
2509.680635
11
210.662430
21
2510.512110
0
LINE
8
Calque 1
10
210.662430
20
2510.512110
11
210.298279
21
2513.258121
0
LINE
8
Calque 1
10
210.298279
20
2513.258121
11
210.204821
21
2515.921024
0
LINE
8
Calque 1
10
210.204821
20
2515.921024
11
210.319290
21
2520.936810
0
LINE
8
Calque 1
10
210.319290
20
2520.936810
11
210.059870
21
2529.745070
0
LINE
8
Calque 1
10
210.059870
20
2529.745070
11
210.059870
21
2529.921780
0
LINE
8
Calque 1
10
210.059870
20
2529.921780
11
209.923450
21
2533.550010
0
LINE
8
Calque 1
10
209.923450
20
2533.550010
11
209.922840
21
2533.547400
0
LINE
8
Calque 1
10
211.376510
20
2421.659400
11
211.379510
21
2421.659920
0
LINE
8
Calque 1
10
211.379510
20
2421.659920
11
211.751945
21
2424.101959
0
LINE
8
Calque 1
10
211.751945
20
2424.101959
11
212.677610
21
2426.498900
0
LINE
8
Calque 1
10
212.677610
20
2426.498900
11
212.937030
21
2427.079750
0
LINE
8
Calque 1
10
212.937030
20
2427.079750
11
213.200035
21
2427.617546
0
LINE
8
Calque 1
10
213.200035
20
2427.617546
11
213.737000
21
2428.325150
0
LINE
8
Calque 1
10
213.737000
20
2428.325150
11
214.596293
21
2429.075506
0
LINE
8
Calque 1
10
214.596293
20
2429.075506
11
215.428165
21
2429.576923
0
LINE
8
Calque 1
10
215.428165
20
2429.576923
11
216.736290
21
2430.133310
0
LINE
8
Calque 1
10
216.736290
20
2430.133310
11
218.244981
21
2430.954473
0
LINE
8
Calque 1
10
218.244981
20
2430.954473
11
219.925760
21
2432.041720
0
LINE
8
Calque 1
10
219.925760
20
2432.041720
11
221.995910
21
2433.370320
0
LINE
8
Calque 1
10
221.995910
20
2433.370320
11
222.406169
21
2433.759872
0
LINE
8
Calque 1
10
222.406169
20
2433.759872
11
222.598470
21
2434.151150
0
LINE
8
Calque 1
10
222.598470
20
2434.151150
11
222.488900
21
2434.448290
0
LINE
8
Calque 1
10
222.488900
20
2434.448290
11
221.620750
21
2436.295210
0
LINE
8
Calque 1
10
221.620750
20
2436.295210
11
221.026074
21
2438.019526
0
LINE
8
Calque 1
10
221.026074
20
2438.019526
11
220.570680
21
2439.049560
0
LINE
8
Calque 1
10
220.570680
20
2439.049560
11
220.110174
21
2439.565640
0
LINE
8
Calque 1
10
220.110174
20
2439.565640
11
219.334570
21
2440.620010
0
LINE
8
Calque 1
10
219.334570
20
2440.620010
11
219.003340
21
2441.373970
0
LINE
8
Calque 1
10
219.003340
20
2441.373970
11
218.317590
21
2442.426100
0
LINE
8
Calque 1
10
218.317590
20
2442.426100
11
217.180180
21
2444.656970
0
LINE
8
Calque 1
10
217.180180
20
2444.656970
11
216.290840
21
2446.279610
0
LINE
8
Calque 1
10
216.290840
20
2446.279610
11
215.783370
21
2447.392200
0
LINE
8
Calque 1
10
215.783370
20
2447.392200
11
215.491198
21
2447.973285
0
LINE
8
Calque 1
10
215.491198
20
2447.973285
11
215.428326
21
2448.482314
0
LINE
8
Calque 1
10
215.428326
20
2448.482314
11
215.537380
21
2449.337820
0
LINE
8
Calque 1
10
215.537380
20
2449.337820
11
215.989311
21
2451.302070
0
LINE
8
Calque 1
10
215.989311
20
2451.302070
11
216.521174
21
2452.472233
0
LINE
8
Calque 1
10
216.521174
20
2452.472233
11
217.445290
21
2453.673480
0
LINE
8
Calque 1
10
217.445290
20
2453.673480
11
219.578945
21
2455.533531
0
LINE
8
Calque 1
10
219.578945
20
2455.533531
11
220.348282
21
2456.156905
0
LINE
8
Calque 1
10
220.348282
20
2456.156905
11
220.840950
21
2456.707400
0
LINE
8
Calque 1
10
220.840950
20
2456.707400
11
221.764361
21
2458.308608
0
LINE
8
Calque 1
10
221.764361
20
2458.308608
11
222.349890
21
2459.718070
0
LINE
8
Calque 1
10
222.349890
20
2459.718070
11
222.368890
21
2459.827100
0
LINE
8
Calque 1
10
222.368890
20
2459.827100
11
222.476370
21
2460.432750
0
LINE
8
Calque 1
10
222.476370
20
2460.432750
11
222.613840
21
2461.121600
0
LINE
8
Calque 1
10
222.613840
20
2461.121600
11
222.700640
21
2461.474550
0
LINE
8
Calque 1
10
222.700640
20
2461.474550
11
222.966260
21
2462.134970
0
LINE
8
Calque 1
10
222.966260
20
2462.134970
11
222.966000
21
2462.140000
0
LINE
8
Calque 1
10
222.966000
20
2462.140000
11
223.764827
21
2463.278551
0
LINE
8
Calque 1
10
223.764827
20
2463.278551
11
224.610095
21
2464.117962
0
LINE
8
Calque 1
10
224.610095
20
2464.117962
11
225.993730
21
2465.194080
0
LINE
8
Calque 1
10
225.993730
20
2465.194080
11
228.025689
21
2466.919077
0
LINE
8
Calque 1
10
228.025689
20
2466.919077
11
230.201730
21
2468.616610
0
LINE
8
Calque 1
10
230.201730
20
2468.616610
11
232.311886
21
2470.309581
0
LINE
8
Calque 1
10
232.311886
20
2470.309581
11
234.465040
21
2472.201400
0
LINE
8
Calque 1
10
234.465040
20
2472.201400
11
234.703925
21
2472.490319
0
LINE
8
Calque 1
10
234.703925
20
2472.490319
11
235.484610
21
2473.193590
0
LINE
8
Calque 1
10
235.484610
20
2473.193590
11
236.316620
21
2473.715520
0
LINE
8
Calque 1
10
236.316620
20
2473.715520
11
237.233870
21
2474.214200
0
LINE
8
Calque 1
10
237.233870
20
2474.214200
11
238.555230
21
2474.900980
0
LINE
8
Calque 1
10
238.555230
20
2474.900980
11
242.731001
21
2476.813116
0
LINE
8
Calque 1
10
242.731001
20
2476.813116
11
246.487560
21
2478.654760
0
LINE
8
Calque 1
10
246.487560
20
2478.654760
11
250.671810
21
2481.226690
0
LINE
8
Calque 1
10
250.671810
20
2481.226690
11
253.199820
21
2482.735130
0
LINE
8
Calque 1
10
253.199820
20
2482.735130
11
254.165650
21
2483.264290
0
LINE
8
Calque 1
10
254.165650
20
2483.264290
11
254.612640
21
2483.473070
0
LINE
8
Calque 1
10
254.612640
20
2483.473070
11
254.868240
21
2483.613377
0
LINE
8
Calque 1
10
254.868240
20
2483.613377
11
255.683910
21
2483.700960
0
LINE
8
Calque 1
10
255.683910
20
2483.700960
11
256.300958
21
2483.570833
0
LINE
8
Calque 1
10
256.300958
20
2483.570833
11
256.950787
21
2483.236691
0
LINE
8
Calque 1
10
256.950787
20
2483.236691
11
257.515075
21
2482.782897
0
LINE
8
Calque 1
10
257.515075
20
2482.782897
11
257.875500
21
2482.293810
0
LINE
8
Calque 1
10
257.875500
20
2482.293810
11
258.096936
21
2481.554167
0
LINE
8
Calque 1
10
258.096936
20
2481.554167
11
258.090980
21
2481.142980
0
LINE
8
Calque 1
10
258.090980
20
2481.142980
11
258.068180
21
2481.000870
0
LINE
8
Calque 1
10
258.068180
20
2481.000870
11
258.128680
21
2480.014880
0
LINE
8
Calque 1
10
258.128680
20
2480.014880
11
258.450120
21
2476.758750
0
LINE
8
Calque 1
10
258.450120
20
2476.758750
11
258.547820
21
2472.616880
0
LINE
8
Calque 1
10
258.547820
20
2472.616880
11
258.470395
21
2466.367030
0
LINE
8
Calque 1
10
258.470395
20
2466.367030
11
258.229500
21
2460.329280
0
LINE
8
Calque 1
10
258.229500
20
2460.329280
11
258.205200
21
2455.608640
0
LINE
8
Calque 1
10
258.205200
20
2455.608640
11
257.922366
21
2446.621246
0
LINE
8
Calque 1
10
257.922366
20
2446.621246
11
257.840125
21
2442.186736
0
LINE
8
Calque 1
10
257.840125
20
2442.186736
11
257.886350
21
2437.760640
0
LINE
8
Calque 1
10
257.886350
20
2437.760640
11
258.154030
21
2430.685620
0
LINE
8
Calque 1
10
258.154030
20
2430.685620
11
258.380564
21
2428.263795
0
LINE
8
Calque 1
10
258.380564
20
2428.263795
11
258.520930
21
2425.428060
0
LINE
8
Calque 1
10
258.520930
20
2425.428060
11
258.521000
21
2425.420000
0
LINE
8
Calque 1
10
258.521000
20
2425.420000
11
258.766564
21
2417.480898
0
LINE
8
Calque 1
10
258.766564
20
2417.480898
11
259.035190
21
2409.666400
0
LINE
8
Calque 1
10
259.035190
20
2409.666400
11
259.025190
21
2409.288130
0
LINE
8
Calque 1
10
259.025190
20
2409.288130
11
258.583860
21
2405.668200
0
LINE
8
Calque 1
10
258.583860
20
2405.668200
11
258.577070
21
2404.869639
0
LINE
8
Calque 1
10
258.577070
20
2404.869639
11
258.777640
21
2403.578920
0
LINE
8
Calque 1
10
258.777640
20
2403.578920
11
259.296490
21
2400.868490
0
LINE
8
Calque 1
10
259.296490
20
2400.868490
11
259.596710
21
2399.189520
0
LINE
8
Calque 1
10
259.596710
20
2399.189520
11
259.692310
21
2398.546150
0
LINE
8
Calque 1
10
259.692310
20
2398.546150
11
259.723310
21
2398.220070
0
LINE
8
Calque 1
10
259.723310
20
2398.220070
11
259.726310
21
2397.935850
0
LINE
8
Calque 1
10
259.726310
20
2397.935850
11
259.730195
21
2397.667933
0
LINE
8
Calque 1
10
259.730195
20
2397.667933
11
259.497890
21
2396.990170
0
LINE
8
Calque 1
10
259.497890
20
2396.990170
11
259.042143
21
2396.268938
0
LINE
8
Calque 1
10
259.042143
20
2396.268938
11
258.522557
21
2395.877053
0
LINE
8
Calque 1
10
258.522557
20
2395.877053
11
257.707830
21
2395.606790
0
LINE
8
Calque 1
10
257.707830
20
2395.606790
11
256.753381
21
2395.640544
0
LINE
8
Calque 1
10
256.753381
20
2395.640544
11
256.019020
21
2395.929260
0
LINE
8
Calque 1
10
256.019020
20
2395.929260
11
255.423710
21
2396.448610
0
LINE
8
Calque 1
10
255.423710
20
2396.448610
11
254.274440
21
2397.007740
0
LINE
8
Calque 1
10
254.274440
20
2397.007740
11
253.325589
21
2397.732459
0
LINE
8
Calque 1
10
253.325589
20
2397.732459
11
252.883820
21
2398.181830
0
LINE
8
Calque 1
10
252.883820
20
2398.181830
11
251.648250
21
2398.234030
0
LINE
8
Calque 1
10
251.648250
20
2398.234030
11
250.035865
21
2398.261833
0
LINE
8
Calque 1
10
250.035865
20
2398.261833
11
248.251550
21
2398.508950
0
LINE
8
Calque 1
10
248.251550
20
2398.508950
11
248.252000
21
2398.510000
0
LINE
8
Calque 1
10
248.252000
20
2398.510000
11
246.072781
21
2399.280574
0
LINE
8
Calque 1
10
246.072781
20
2399.280574
11
244.608800
21
2399.901650
0
LINE
8
Calque 1
10
244.608800
20
2399.901650
11
240.950120
21
2400.657160
0
LINE
8
Calque 1
10
240.950120
20
2400.657160
11
237.370288
21
2401.625444
0
LINE
8
Calque 1
10
237.370288
20
2401.625444
11
233.839401
21
2402.764950
0
LINE
8
Calque 1
10
233.839401
20
2402.764950
11
230.371974
21
2404.067153
0
LINE
8
Calque 1
10
230.371974
20
2404.067153
11
226.982520
21
2405.523530
0
LINE
8
Calque 1
10
226.982520
20
2405.523530
11
226.048036
21
2405.743359
0
LINE
8
Calque 1
10
226.048036
20
2405.743359
11
224.242120
21
2406.364310
0
LINE
8
Calque 1
10
224.242120
20
2406.364310
11
222.100110
21
2407.557378
0
LINE
8
Calque 1
10
222.100110
20
2407.557378
11
220.456310
21
2408.565210
0
LINE
8
Calque 1
10
220.456310
20
2408.565210
11
219.557354
21
2408.936054
0
LINE
8
Calque 1
10
219.557354
20
2408.936054
11
218.140680
21
2409.704150
0
LINE
8
Calque 1
10
218.140680
20
2409.704150
11
216.272424
21
2411.232724
0
LINE
8
Calque 1
10
216.272424
20
2411.232724
11
214.785850
21
2412.753580
0
LINE
8
Calque 1
10
214.785850
20
2412.753580
11
214.204624
21
2413.270739
0
LINE
8
Calque 1
10
214.204624
20
2413.270739
11
213.304790
21
2414.509540
0
LINE
8
Calque 1
10
213.304790
20
2414.509540
11
212.874694
21
2415.528513
0
LINE
8
Calque 1
10
212.874694
20
2415.528513
11
212.845696
21
2415.715599
0
LINE
8
Calque 1
10
212.845696
20
2415.715599
11
212.898100
21
2415.668650
0
LINE
8
Calque 1
10
212.898100
20
2415.668650
11
212.271712
21
2416.728057
0
LINE
8
Calque 1
10
212.271712
20
2416.728057
11
211.891450
21
2417.580542
0
LINE
8
Calque 1
10
211.891450
20
2417.580542
11
211.603100
21
2418.681900
0
LINE
8
Calque 1
10
211.603100
20
2418.681900
11
211.412591
21
2420.184065
0
LINE
8
Calque 1
10
211.412591
20
2420.184065
11
211.377280
21
2421.664660
0
LINE
8
Calque 1
10
211.377280
20
2421.664660
11
211.376510
21
2421.659400
0
LINE
8
Calque 1
10
219.270080
20
2609.994400
11
219.273080
21
2609.991400
0
LINE
8
Calque 1
10
219.273080
20
2609.991400
11
219.300627
21
2611.237620
0
LINE
8
Calque 1
10
219.300627
20
2611.237620
11
219.531019
21
2612.383586
0
LINE
8
Calque 1
10
219.531019
20
2612.383586
11
220.357240
21
2614.295000
0
LINE
8
Calque 1
10
220.357240
20
2614.295000
11
222.037230
21
2616.862800
0
LINE
8
Calque 1
10
222.037230
20
2616.862800
11
222.342530
21
2617.496745
0
LINE
8
Calque 1
10
222.342530
20
2617.496745
11
222.979810
21
2618.547960
0
LINE
8
Calque 1
10
222.979810
20
2618.547960
11
224.334786
21
2620.181004
0
LINE
8
Calque 1
10
224.334786
20
2620.181004
11
225.408100
21
2621.408260
0
LINE
8
Calque 1
10
225.408100
20
2621.408260
11
226.046300
21
2622.341520
0
LINE
8
Calque 1
10
226.046300
20
2622.341520
11
227.215230
21
2623.684100
0
LINE
8
Calque 1
10
227.215230
20
2623.684100
11
228.536039
21
2624.699366
0
LINE
8
Calque 1
10
228.536039
20
2624.699366
11
229.556150
21
2625.281410
0
LINE
8
Calque 1
10
229.556150
20
2625.281410
11
231.528106
21
2626.711737
0
LINE
8
Calque 1
10
231.528106
20
2626.711737
11
234.010670
21
2628.285360
0
LINE
8
Calque 1
10
234.010670
20
2628.285360
11
236.170760
21
2629.218120
0
LINE
8
Calque 1
10
236.170760
20
2629.218120
11
236.738623
21
2629.550602
0
LINE
8
Calque 1
10
236.738623
20
2629.550602
11
237.841970
21
2630.072850
0
LINE
8
Calque 1
10
237.841970
20
2630.072850
11
239.027874
21
2630.421791
0
LINE
8
Calque 1
10
239.027874
20
2630.421791
11
239.603090
21
2630.531220
0
LINE
8
Calque 1
10
239.603090
20
2630.531220
11
243.062436
21
2631.815871
0
LINE
8
Calque 1
10
243.062436
20
2631.815871
11
246.529290
21
2633.319680
0
LINE
8
Calque 1
10
246.529290
20
2633.319680
11
248.941043
21
2634.498265
0
LINE
8
Calque 1
10
248.941043
20
2634.498265
11
251.287650
21
2635.813590
0
LINE
8
Calque 1
10
251.287650
20
2635.813590
11
253.141800
21
2637.027470
0
LINE
8
Calque 1
10
253.141800
20
2637.027470
11
254.817513
21
2637.783231
0
LINE
8
Calque 1
10
254.817513
20
2637.783231
11
256.025360
21
2638.289400
0
LINE
8
Calque 1
10
256.025360
20
2638.289400
11
259.367280
21
2640.090330
0
LINE
8
Calque 1
10
259.367280
20
2640.090330
11
260.764590
21
2641.079930
0
LINE
8
Calque 1
10
260.764590
20
2641.079930
11
262.320675
21
2641.864689
0
LINE
8
Calque 1
10
262.320675
20
2641.864689
11
263.809923
21
2642.467817
0
LINE
8
Calque 1
10
263.809923
20
2642.467817
11
266.504300
21
2643.465300
0
LINE
8
Calque 1
10
266.504300
20
2643.465300
11
268.169820
21
2644.285430
0
LINE
8
Calque 1
10
268.169820
20
2644.285430
11
270.167630
21
2645.271930
0
LINE
8
Calque 1
10
270.167630
20
2645.271930
11
274.207180
21
2646.994280
0
LINE
8
Calque 1
10
274.207180
20
2646.994280
11
278.450850
21
2649.058770
0
LINE
8
Calque 1
10
278.450850
20
2649.058770
11
279.876701
21
2649.689561
0
LINE
8
Calque 1
10
279.876701
20
2649.689561
11
281.775210
21
2650.304160
0
LINE
8
Calque 1
10
281.775210
20
2650.304160
11
283.386606
21
2650.535968
0
LINE
8
Calque 1
10
283.386606
20
2650.535968
11
284.695411
21
2650.560463
0
LINE
8
Calque 1
10
284.695411
20
2650.560463
11
286.410070
21
2650.586320
0
LINE
8
Calque 1
10
286.410070
20
2650.586320
11
288.865210
21
2651.412110
0
LINE
8
Calque 1
10
288.865210
20
2651.412110
11
289.949741
21
2651.666485
0
LINE
8
Calque 1
10
289.949741
20
2651.666485
11
290.021230
21
2651.629997
0
LINE
8
Calque 1
10
290.021230
20
2651.629997
11
289.777310
21
2651.510310
0
LINE
8
Calque 1
10
289.777310
20
2651.510310
11
290.795881
21
2651.785243
0
LINE
8
Calque 1
10
290.795881
20
2651.785243
11
291.654710
21
2651.862760
0
LINE
8
Calque 1
10
291.654710
20
2651.862760
11
293.539860
21
2651.977490
0
LINE
8
Calque 1
10
293.539860
20
2651.977490
11
294.257120
21
2652.022490
0
LINE
8
Calque 1
10
294.257120
20
2652.022490
11
294.379600
21
2652.330990
0
LINE
8
Calque 1
10
294.379600
20
2652.330990
11
294.890670
21
2653.007960
0
LINE
8
Calque 1
10
294.890670
20
2653.007960
11
295.521640
21
2653.429120
0
LINE
8
Calque 1
10
295.521640
20
2653.429120
11
295.968660
21
2653.583110
0
LINE
8
Calque 1
10
295.968660
20
2653.583110
11
296.466810
21
2653.647210
0
LINE
8
Calque 1
10
296.466810
20
2653.647210
11
296.955150
21
2653.608410
0
LINE
8
Calque 1
10
296.955150
20
2653.608410
11
297.380970
21
2653.489560
0
LINE
8
Calque 1
10
297.380970
20
2653.489560
11
297.979380
21
2653.156230
0
LINE
8
Calque 1
10
297.979380
20
2653.156230
11
298.503390
21
2652.606400
0
LINE
8
Calque 1
10
298.503390
20
2652.606400
11
298.805296
21
2652.074347
0
LINE
8
Calque 1
10
298.805296
20
2652.074347
11
298.843930
21
2651.877770
0
LINE
8
Calque 1
10
298.843930
20
2651.877770
11
298.919930
21
2651.528440
0
LINE
8
Calque 1
10
298.919930
20
2651.528440
11
298.980930
21
2651.084520
0
LINE
8
Calque 1
10
298.980930
20
2651.084520
11
299.067730
21
2650.231350
0
LINE
8
Calque 1
10
299.067730
20
2650.231350
11
298.920970
21
2649.226250
0
LINE
8
Calque 1
10
298.920970
20
2649.226250
11
298.946370
21
2643.391980
0
LINE
8
Calque 1
10
298.946370
20
2643.391980
11
298.951370
21
2642.075260
0
LINE
8
Calque 1
10
298.951370
20
2642.075260
11
298.948370
21
2637.295200
0
LINE
8
Calque 1
10
298.948370
20
2637.295200
11
298.928770
21
2632.905790
0
LINE
8
Calque 1
10
298.928770
20
2632.905790
11
298.939670
21
2631.600970
0
LINE
8
Calque 1
10
298.939670
20
2631.600970
11
298.934670
21
2627.382620
0
LINE
8
Calque 1
10
298.934670
20
2627.382620
11
298.931670
21
2623.191650
0
LINE
8
Calque 1
10
298.931670
20
2623.191650
11
298.932000
21
2622.940000
0
LINE
8
Calque 1
10
298.932000
20
2622.940000
11
299.070990
21
2623.066100
0
LINE
8
Calque 1
10
299.070990
20
2623.066100
11
299.912565
21
2623.615969
0
LINE
8
Calque 1
10
299.912565
20
2623.615969
11
300.687960
21
2623.995760
0
LINE
8
Calque 1
10
300.687960
20
2623.995760
11
301.989180
21
2624.576070
0
LINE
8
Calque 1
10
301.989180
20
2624.576070
11
306.025610
21
2626.558910
0
LINE
8
Calque 1
10
306.025610
20
2626.558910
11
308.236820
21
2627.323156
0
LINE
8
Calque 1
10
308.236820
20
2627.323156
11
309.788690
21
2627.780540
0
LINE
8
Calque 1
10
309.788690
20
2627.780540
11
311.185500
21
2628.537590
0
LINE
8
Calque 1
10
311.185500
20
2628.537590
11
313.888674
21
2629.591897
0
LINE
8
Calque 1
10
313.888674
20
2629.591897
11
316.065310
21
2630.440840
0
LINE
8
Calque 1
10
316.065310
20
2630.440840
11
318.155566
21
2631.791765
0
LINE
8
Calque 1
10
318.155566
20
2631.791765
11
319.457215
21
2632.602238
0
LINE
8
Calque 1
10
319.457215
20
2632.602238
11
321.015930
21
2633.356950
0
LINE
8
Calque 1
10
321.015930
20
2633.356950
11
322.847479
21
2633.962716
0
LINE
8
Calque 1
10
322.847479
20
2633.962716
11
324.225030
21
2634.371360
0
LINE
8
Calque 1
10
324.225030
20
2634.371360
11
325.417609
21
2634.966201
0
LINE
8
Calque 1
10
325.417609
20
2634.966201
11
327.210900
21
2635.756260
0
LINE
8
Calque 1
10
327.210900
20
2635.756260
11
328.892893
21
2636.228140
0
LINE
8
Calque 1
10
328.892893
20
2636.228140
11
330.368376
21
2636.497053
0
LINE
8
Calque 1
10
330.368376
20
2636.497053
11
331.592686
21
2636.694389
0
LINE
8
Calque 1
10
331.592686
20
2636.694389
11
332.521160
21
2636.951540
0
LINE
8
Calque 1
10
332.521160
20
2636.951540
11
332.986984
21
2637.309645
0
LINE
8
Calque 1
10
332.986984
20
2637.309645
11
334.265740
21
2638.089460
0
LINE
8
Calque 1
10
334.265740
20
2638.089460
11
335.152520
21
2638.479110
0
LINE
8
Calque 1
10
335.152520
20
2638.479110
11
336.553460
21
2638.565910
0
LINE
8
Calque 1
10
336.553460
20
2638.565910
11
336.380182
21
2638.571098
0
LINE
8
Calque 1
10
336.380182
20
2638.571098
11
335.957110
21
2638.583410
0
LINE
8
Calque 1
10
335.957110
20
2638.583410
11
335.863954
21
2638.569835
0
LINE
8
Calque 1
10
335.863954
20
2638.569835
11
336.059960
21
2638.632010
0
LINE
8
Calque 1
10
336.059960
20
2638.632010
11
335.987934
21
2638.665230
0
LINE
8
Calque 1
10
335.987934
20
2638.665230
11
336.217634
21
2638.873661
0
LINE
8
Calque 1
10
336.217634
20
2638.873661
11
337.686750
21
2639.547710
0
LINE
8
Calque 1
10
337.686750
20
2639.547710
11
338.176620
21
2639.685190
0
LINE
8
Calque 1
10
338.176620
20
2639.685190
11
339.115070
21
2640.362650
0
LINE
8
Calque 1
10
339.115070
20
2640.362650
11
339.475780
21
2640.504760
0
LINE
8
Calque 1
10
339.475780
20
2640.504760
11
339.939830
21
2640.640170
0
LINE
8
Calque 1
10
339.939830
20
2640.640170
11
340.855020
21
2641.145550
0
LINE
8
Calque 1
10
340.855020
20
2641.145550
11
341.278250
21
2641.321760
0
LINE
8
Calque 1
10
341.278250
20
2641.321760
11
341.745400
21
2641.494880
0
LINE
8
Calque 1
10
341.745400
20
2641.494880
11
343.042490
21
2641.962050
0
LINE
8
Calque 1
10
343.042490
20
2641.962050
11
344.349900
21
2642.418860
0
LINE
8
Calque 1
10
344.349900
20
2642.418860
11
344.841340
21
2642.582160
0
LINE
8
Calque 1
10
344.841340
20
2642.582160
11
345.051650
21
2642.646260
0
LINE
8
Calque 1
10
345.051650
20
2642.646260
11
345.512110
21
2642.741360
0
LINE
8
Calque 1
10
345.512110
20
2642.741360
11
348.013760
21
2642.907230
0
LINE
8
Calque 1
10
348.013760
20
2642.907230
11
348.082460
21
2642.914230
0
LINE
8
Calque 1
10
348.082460
20
2642.914230
11
348.666420
21
2643.426860
0
LINE
8
Calque 1
10
348.666420
20
2643.426860
11
349.649504
21
2643.740771
0
LINE
8
Calque 1
10
349.649504
20
2643.740771
11
350.282520
21
2643.751466
0
LINE
8
Calque 1
10
350.282520
20
2643.751466
11
350.909690
21
2643.593260
0
LINE
8
Calque 1
10
350.909690
20
2643.593260
11
351.764287
21
2642.987143
0
LINE
8
Calque 1
10
351.764287
20
2642.987143
11
352.125100
21
2642.424330
0
LINE
8
Calque 1
10
352.125100
20
2642.424330
11
352.327160
21
2641.829020
0
LINE
8
Calque 1
10
352.327160
20
2641.829020
11
352.389660
21
2641.285910
0
LINE
8
Calque 1
10
352.389660
20
2641.285910
11
352.462060
21
2636.929050
0
LINE
8
Calque 1
10
352.462060
20
2636.929050
11
352.550460
21
2633.695660
0
LINE
8
Calque 1
10
352.550460
20
2633.695660
11
352.579860
21
2631.543350
0
LINE
8
Calque 1
10
352.579860
20
2631.543350
11
352.663060
21
2627.325000
0
LINE
8
Calque 1
10
352.663060
20
2627.325000
11
352.679960
21
2622.983640
0
LINE
8
Calque 1
10
352.679960
20
2622.983640
11
352.721260
21
2618.058880
0
LINE
8
Calque 1
10
352.721260
20
2618.058880
11
352.602940
21
2610.449530
0
LINE
8
Calque 1
10
352.602940
20
2610.449530
11
352.614840
21
2603.425670
0
LINE
8
Calque 1
10
352.614840
20
2603.425670
11
352.620840
21
2601.606660
0
LINE
8
Calque 1
10
352.620840
20
2601.606660
11
352.655440
21
2600.408290
0
LINE
8
Calque 1
10
352.655440
20
2600.408290
11
352.738640
21
2594.390580
0
LINE
8
Calque 1
10
352.738640
20
2594.390580
11
352.779940
21
2593.125000
0
LINE
8
Calque 1
10
352.779940
20
2593.125000
11
352.867840
21
2587.970290
0
LINE
8
Calque 1
10
352.867840
20
2587.970290
11
352.895740
21
2587.216340
0
LINE
8
Calque 1
10
352.895740
20
2587.216340
11
352.908140
21
2587.150240
0
LINE
8
Calque 1
10
352.908140
20
2587.150240
11
352.924540
21
2587.014850
0
LINE
8
Calque 1
10
352.924540
20
2587.014850
11
352.933540
21
2586.890310
0
LINE
8
Calque 1
10
352.933540
20
2586.890310
11
352.949140
21
2586.628820
0
LINE
8
Calque 1
10
352.949140
20
2586.628820
11
352.996740
21
2585.576680
0
LINE
8
Calque 1
10
352.996740
20
2585.576680
11
353.080440
21
2582.409940
0
LINE
8
Calque 1
10
353.080440
20
2582.409940
11
353.146540
21
2580.822440
0
LINE
8
Calque 1
10
353.146540
20
2580.822440
11
353.199740
21
2577.515150
0
LINE
8
Calque 1
10
353.199740
20
2577.515150
11
353.288640
21
2574.346350
0
LINE
8
Calque 1
10
353.288640
20
2574.346350
11
353.318640
21
2567.304920
0
LINE
8
Calque 1
10
353.318640
20
2567.304920
11
353.282940
21
2565.130900
0
LINE
8
Calque 1
10
353.282940
20
2565.130900
11
353.306740
21
2560.524450
0
LINE
8
Calque 1
10
353.306740
20
2560.524450
11
353.223040
21
2553.779650
0
LINE
8
Calque 1
10
353.223040
20
2553.779650
11
353.200840
21
2548.093180
0
LINE
8
Calque 1
10
353.200840
20
2548.093180
11
353.235440
21
2543.983360
0
LINE
8
Calque 1
10
353.235440
20
2543.983360
11
353.116560
21
2531.273060
0
LINE
8
Calque 1
10
353.116560
20
2531.273060
11
353.127960
21
2529.463870
0
LINE
8
Calque 1
10
353.127960
20
2529.463870
11
353.098560
21
2527.423670
0
LINE
8
Calque 1
10
353.098560
20
2527.423670
11
353.041660
21
2526.769460
0
LINE
8
Calque 1
10
353.041660
20
2526.769460
11
353.033660
21
2526.641300
0
LINE
8
Calque 1
10
353.033660
20
2526.641300
11
353.036660
21
2526.618500
0
LINE
8
Calque 1
10
353.036660
20
2526.618500
11
353.036660
21
2526.497080
0
LINE
8
Calque 1
10
353.036660
20
2526.497080
11
353.032660
21
2526.358070
0
LINE
8
Calque 1
10
353.032660
20
2526.358070
11
353.015760
21
2525.965320
0
LINE
8
Calque 1
10
353.015760
20
2525.965320
11
352.957360
21
2525.455280
0
LINE
8
Calque 1
10
352.957360
20
2525.455280
11
352.876426
21
2525.029787
0
LINE
8
Calque 1
10
352.876426
20
2525.029787
11
352.391490
21
2524.262070
0
LINE
8
Calque 1
10
352.391490
20
2524.262070
11
351.732851
21
2523.738437
0
LINE
8
Calque 1
10
351.732851
20
2523.738437
11
350.745600
21
2523.424400
0
LINE
8
Calque 1
10
350.745600
20
2523.424400
11
349.788712
21
2523.541369
0
LINE
8
Calque 1
10
349.788712
20
2523.541369
11
349.152420
21
2523.861070
0
LINE
8
Calque 1
10
349.152420
20
2523.861070
11
348.591444
21
2524.369704
0
LINE
8
Calque 1
10
348.591444
20
2524.369704
11
348.413440
21
2524.679610
0
LINE
8
Calque 1
10
348.413440
20
2524.679610
11
348.278580
21
2524.974670
0
LINE
8
Calque 1
10
348.278580
20
2524.974670
11
347.744760
21
2525.898140
0
LINE
8
Calque 1
10
347.744760
20
2525.898140
11
347.292050
21
2526.057820
0
LINE
8
Calque 1
10
347.292050
20
2526.057820
11
345.244130
21
2526.702210
0
LINE
8
Calque 1
10
345.244130
20
2526.702210
11
342.582810
21
2526.139933
0
LINE
8
Calque 1
10
342.582810
20
2526.139933
11
339.642910
21
2525.687830
0
LINE
8
Calque 1
10
339.642910
20
2525.687830
11
337.839830
21
2525.618882
0
LINE
8
Calque 1
10
337.839830
20
2525.618882
11
336.077400
21
2525.731420
0
LINE
8
Calque 1
10
336.077400
20
2525.731420
11
332.700472
21
2526.342559
0
LINE
8
Calque 1
10
332.700472
20
2526.342559
11
326.720210
21
2528.000330
0
LINE
8
Calque 1
10
326.720210
20
2528.000330
11
323.658900
21
2528.705710
0
LINE
8
Calque 1
10
323.658900
20
2528.705710
11
320.590168
21
2529.725814
0
LINE
8
Calque 1
10
320.590168
20
2529.725814
11
317.673745
21
2530.898128
0
LINE
8
Calque 1
10
317.673745
20
2530.898128
11
312.136100
21
2533.228440
0
LINE
8
Calque 1
10
312.136100
20
2533.228440
11
309.137320
21
2534.349820
0
LINE
8
Calque 1
10
309.137320
20
2534.349820
11
309.124920
21
2534.349820
0
LINE
8
Calque 1
10
309.124920
20
2534.349820
11
308.675860
21
2534.424220
0
LINE
8
Calque 1
10
308.675860
20
2534.424220
11
307.826820
21
2534.707940
0
LINE
8
Calque 1
10
307.826820
20
2534.707940
11
302.967170
21
2536.589990
0
LINE
8
Calque 1
10
302.967170
20
2536.589990
11
297.098481
21
2538.916634
0
LINE
8
Calque 1
10
297.098481
20
2538.916634
11
294.229077
21
2539.942235
0
LINE
8
Calque 1
10
294.229077
20
2539.942235
11
291.320370
21
2540.795940
0
LINE
8
Calque 1
10
291.320370
20
2540.795940
11
286.246695
21
2541.811859
0
LINE
8
Calque 1
10
286.246695
20
2541.811859
11
283.551578
21
2542.352756
0
LINE
8
Calque 1
10
283.551578
20
2542.352756
11
280.776270
21
2543.083130
0
LINE
8
Calque 1
10
280.776270
20
2543.083130
11
277.463749
21
2544.309187
0
LINE
8
Calque 1
10
277.463749
20
2544.309187
11
274.385000
21
2545.738443
0
LINE
8
Calque 1
10
274.385000
20
2545.738443
11
271.463436
21
2547.196420
0
LINE
8
Calque 1
10
271.463436
20
2547.196420
11
268.622470
21
2548.508640
0
LINE
8
Calque 1
10
268.622470
20
2548.508640
11
265.720684
21
2549.408454
0
LINE
8
Calque 1
10
265.720684
20
2549.408454
11
264.002012
21
2549.956559
0
LINE
8
Calque 1
10
264.002012
20
2549.956559
11
262.191860
21
2550.730210
0
LINE
8
Calque 1
10
262.191860
20
2550.730210
11
260.341348
21
2551.825646
0
LINE
8
Calque 1
10
260.341348
20
2551.825646
11
258.693535
21
2553.046788
0
LINE
8
Calque 1
10
258.693535
20
2553.046788
11
255.859410
21
2555.379040
0
LINE
8
Calque 1
10
255.859410
20
2555.379040
11
254.520017
21
2556.433424
0
LINE
8
Calque 1
10
254.520017
20
2556.433424
11
253.142141
21
2557.682176
0
LINE
8
Calque 1
10
253.142141
20
2557.682176
11
251.871945
21
2559.210021
0
LINE
8
Calque 1
10
251.871945
20
2559.210021
11
250.855590
21
2561.101680
0
LINE
8
Calque 1
10
250.855590
20
2561.101680
11
250.511312
21
2562.466961
0
LINE
8
Calque 1
10
250.511312
20
2562.466961
11
250.510516
21
2563.634613
0
LINE
8
Calque 1
10
250.510516
20
2563.634613
11
250.793590
21
2565.152600
0
LINE
8
Calque 1
10
250.793590
20
2565.152600
11
250.922780
21
2568.300720
0
LINE
8
Calque 1
10
250.922780
20
2568.300720
11
251.159562
21
2570.319936
0
LINE
8
Calque 1
10
251.159562
20
2570.319936
11
251.470550
21
2572.030730
0
LINE
8
Calque 1
10
251.470550
20
2572.030730
11
251.676307
21
2574.386829
0
LINE
8
Calque 1
10
251.676307
20
2574.386829
11
251.996620
21
2577.262430
0
LINE
8
Calque 1
10
251.996620
20
2577.262430
11
252.372752
21
2578.924177
0
LINE
8
Calque 1
10
252.372752
20
2578.924177
11
252.901159
21
2580.589996
0
LINE
8
Calque 1
10
252.901159
20
2580.589996
11
253.591084
21
2582.219457
0
LINE
8
Calque 1
10
253.591084
20
2582.219457
11
254.451770
21
2583.772130
0
LINE
8
Calque 1
10
254.451770
20
2583.772130
11
255.109600
21
2584.640810
0
LINE
8
Calque 1
10
255.109600
20
2584.640810
11
253.524071
21
2584.505113
0
LINE
8
Calque 1
10
253.524071
20
2584.505113
11
251.956981
21
2584.523231
0
LINE
8
Calque 1
10
251.956981
20
2584.523231
11
248.899650
21
2584.975660
0
LINE
8
Calque 1
10
248.899650
20
2584.975660
11
243.802852
21
2586.465415
0
LINE
8
Calque 1
10
243.802852
20
2586.465415
11
239.093010
21
2587.857160
0
LINE
8
Calque 1
10
239.093010
20
2587.857160
11
232.716691
21
2589.006921
0
LINE
8
Calque 1
10
232.716691
20
2589.006921
11
230.910688
21
2589.471624
0
LINE
8
Calque 1
10
230.910688
20
2589.471624
11
229.124921
21
2590.094680
0
LINE
8
Calque 1
10
229.124921
20
2590.094680
11
227.411894
21
2590.919810
0
LINE
8
Calque 1
10
227.411894
20
2590.919810
11
225.824110
21
2591.990740
0
LINE
8
Calque 1
10
225.824110
20
2591.990740
11
224.680500
21
2593.010310
0
LINE
8
Calque 1
10
224.680500
20
2593.010310
11
223.908450
21
2594.242290
0
LINE
8
Calque 1
10
223.908450
20
2594.242290
11
223.899450
21
2594.267190
0
LINE
8
Calque 1
10
223.899450
20
2594.267190
11
223.809550
21
2594.337490
0
LINE
8
Calque 1
10
223.809550
20
2594.337490
11
223.184505
21
2594.975821
0
LINE
8
Calque 1
10
223.184505
20
2594.975821
11
222.631310
21
2596.088790
0
LINE
8
Calque 1
10
222.631310
20
2596.088790
11
222.444627
21
2597.150638
0
LINE
8
Calque 1
10
222.444627
20
2597.150638
11
222.463880
21
2597.372440
0
LINE
8
Calque 1
10
222.463880
20
2597.372440
11
221.552242
21
2598.671708
0
LINE
8
Calque 1
10
221.552242
20
2598.671708
11
220.866706
21
2599.817096
0
LINE
8
Calque 1
10
220.866706
20
2599.817096
11
220.255750
21
2601.372200
0
LINE
8
Calque 1
10
220.255750
20
2601.372200
11
219.985389
21
2602.911619
0
LINE
8
Calque 1
10
219.985389
20
2602.911619
11
219.962220
21
2603.660440
0
LINE
8
Calque 1
10
219.962220
20
2603.660440
11
219.526266
21
2606.874108
0
LINE
8
Calque 1
10
219.526266
20
2606.874108
11
219.270290
21
2609.991310
0
LINE
8
Calque 1
10
219.270290
20
2609.991310
11
219.270080
21
2609.994400
0
LINE
8
Calque 1
10
243.730080
20
2732.126400
11
243.733000
21
2732.130000
0
LINE
8
Calque 1
10
243.733000
20
2732.130000
11
243.901990
21
2733.612590
0
LINE
8
Calque 1
10
243.901990
20
2733.612590
11
243.917991
21
2735.825556
0
LINE
8
Calque 1
10
243.917991
20
2735.825556
11
244.059100
21
2737.939980
0
LINE
8
Calque 1
10
244.059100
20
2737.939980
11
243.970200
21
2741.794000
0
LINE
8
Calque 1
10
243.970200
20
2741.794000
11
243.965200
21
2741.974870
0
LINE
8
Calque 1
10
243.965200
20
2741.974870
11
244.107330
21
2743.244050
0
LINE
8
Calque 1
10
244.107330
20
2743.244050
11
244.124416
21
2743.626076
0
LINE
8
Calque 1
10
244.124416
20
2743.626076
11
244.592050
21
2744.525610
0
LINE
8
Calque 1
10
244.592050
20
2744.525610
11
244.959166
21
2744.972940
0
LINE
8
Calque 1
10
244.959166
20
2744.972940
11
245.767170
21
2745.451650
0
LINE
8
Calque 1
10
245.767170
20
2745.451650
11
246.384449
21
2745.565115
0
LINE
8
Calque 1
10
246.384449
20
2745.565115
11
247.046694
21
2745.513550
0
LINE
8
Calque 1
10
247.046694
20
2745.513550
11
248.120500
21
2745.085280
0
LINE
8
Calque 1
10
248.120500
20
2745.085280
11
248.650007
21
2744.596661
0
LINE
8
Calque 1
10
248.650007
20
2744.596661
11
248.892514
21
2744.230434
0
LINE
8
Calque 1
10
248.892514
20
2744.230434
11
249.007280
21
2743.746860
0
LINE
8
Calque 1
10
249.007280
20
2743.746860
11
249.108560
21
2743.079710
0
LINE
8
Calque 1
10
249.108560
20
2743.079710
11
249.347320
21
2719.568510
0
LINE
8
Calque 1
10
249.347320
20
2719.568510
11
249.347320
21
2719.524610
0
LINE
8
Calque 1
10
249.347320
20
2719.524610
11
249.347320
21
2719.521610
0
LINE
8
Calque 1
10
249.347320
20
2719.521610
11
249.351320
21
2719.193440
0
LINE
8
Calque 1
10
249.351320
20
2719.193440
11
249.351320
21
2719.190440
0
LINE
8
Calque 1
10
249.351320
20
2719.190440
11
249.351320
21
2719.184440
0
LINE
8
Calque 1
10
249.351320
20
2719.184440
11
249.383920
21
2715.961370
0
LINE
8
Calque 1
10
249.383920
20
2715.961370
11
249.523750
21
2714.044265
0
LINE
8
Calque 1
10
249.523750
20
2714.044265
11
249.417520
21
2712.677870
0
LINE
8
Calque 1
10
249.417520
20
2712.677870
11
249.423520
21
2712.065990
0
LINE
8
Calque 1
10
249.423520
20
2712.065990
11
249.467420
21
2711.826230
0
LINE
8
Calque 1
10
249.467420
20
2711.826230
11
249.583182
21
2711.222543
0
LINE
8
Calque 1
10
249.583182
20
2711.222543
11
249.541820
21
2710.609250
0
LINE
8
Calque 1
10
249.541820
20
2710.609250
11
249.473299
21
2709.283681
0
LINE
8
Calque 1
10
249.473299
20
2709.283681
11
249.530920
21
2707.434260
0
LINE
8
Calque 1
10
249.530920
20
2707.434260
11
249.473520
21
2707.108690
0
LINE
8
Calque 1
10
249.473520
20
2707.108690
11
249.517420
21
2702.786990
0
LINE
8
Calque 1
10
249.517420
20
2702.786990
11
249.517420
21
2702.782990
0
LINE
8
Calque 1
10
249.517420
20
2702.782990
11
249.517000
21
2702.750000
0
LINE
8
Calque 1
10
249.517000
20
2702.750000
11
249.331290
21
2701.825963
0
LINE
8
Calque 1
10
249.331290
20
2701.825963
11
248.826238
21
2701.068334
0
LINE
8
Calque 1
10
248.826238
20
2701.068334
11
248.076007
21
2700.552356
0
LINE
8
Calque 1
10
248.076007
20
2700.552356
11
247.154758
21
2700.353276
0
LINE
8
Calque 1
10
247.154758
20
2700.353276
11
246.227667
21
2700.523086
0
LINE
8
Calque 1
10
246.227667
20
2700.523086
11
245.461474
21
2701.015049
0
LINE
8
Calque 1
10
245.461474
20
2701.015049
11
244.932686
21
2701.756306
0
LINE
8
Calque 1
10
244.932686
20
2701.756306
11
244.717810
21
2702.674000
0
LINE
8
Calque 1
10
244.717810
20
2702.674000
11
244.506261
21
2704.591742
0
LINE
8
Calque 1
10
244.506261
20
2704.591742
11
244.471971
21
2705.889658
0
LINE
8
Calque 1
10
244.471971
20
2705.889658
11
244.669810
21
2707.373980
0
LINE
8
Calque 1
10
244.669810
20
2707.373980
11
244.652910
21
2709.088610
0
LINE
8
Calque 1
10
244.652910
20
2709.088610
11
244.649910
21
2709.318550
0
LINE
8
Calque 1
10
244.649910
20
2709.318550
11
244.624010
21
2711.863630
0
LINE
8
Calque 1
10
244.624010
20
2711.863630
11
244.615010
21
2712.721460
0
LINE
8
Calque 1
10
244.615010
20
2712.721460
11
244.586110
21
2715.546600
0
LINE
8
Calque 1
10
244.586110
20
2715.546600
11
244.508110
21
2715.957420
0
LINE
8
Calque 1
10
244.508110
20
2715.957420
11
244.550010
21
2719.132940
0
LINE
8
Calque 1
10
244.550010
20
2719.132940
11
244.550000
21
2719.140000
0
LINE
8
Calque 1
10
244.550000
20
2719.140000
11
244.550000
21
2719.145000
0
LINE
8
Calque 1
10
244.550000
20
2719.145000
11
244.547000
21
2719.433340
0
LINE
8
Calque 1
10
244.547000
20
2719.433340
11
244.494300
21
2720.201240
0
LINE
8
Calque 1
10
244.494300
20
2720.201240
11
244.478200
21
2720.404340
0
LINE
8
Calque 1
10
244.478200
20
2720.404340
11
244.312856
21
2722.075100
0
LINE
8
Calque 1
10
244.312856
20
2722.075100
11
244.169690
21
2724.211340
0
LINE
8
Calque 1
10
244.169690
20
2724.211340
11
243.936555
21
2725.954170
0
LINE
8
Calque 1
10
243.936555
20
2725.954170
11
244.031710
21
2727.327940
0
LINE
8
Calque 1
10
244.031710
20
2727.327940
11
244.088510
21
2728.799180
0
LINE
8
Calque 1
10
244.088510
20
2728.799180
11
244.048210
21
2728.952670
0
LINE
8
Calque 1
10
244.048210
20
2728.952670
11
243.796933
21
2730.505917
0
LINE
8
Calque 1
10
243.796933
20
2730.505917
11
243.730920
21
2732.125600
0
LINE
8
Calque 1
10
243.730920
20
2732.125600
11
243.730080
21
2732.126400
0
LINE
8
Calque 1
10
278.077280
20
2418.623400
11
278.119080
21
2420.395390
0
LINE
8
Calque 1
10
278.119080
20
2420.395390
11
278.115080
21
2420.325090
0
LINE
8
Calque 1
10
278.115080
20
2420.325090
11
278.307830
21
2426.695240
0
LINE
8
Calque 1
10
278.307830
20
2426.695240
11
278.308000
21
2426.600000
0
LINE
8
Calque 1
10
278.308000
20
2426.600000
11
278.504370
21
2433.675540
0
LINE
8
Calque 1
10
278.504370
20
2433.675540
11
278.543670
21
2441.715360
0
LINE
8
Calque 1
10
278.543670
20
2441.715360
11
278.451670
21
2442.748370
0
LINE
8
Calque 1
10
278.451670
20
2442.748370
11
278.404070
21
2443.564340
0
LINE
8
Calque 1
10
278.404070
20
2443.564340
11
278.527580
21
2444.301760
0
LINE
8
Calque 1
10
278.527580
20
2444.301760
11
278.690380
21
2444.829380
0
LINE
8
Calque 1
10
278.690380
20
2444.829380
11
278.768880
21
2445.015930
0
LINE
8
Calque 1
10
278.768880
20
2445.015930
11
278.789354
21
2445.160624
0
LINE
8
Calque 1
10
278.789354
20
2445.160624
11
279.255680
21
2445.717180
0
LINE
8
Calque 1
10
279.255680
20
2445.717180
11
279.604480
21
2446.007090
0
LINE
8
Calque 1
10
279.604480
20
2446.007090
11
279.913510
21
2446.185370
0
LINE
8
Calque 1
10
279.913510
20
2446.185370
11
280.376030
21
2446.352800
0
LINE
8
Calque 1
10
280.376030
20
2446.352800
11
281.779040
21
2446.278900
0
LINE
8
Calque 1
10
281.779040
20
2446.278900
11
282.865780
21
2445.479470
0
LINE
8
Calque 1
10
282.865780
20
2445.479470
11
283.106080
21
2445.093440
0
LINE
8
Calque 1
10
283.106080
20
2445.093440
11
283.232680
21
2444.789070
0
LINE
8
Calque 1
10
283.232680
20
2444.789070
11
283.331380
21
2444.378760
0
LINE
8
Calque 1
10
283.331380
20
2444.378760
11
283.358280
21
2443.965350
0
LINE
8
Calque 1
10
283.358280
20
2443.965350
11
283.354280
21
2443.936950
0
LINE
8
Calque 1
10
283.354280
20
2443.936950
11
283.344280
21
2441.839920
0
LINE
8
Calque 1
10
283.344280
20
2441.839920
11
283.452588
21
2439.381272
0
LINE
8
Calque 1
10
283.452588
20
2439.381272
11
283.368580
21
2436.842810
0
LINE
8
Calque 1
10
283.368580
20
2436.842810
11
283.303980
21
2433.643520
0
LINE
8
Calque 1
10
283.303980
20
2433.643520
11
283.304000
21
2433.610000
0
LINE
8
Calque 1
10
283.304000
20
2433.610000
11
283.186710
21
2409.378900
0
LINE
8
Calque 1
10
283.186710
20
2409.378900
11
283.190710
21
2409.353600
0
LINE
8
Calque 1
10
283.190710
20
2409.353600
11
283.234110
21
2408.935540
0
LINE
8
Calque 1
10
283.234110
20
2408.935540
11
283.439409
21
2405.765900
0
LINE
8
Calque 1
10
283.439409
20
2405.765900
11
283.526471
21
2404.005948
0
LINE
8
Calque 1
10
283.526471
20
2404.005948
11
283.483720
21
2402.118390
0
LINE
8
Calque 1
10
283.483720
20
2402.118390
11
283.235670
21
2397.607030
0
LINE
8
Calque 1
10
283.235670
20
2397.607030
11
283.257204
21
2395.054849
0
LINE
8
Calque 1
10
283.257204
20
2395.054849
11
283.106980
21
2392.867280
0
LINE
8
Calque 1
10
283.106980
20
2392.867280
11
283.099980
21
2391.262720
0
LINE
8
Calque 1
10
283.099980
20
2391.262720
11
282.911963
21
2390.348585
0
LINE
8
Calque 1
10
282.911963
20
2390.348585
11
282.411024
21
2389.598292
0
LINE
8
Calque 1
10
282.411024
20
2389.598292
11
281.669126
21
2389.085004
0
LINE
8
Calque 1
10
281.669126
20
2389.085004
11
280.758228
21
2388.881881
0
LINE
8
Calque 1
10
280.758228
20
2388.881881
11
279.838524
21
2389.040431
0
LINE
8
Calque 1
10
279.838524
20
2389.040431
11
279.072524
21
2389.517005
0
LINE
8
Calque 1
10
279.072524
20
2389.517005
11
278.535664
21
2390.242028
0
LINE
8
Calque 1
10
278.535664
20
2390.242028
11
278.303380
21
2391.145930
0
LINE
8
Calque 1
10
278.303380
20
2391.145930
11
278.303380
21
2391.286490
0
LINE
8
Calque 1
10
278.303380
20
2391.286490
11
278.298000
21
2391.290000
0
LINE
8
Calque 1
10
278.298000
20
2391.290000
11
278.306000
21
2392.960190
0
LINE
8
Calque 1
10
278.306000
20
2392.960190
11
278.384600
21
2409.222190
0
LINE
8
Calque 1
10
278.384600
20
2409.222190
11
278.385000
21
2409.230000
0
LINE
8
Calque 1
10
278.385000
20
2409.230000
11
278.242586
21
2411.565425
0
LINE
8
Calque 1
10
278.242586
20
2411.565425
11
278.192250
21
2413.524830
0
LINE
8
Calque 1
10
278.192250
20
2413.524830
11
278.187250
21
2413.735670
0
LINE
8
Calque 1
10
278.187250
20
2413.735670
11
278.077160
21
2418.621160
0
LINE
8
Calque 1
10
278.077160
20
2418.621160
11
278.077280
21
2418.623400
0
LINE
8
Calque 1
10
393.876000
20
2972.090000
11
393.916300
21
2972.078630
0
LINE
8
Calque 1
10
393.916300
20
2972.078630
11
393.876000
21
2972.090000
0
LINE
8
Calque 1
10
393.876000
20
2972.090000
11
393.876000
21
2972.090000
0
LINE
8
Calque 1
10
393.916300
20
2972.078630
11
393.508580
21
2972.036770
0
LINE
8
Calque 1
10
393.508580
20
2972.036770
11
393.104568
21
2971.996928
0
LINE
8
Calque 1
10
393.104568
20
2971.996928
11
393.080700
21
2972.005760
0
LINE
8
Calque 1
10
393.080700
20
2972.005760
11
392.052340
21
2971.680198
0
LINE
8
Calque 1
10
392.052340
20
2971.680198
11
392.052000
21
2971.680000
0
LINE
8
Calque 1
10
392.052000
20
2971.680000
11
391.960000
21
2971.647960
0
LINE
8
Calque 1
10
391.960000
20
2971.647960
11
391.940400
21
2971.632970
0
LINE
8
Calque 1
10
391.940400
20
2971.632970
11
391.853100
21
2971.570440
0
LINE
8
Calque 1
10
391.853100
20
2971.570440
11
391.532190
21
2971.379754
0
LINE
8
Calque 1
10
391.532190
20
2971.379754
11
391.532000
21
2971.380000
0
LINE
8
Calque 1
10
391.532000
20
2971.380000
11
391.531000
21
2971.380000
0
LINE
8
Calque 1
10
391.531000
20
2971.380000
11
391.231280
21
2971.239957
0
LINE
8
Calque 1
10
391.231280
20
2971.239957
11
391.230280
21
2971.237357
0
LINE
8
Calque 1
10
391.230280
20
2971.237357
11
391.102640
21
2971.148987
0
LINE
8
Calque 1
10
391.102640
20
2971.148987
11
390.863900
21
2970.988790
0
LINE
8
Calque 1
10
390.863900
20
2970.988790
11
390.304760
21
2970.383143
0
LINE
8
Calque 1
10
390.304760
20
2970.383143
11
390.195200
21
2970.093755
0
LINE
8
Calque 1
10
390.195200
20
2970.093755
11
390.070150
21
2969.769227
0
LINE
8
Calque 1
10
390.070150
20
2969.769227
11
390.070000
21
2969.770000
0
LINE
8
Calque 1
10
390.070000
20
2969.770000
11
390.044200
21
2969.613420
0
LINE
8
Calque 1
10
390.044200
20
2969.613420
11
390.027700
21
2969.519890
0
LINE
8
Calque 1
10
390.027700
20
2969.519890
11
390.068737
21
2969.236691
0
LINE
8
Calque 1
10
390.068737
20
2969.236691
11
389.967200
21
2968.427450
0
LINE
8
Calque 1
10
389.967200
20
2968.427450
11
389.971750
21
2968.361498
0
LINE
8
Calque 1
10
389.971750
20
2968.361498
11
389.890200
21
2967.867794
0
LINE
8
Calque 1
10
389.890200
20
2967.867794
11
389.804900
21
2967.486939
0
LINE
8
Calque 1
10
389.804900
20
2967.486939
11
389.795900
21
2967.340178
0
LINE
8
Calque 1
10
389.795900
20
2967.340178
11
389.742200
21
2966.950021
0
LINE
8
Calque 1
10
389.742200
20
2966.950021
11
389.743000
21
2966.950000
0
LINE
8
Calque 1
10
389.743000
20
2966.950000
11
389.743520
21
2966.946900
0
LINE
8
Calque 1
10
389.743520
20
2966.946900
11
389.815320
21
2966.837862
0
LINE
8
Calque 1
10
389.815320
20
2966.837862
11
390.064400
21
2966.504033
0
LINE
8
Calque 1
10
390.064400
20
2966.504033
11
390.332080
21
2966.340735
0
LINE
8
Calque 1
10
390.332080
20
2966.340735
11
390.332000
21
2966.340000
0
LINE
8
Calque 1
10
390.332000
20
2966.340000
11
390.333000
21
2966.340000
0
LINE
8
Calque 1
10
390.333000
20
2966.340000
11
390.333000
21
2966.340000
0
LINE
8
Calque 1
10
390.333000
20
2966.340000
11
390.879740
21
2965.947259
0
LINE
8
Calque 1
10
390.879740
20
2965.947259
11
391.054920
21
2965.836155
0
LINE
8
Calque 1
10
391.054920
20
2965.836155
11
391.555660
21
2965.479071
0
LINE
8
Calque 1
10
391.555660
20
2965.479071
11
391.953570
21
2965.404661
0
LINE
8
Calque 1
10
391.953570
20
2965.404661
11
391.954000
21
2965.410000
0
LINE
8
Calque 1
10
391.954000
20
2965.410000
11
391.955000
21
2965.410000
0
LINE
8
Calque 1
10
391.955000
20
2965.410000
11
391.955000
21
2965.410000
0
LINE
8
Calque 1
10
391.955000
20
2965.410000
11
392.729630
21
2965.182623
0
LINE
8
Calque 1
10
392.729630
20
2965.182623
11
392.876910
21
2965.146963
0
LINE
8
Calque 1
10
392.876910
20
2965.146963
11
393.175600
21
2965.102523
0
LINE
8
Calque 1
10
393.175600
20
2965.102523
11
393.475320
21
2965.079783
0
LINE
8
Calque 1
10
393.475320
20
2965.079783
11
393.477000
21
2965.080000
0
LINE
8
Calque 1
10
393.477000
20
2965.080000
11
394.052670
21
2965.057780
0
LINE
8
Calque 1
10
394.052670
20
2965.057780
11
394.666255
21
2965.032193
0
LINE
8
Calque 1
10
394.666255
20
2965.032193
11
394.748240
21
2965.001970
0
LINE
8
Calque 1
10
394.748240
20
2965.001970
11
394.900680
21
2965.029870
0
LINE
8
Calque 1
10
394.900680
20
2965.029870
11
395.493930
21
2965.467053
0
LINE
8
Calque 1
10
395.493930
20
2965.467053
11
396.034460
21
2965.872713
0
LINE
8
Calque 1
10
396.034460
20
2965.872713
11
396.379660
21
2966.292325
0
LINE
8
Calque 1
10
396.379660
20
2966.292325
11
396.706770
21
2966.671114
0
LINE
8
Calque 1
10
396.706770
20
2966.671114
11
396.825630
21
2966.918644
0
LINE
8
Calque 1
10
396.825630
20
2966.918644
11
396.831630
21
2966.958434
0
LINE
8
Calque 1
10
396.831630
20
2966.958434
11
396.892130
21
2967.248338
0
LINE
8
Calque 1
10
396.892130
20
2967.248338
11
396.960830
21
2968.040538
0
LINE
8
Calque 1
10
396.960830
20
2968.040538
11
397.051830
21
2968.517512
0
LINE
8
Calque 1
10
397.051830
20
2968.517512
11
397.088030
21
2969.204808
0
LINE
8
Calque 1
10
397.088030
20
2969.204808
11
397.088000
21
2969.200000
0
LINE
8
Calque 1
10
397.088000
20
2969.200000
11
397.115400
21
2969.979797
0
LINE
8
Calque 1
10
397.115400
20
2969.979797
11
397.014110
21
2970.516715
0
LINE
8
Calque 1
10
397.014110
20
2970.516715
11
396.751080
21
2971.165771
0
LINE
8
Calque 1
10
396.751080
20
2971.165771
11
396.665780
21
2971.553861
0
LINE
8
Calque 1
10
396.665780
20
2971.553861
11
396.322130
21
2971.717675
0
LINE
8
Calque 1
10
396.322130
20
2971.717675
11
395.751620
21
2971.797775
0
LINE
8
Calque 1
10
395.751620
20
2971.797775
11
394.823520
21
2971.992078
0
LINE
8
Calque 1
10
394.823520
20
2971.992078
11
394.680890
21
2971.995178
0
LINE
8
Calque 1
10
394.680890
20
2971.995178
11
394.677890
21
2971.995178
0
LINE
8
Calque 1
10
394.677890
20
2971.995178
11
393.916690
21
2972.077338
0
LINE
8
Calque 1
10
393.916690
20
2972.077338
11
393.916300
21
2972.078630
0
LINE
8
Calque 1
10
396.891830
20
2967.241720
11
396.904230
21
2967.272730
0
LINE
8
Calque 1
10
396.904230
20
2967.272730
11
396.906230
21
2967.294950
0
LINE
8
Calque 1
10
396.906230
20
2967.294950
11
396.892230
21
2967.241720
0
LINE
8
Calque 1
10
396.892230
20
2967.241720
11
396.891830
21
2967.241720
0
LINE
8
Calque 1
10
392.877090
20
2965.140560
11
392.893090
21
2965.136960
0
LINE
8
Calque 1
10
392.893090
20
2965.136960
11
392.877090
21
2965.140560
0
LINE
8
Calque 1
10
392.877090
20
2965.140560
11
392.877090
21
2965.140560
0
LINE
8
Calque 1
10
392.729810
20
2965.176220
11
392.731810
21
2965.174620
0
LINE
8
Calque 1
10
392.731810
20
2965.174620
11
392.729810
21
2965.176220
0
LINE
8
Calque 1
10
392.729810
20
2965.176220
11
392.729810
21
2965.176220
0
LINE
8
Calque 1
10
389.804930
20
2967.485640
11
389.799930
21
2967.501660
0
LINE
8
Calque 1
10
389.799930
20
2967.501660
11
389.804930
21
2967.485640
0
LINE
8
Calque 1
10
389.804930
20
2967.485640
11
389.804930
21
2967.485640
0
LINE
8
Calque 1
10
390.070030
20
2969.769220
11
390.070030
21
2969.783170
0
LINE
8
Calque 1
10
390.070030
20
2969.783170
11
390.070030
21
2969.769220
0
LINE
8
Calque 1
10
390.070030
20
2969.769220
11
390.070030
21
2969.769220
0
LINE
8
Calque 1
10
394.594300
20
2937.722620
11
394.541100
21
2937.720520
0
LINE
8
Calque 1
10
394.541100
20
2937.720520
11
392.878670
21
2937.544303
0
LINE
8
Calque 1
10
392.878670
20
2937.544303
11
392.211530
21
2937.353617
0
LINE
8
Calque 1
10
392.211530
20
2937.353617
11
392.211000
21
2937.360000
0
LINE
8
Calque 1
10
392.211000
20
2937.360000
11
391.833250
21
2937.255614
0
LINE
8
Calque 1
10
391.833250
20
2937.255614
11
391.145430
21
2936.585887
0
LINE
8
Calque 1
10
391.145430
20
2936.585887
11
390.918060
21
2936.365229
0
LINE
8
Calque 1
10
390.918060
20
2936.365229
11
390.751580
21
2935.887116
0
LINE
8
Calque 1
10
390.751580
20
2935.887116
11
390.165130
21
2934.704869
0
LINE
8
Calque 1
10
390.165130
20
2934.704869
11
390.164000
21
2934.700000
0
LINE
8
Calque 1
10
390.164000
20
2934.700000
11
390.070520
21
2934.548440
0
LINE
8
Calque 1
10
390.070520
20
2934.548440
11
390.074600
21
2934.581144
0
LINE
8
Calque 1
10
390.074600
20
2934.581144
11
390.010500
21
2934.296924
0
LINE
8
Calque 1
10
390.010500
20
2934.296924
11
389.654970
21
2933.463900
0
LINE
8
Calque 1
10
389.654970
20
2933.463900
11
389.585170
21
2933.273731
0
LINE
8
Calque 1
10
389.585170
20
2933.273731
11
389.586000
21
2933.270000
0
LINE
8
Calque 1
10
389.586000
20
2933.270000
11
389.712090
21
2933.149594
0
LINE
8
Calque 1
10
389.712090
20
2933.149594
11
389.712000
21
2933.150000
0
LINE
8
Calque 1
10
389.712000
20
2933.150000
11
390.318160
21
2932.233260
0
LINE
8
Calque 1
10
390.318160
20
2932.233260
11
390.425650
21
2932.182620
0
LINE
8
Calque 1
10
390.425650
20
2932.182620
11
391.203900
21
2931.585241
0
LINE
8
Calque 1
10
391.203900
20
2931.585241
11
391.383730
21
2931.443131
0
LINE
8
Calque 1
10
391.383730
20
2931.443131
11
392.670990
21
2931.262263
0
LINE
8
Calque 1
10
392.670990
20
2931.262263
11
392.672000
21
2931.270000
0
LINE
8
Calque 1
10
392.672000
20
2931.270000
11
392.672000
21
2931.270000
0
LINE
8
Calque 1
10
392.672000
20
2931.270000
11
393.210980
21
2931.101535
0
LINE
8
Calque 1
10
393.210980
20
2931.101535
11
393.745830
21
2930.954774
0
LINE
8
Calque 1
10
393.745830
20
2930.954774
11
394.292050
21
2930.879844
0
LINE
8
Calque 1
10
394.292050
20
2930.879844
11
394.423310
21
2930.851424
0
LINE
8
Calque 1
10
394.423310
20
2930.851424
11
394.539070
21
2930.820414
0
LINE
8
Calque 1
10
394.539070
20
2930.820414
11
395.309106
21
2930.884707
0
LINE
8
Calque 1
10
395.309106
20
2930.884707
11
396.180310
21
2931.216256
0
LINE
8
Calque 1
10
396.180310
20
2931.216256
11
396.299160
21
2931.303076
0
LINE
8
Calque 1
10
396.299160
20
2931.303076
11
396.413370
21
2931.428650
0
LINE
8
Calque 1
10
396.413370
20
2931.428650
11
396.752880
21
2931.904073
0
LINE
8
Calque 1
10
396.752880
20
2931.904073
11
396.754000
21
2931.900000
0
LINE
8
Calque 1
10
396.754000
20
2931.900000
11
396.971040
21
2932.174402
0
LINE
8
Calque 1
10
396.971040
20
2932.174402
11
397.074910
21
2932.579545
0
LINE
8
Calque 1
10
397.074910
20
2932.579545
11
397.278036
21
2933.327026
0
LINE
8
Calque 1
10
397.278036
20
2933.327026
11
397.313667
21
2933.359474
0
LINE
8
Calque 1
10
397.313667
20
2933.359474
11
397.283680
21
2933.167623
0
LINE
8
Calque 1
10
397.283680
20
2933.167623
11
397.430440
21
2933.776371
0
LINE
8
Calque 1
10
397.430440
20
2933.776371
11
397.445440
21
2934.461084
0
LINE
8
Calque 1
10
397.445440
20
2934.461084
11
397.446440
21
2934.465184
0
LINE
8
Calque 1
10
397.446440
20
2934.465184
11
397.483140
21
2934.912185
0
LINE
8
Calque 1
10
397.483140
20
2934.912185
11
397.458840
21
2935.284256
0
LINE
8
Calque 1
10
397.458840
20
2935.284256
11
397.350602
21
2935.849222
0
LINE
8
Calque 1
10
397.350602
20
2935.849222
11
396.949310
21
2936.704846
0
LINE
8
Calque 1
10
396.949310
20
2936.704846
11
396.625810
21
2937.349768
0
LINE
8
Calque 1
10
396.625810
20
2937.349768
11
396.262530
21
2937.581278
0
LINE
8
Calque 1
10
396.262530
20
2937.581278
11
395.636210
21
2937.639668
0
LINE
8
Calque 1
10
395.636210
20
2937.639668
11
394.594930
21
2937.725968
0
LINE
8
Calque 1
10
394.594930
20
2937.725968
11
394.594300
21
2937.722620
0
LINE
8
Calque 1
10
397.429780
20
2933.772990
11
397.458680
21
2933.893913
0
LINE
8
Calque 1
10
397.458680
20
2933.893913
11
397.429780
21
2933.772990
0
LINE
8
Calque 1
10
397.429780
20
2933.772990
11
397.429780
21
2933.772990
0
LINE
8
Calque 1
10
393.210920
20
2931.094080
11
393.117678
21
2931.104035
0
LINE
8
Calque 1
10
393.117678
20
2931.104035
11
393.199020
21
2931.077540
0
LINE
8
Calque 1
10
393.199020
20
2931.077540
11
393.210920
21
2931.094080
0
LINE
8
Calque 1
10
393.210920
20
2931.094080
11
393.210920
21
2931.094080
0
LINE
8
Calque 1
10
357.061000
20
2919.600000
11
356.716840
21
2919.577780
0
LINE
8
Calque 1
10
356.716840
20
2919.577780
11
356.716000
21
2919.580000
0
LINE
8
Calque 1
10
356.716000
20
2919.580000
11
356.368740
21
2919.568110
0
LINE
8
Calque 1
10
356.368740
20
2919.568110
11
356.234890
21
2919.513330
0
LINE
8
Calque 1
10
356.234890
20
2919.513330
11
356.232000
21
2919.510000
0
LINE
8
Calque 1
10
356.232000
20
2919.510000
11
355.731333
21
2919.388512
0
LINE
8
Calque 1
10
355.731333
20
2919.388512
11
355.871300
21
2919.436620
0
LINE
8
Calque 1
10
355.871300
20
2919.436620
11
355.866000
21
2919.440000
0
LINE
8
Calque 1
10
355.866000
20
2919.440000
11
355.413310
21
2919.344400
0
LINE
8
Calque 1
10
355.413310
20
2919.344400
11
355.246400
21
2919.256550
0
LINE
8
Calque 1
10
355.246400
20
2919.256550
11
355.246000
21
2919.260000
0
LINE
8
Calque 1
10
355.246000
20
2919.260000
11
354.701330
21
2918.973712
0
LINE
8
Calque 1
10
354.701330
20
2918.973712
11
354.614530
21
2918.909122
0
LINE
8
Calque 1
10
354.614530
20
2918.909122
11
354.092080
21
2918.725670
0
LINE
8
Calque 1
10
354.092080
20
2918.725670
11
353.779440
21
2918.270918
0
LINE
8
Calque 1
10
353.779440
20
2918.270918
11
353.776440
21
2918.089017
0
LINE
8
Calque 1
10
353.776440
20
2918.089017
11
353.743340
21
2917.515408
0
LINE
8
Calque 1
10
353.743340
20
2917.515408
11
353.743860
21
2917.514408
0
LINE
8
Calque 1
10
353.743860
20
2917.514408
11
353.745000
21
2917.510000
0
LINE
8
Calque 1
10
353.745000
20
2917.510000
11
353.802900
21
2916.967914
0
LINE
8
Calque 1
10
353.802900
20
2916.967914
11
353.849900
21
2916.752940
0
LINE
8
Calque 1
10
353.849900
20
2916.752940
11
353.850900
21
2916.747240
0
LINE
8
Calque 1
10
353.850900
20
2916.747240
11
353.906200
21
2916.315741
0
LINE
8
Calque 1
10
353.906200
20
2916.315741
11
353.965100
21
2916.040306
0
LINE
8
Calque 1
10
353.965100
20
2916.040306
11
354.026100
21
2915.776239
0
LINE
8
Calque 1
10
354.026100
20
2915.776239
11
354.092800
21
2915.358694
0
LINE
8
Calque 1
10
354.092800
20
2915.358694
11
354.267980
21
2915.085325
0
LINE
8
Calque 1
10
354.267980
20
2915.085325
11
354.485020
21
2914.740127
0
LINE
8
Calque 1
10
354.485020
20
2914.740127
11
355.093770
21
2914.040428
0
LINE
8
Calque 1
10
355.093770
20
2914.040428
11
355.742830
21
2913.509711
0
LINE
8
Calque 1
10
355.742830
20
2913.509711
11
355.743000
21
2913.510000
0
LINE
8
Calque 1
10
355.743000
20
2913.510000
11
356.116620
21
2913.049563
0
LINE
8
Calque 1
10
356.116620
20
2913.049563
11
356.654060
21
2912.948277
0
LINE
8
Calque 1
10
356.654060
20
2912.948277
11
356.807540
21
2912.904867
0
LINE
8
Calque 1
10
356.807540
20
2912.904867
11
356.809000
21
2912.900000
0
LINE
8
Calque 1
10
356.809000
20
2912.900000
11
357.930900
21
2913.004386
0
LINE
8
Calque 1
10
357.930900
20
2913.004386
11
358.022900
21
2913.050376
0
LINE
8
Calque 1
10
358.022900
20
2913.050376
11
358.023000
21
2913.050000
0
LINE
8
Calque 1
10
358.023000
20
2913.050000
11
358.464795
21
2913.245841
0
LINE
8
Calque 1
10
358.464795
20
2913.245841
11
358.403340
21
2913.202446
0
LINE
8
Calque 1
10
358.403340
20
2913.202446
11
358.744400
21
2913.370911
0
LINE
8
Calque 1
10
358.744400
20
2913.370911
11
358.849820
21
2913.440161
0
LINE
8
Calque 1
10
358.849820
20
2913.440161
11
358.815480
21
2913.425426
0
LINE
8
Calque 1
10
358.815480
20
2913.425426
11
358.995550
21
2913.583822
0
LINE
8
Calque 1
10
358.995550
20
2913.583822
11
358.997000
21
2913.590000
0
LINE
8
Calque 1
10
358.997000
20
2913.590000
11
359.222830
21
2913.753298
0
LINE
8
Calque 1
10
359.222830
20
2913.753298
11
359.390780
21
2913.895408
0
LINE
8
Calque 1
10
359.390780
20
2913.895408
11
359.693924
21
2914.255880
0
LINE
8
Calque 1
10
359.693924
20
2914.255880
11
359.934930
21
2914.849355
0
LINE
8
Calque 1
10
359.934930
20
2914.849355
11
360.308260
21
2915.655079
0
LINE
8
Calque 1
10
360.308260
20
2915.655079
11
360.264620
21
2916.437885
0
LINE
8
Calque 1
10
360.264620
20
2916.437885
11
360.059990
21
2917.208898
0
LINE
8
Calque 1
10
360.059990
20
2917.208898
11
360.065990
21
2917.236288
0
LINE
8
Calque 1
10
360.065990
20
2917.236288
11
360.013790
21
2917.358244
0
LINE
8
Calque 1
10
360.013790
20
2917.358244
11
359.948690
21
2917.531877
0
LINE
8
Calque 1
10
359.948690
20
2917.531877
11
359.683580
21
2917.948906
0
LINE
8
Calque 1
10
359.683580
20
2917.948906
11
359.323400
21
2918.563856
0
LINE
8
Calque 1
10
359.323400
20
2918.563856
11
359.279500
21
2918.605196
0
LINE
8
Calque 1
10
359.279500
20
2918.605196
11
359.136870
21
2918.734904
0
LINE
8
Calque 1
10
359.136870
20
2918.734904
11
359.167844
21
2918.705782
0
LINE
8
Calque 1
10
359.167844
20
2918.705782
11
359.066570
21
2918.771594
0
LINE
8
Calque 1
10
359.066570
20
2918.771594
11
359.047970
21
2918.786064
0
LINE
8
Calque 1
10
359.047970
20
2918.786064
11
359.013870
21
2918.786064
0
LINE
8
Calque 1
10
359.013870
20
2918.786064
11
358.198410
21
2919.199992
0
LINE
8
Calque 1
10
358.198410
20
2919.199992
11
358.011860
21
2919.308513
0
LINE
8
Calque 1
10
358.011860
20
2919.308513
11
357.568480
21
2919.454241
0
LINE
8
Calque 1
10
357.568480
20
2919.454241
11
357.061530
21
2919.602552
0
LINE
8
Calque 1
10
357.061530
20
2919.602552
11
357.061000
21
2919.600000
0
LINE
8
Calque 1
10
358.011330
20
2919.305961
11
357.942130
21
2919.366421
0
LINE
8
Calque 1
10
357.942130
20
2919.366421
11
357.835775
21
2919.420633
0
LINE
8
Calque 1
10
357.835775
20
2919.420633
11
358.011330
21
2919.305961
0
LINE
8
Calque 1
10
358.011330
20
2919.305961
11
358.011330
21
2919.305961
0
LINE
8
Calque 1
10
353.802800
20
2916.966571
11
353.765800
21
2917.105770
0
LINE
8
Calque 1
10
353.765800
20
2917.105770
11
353.785800
21
2916.982071
0
LINE
8
Calque 1
10
353.785800
20
2916.982071
11
353.802800
21
2916.966571
0
LINE
8
Calque 1
10
353.802800
20
2916.966571
11
353.802800
21
2916.966571
0
LINE
8
Calque 1
10
356.369060
20
2919.565891
11
356.428460
21
2919.591731
0
LINE
8
Calque 1
10
356.428460
20
2919.591731
11
356.369060
21
2919.565891
0
LINE
8
Calque 1
10
356.369060
20
2919.565891
11
356.369060
21
2919.565891
0
LINE
8
Calque 1
10
393.383360
20
2903.352391
11
392.808720
21
2903.181342
0
LINE
8
Calque 1
10
392.808720
20
2903.181342
11
392.309530
21
2903.020628
0
LINE
8
Calque 1
10
392.309530
20
2903.020628
11
392.083700
21
2902.887820
0
LINE
8
Calque 1
10
392.083700
20
2902.887820
11
391.192800
21
2902.458905
0
LINE
8
Calque 1
10
391.192800
20
2902.458905
11
391.124600
21
2902.411365
0
LINE
8
Calque 1
10
391.124600
20
2902.411365
11
390.995920
21
2902.326615
0
LINE
8
Calque 1
10
390.995920
20
2902.326615
11
390.872420
21
2902.213960
0
LINE
8
Calque 1
10
390.872420
20
2902.213960
11
390.807320
21
2902.152980
0
LINE
8
Calque 1
10
390.807320
20
2902.152980
11
390.394950
21
2901.455348
0
LINE
8
Calque 1
10
390.394950
20
2901.455348
11
390.090570
21
2900.965972
0
LINE
8
Calque 1
10
390.090570
20
2900.965972
11
390.018770
21
2900.774769
0
LINE
8
Calque 1
10
390.018770
20
2900.774769
11
389.948970
21
2900.593902
0
LINE
8
Calque 1
10
389.948970
20
2900.593902
11
389.949480
21
2900.593385
0
LINE
8
Calque 1
10
389.949480
20
2900.593385
11
389.742780
21
2899.763458
0
LINE
8
Calque 1
10
389.742780
20
2899.763458
11
389.549510
21
2899.089598
0
LINE
8
Calque 1
10
389.549510
20
2899.089598
11
389.550030
21
2899.087598
0
LINE
8
Calque 1
10
389.550030
20
2899.087598
11
389.566030
21
2898.985798
0
LINE
8
Calque 1
10
389.566030
20
2898.985798
11
389.925690
21
2898.323308
0
LINE
8
Calque 1
10
389.925690
20
2898.323308
11
389.865190
21
2898.332308
0
LINE
8
Calque 1
10
389.865190
20
2898.332308
11
390.101350
21
2897.913218
0
LINE
8
Calque 1
10
390.101350
20
2897.913218
11
390.383206
21
2897.226986
0
LINE
8
Calque 1
10
390.383206
20
2897.226986
11
390.750930
21
2896.787698
0
LINE
8
Calque 1
10
390.750930
20
2896.787698
11
390.943160
21
2896.624918
0
LINE
8
Calque 1
10
390.943160
20
2896.624918
11
391.185010
21
2896.450258
0
LINE
8
Calque 1
10
391.185010
20
2896.450258
11
391.392798
21
2896.266893
0
LINE
8
Calque 1
10
391.392798
20
2896.266893
11
391.350370
21
2896.287468
0
LINE
8
Calque 1
10
391.350370
20
2896.287468
11
391.485760
21
2896.199068
0
LINE
8
Calque 1
10
391.485760
20
2896.199068
11
391.880060
21
2896.003728
0
LINE
8
Calque 1
10
391.880060
20
2896.003728
11
391.827203
21
2896.044352
0
LINE
8
Calque 1
10
391.827203
20
2896.044352
11
392.282620
21
2895.843018
0
LINE
8
Calque 1
10
392.282620
20
2895.843018
11
392.283000
21
2895.840000
0
LINE
8
Calque 1
10
392.283000
20
2895.840000
11
392.284000
21
2895.840000
0
LINE
8
Calque 1
10
392.284000
20
2895.840000
11
392.416810
21
2895.772800
0
LINE
8
Calque 1
10
392.416810
20
2895.772800
11
393.703550
21
2895.654460
0
LINE
8
Calque 1
10
393.703550
20
2895.654460
11
393.736650
21
2895.658460
0
LINE
8
Calque 1
10
393.736650
20
2895.658460
11
393.917000
21
2895.710660
0
LINE
8
Calque 1
10
393.917000
20
2895.710660
11
393.924000
21
2895.713660
0
LINE
8
Calque 1
10
393.924000
20
2895.713660
11
394.558590
21
2895.832000
0
LINE
8
Calque 1
10
394.558590
20
2895.832000
11
394.998870
21
2896.375640
0
LINE
8
Calque 1
10
394.998870
20
2896.375640
11
394.999000
21
2896.380000
0
LINE
8
Calque 1
10
394.999000
20
2896.380000
11
395.681640
21
2896.929840
0
LINE
8
Calque 1
10
395.681640
20
2896.929840
11
396.410800
21
2897.761310
0
LINE
8
Calque 1
10
396.410800
20
2897.761310
11
396.630420
21
2898.127700
0
LINE
8
Calque 1
10
396.630420
20
2898.127700
11
396.843850
21
2898.464110
0
LINE
8
Calque 1
10
396.843850
20
2898.464110
11
396.919850
21
2898.943150
0
LINE
8
Calque 1
10
396.919850
20
2898.943150
11
396.983450
21
2899.220650
0
LINE
8
Calque 1
10
396.983450
20
2899.220650
11
397.047050
21
2899.504870
0
LINE
8
Calque 1
10
397.047050
20
2899.504870
11
397.111150
21
2900.001482
0
LINE
8
Calque 1
10
397.111150
20
2900.001482
11
397.111670
21
2900.004582
0
LINE
8
Calque 1
10
397.111670
20
2900.004582
11
397.232080
21
2900.892900
0
LINE
8
Calque 1
10
397.232080
20
2900.892900
11
397.194380
21
2901.504749
0
LINE
8
Calque 1
10
397.194380
20
2901.504749
11
397.180980
21
2901.778634
0
LINE
8
Calque 1
10
397.180980
20
2901.778634
11
396.917940
21
2902.136752
0
LINE
8
Calque 1
10
396.917940
20
2902.136752
11
396.917000
21
2902.140000
0
LINE
8
Calque 1
10
396.917000
20
2902.140000
11
396.787810
21
2902.351356
0
LINE
8
Calque 1
10
396.787810
20
2902.351356
11
396.193530
21
2902.560646
0
LINE
8
Calque 1
10
396.193530
20
2902.560646
11
396.193000
21
2902.560000
0
LINE
8
Calque 1
10
396.193000
20
2902.560000
11
396.193000
21
2902.560000
0
LINE
8
Calque 1
10
396.193000
20
2902.560000
11
396.052440
21
2902.665420
0
LINE
8
Calque 1
10
396.052440
20
2902.665420
11
395.490200
21
2902.952224
0
LINE
8
Calque 1
10
395.490200
20
2902.952224
11
395.287630
21
2903.059711
0
LINE
8
Calque 1
10
395.287630
20
2903.059711
11
394.760530
21
2903.172366
0
LINE
8
Calque 1
10
394.760530
20
2903.172366
11
394.757000
21
2903.170000
0
LINE
8
Calque 1
10
394.757000
20
2903.170000
11
394.882650
21
2903.124938
0
LINE
8
Calque 1
10
394.882650
20
2903.124938
11
394.373560
21
2903.248550
0
LINE
8
Calque 1
10
394.373560
20
2903.248550
11
394.211300
21
2903.315210
0
LINE
8
Calque 1
10
394.211300
20
2903.315210
11
393.802540
21
2903.328650
0
LINE
8
Calque 1
10
393.802540
20
2903.328650
11
393.383440
21
2903.353970
0
LINE
8
Calque 1
10
393.383440
20
2903.353970
11
393.383360
21
2903.352391
0
LINE
8
Calque 1
10
394.211220
20
2903.313631
11
394.158520
21
2903.335851
0
LINE
8
Calque 1
10
394.158520
20
2903.335851
11
394.211220
21
2903.313631
0
LINE
8
Calque 1
10
394.211220
20
2903.313631
11
394.211220
21
2903.313631
0
LINE
8
Calque 1
10
396.843620
20
2898.462771
11
396.843100
21
2898.458771
0
LINE
8
Calque 1
10
396.843100
20
2898.458771
11
396.843620
21
2898.462771
0
LINE
8
Calque 1
10
396.843620
20
2898.462771
11
396.843620
21
2898.462771
0
LINE
8
Calque 1
10
396.410570
20
2897.759971
11
396.443170
21
2897.799271
0
LINE
8
Calque 1
10
396.443170
20
2897.799271
11
396.410570
21
2897.759971
0
LINE
8
Calque 1
10
396.410570
20
2897.759971
11
396.410570
21
2897.759971
0
LINE
8
Calque 1
10
389.948950
20
2900.593901
11
389.818720
21
2900.304513
0
LINE
8
Calque 1
10
389.818720
20
2900.304513
11
389.948950
21
2900.593901
0
LINE
8
Calque 1
10
389.948950
20
2900.593901
11
389.948950
21
2900.593901
0
LINE
8
Calque 1
10
390.090540
20
2900.965971
11
390.128178
21
2901.073803
0
LINE
8
Calque 1
10
390.128178
20
2901.073803
11
390.053840
21
2900.912741
0
LINE
8
Calque 1
10
390.053840
20
2900.912741
11
390.054360
21
2900.915841
0
LINE
8
Calque 1
10
390.054360
20
2900.915841
11
390.090560
21
2900.965971
0
LINE
8
Calque 1
10
390.090560
20
2900.965971
11
390.090540
21
2900.965971
0
LINE
8
Calque 1
10
391.192800
20
2902.458901
11
391.485119
21
2902.672753
0
LINE
8
Calque 1
10
391.485119
20
2902.672753
11
391.465130
21
2902.673875
0
LINE
8
Calque 1
10
391.465130
20
2902.673875
11
391.192800
21
2902.458901
0
LINE
8
Calque 1
10
391.192800
20
2902.458901
11
391.192800
21
2902.458901
0
LINE
8
Calque 1
10
392.309530
20
2903.020624
11
392.459726
21
2903.121350
0
LINE
8
Calque 1
10
392.459726
20
2903.121350
11
392.357630
21
2903.069204
0
LINE
8
Calque 1
10
392.357630
20
2903.069204
11
392.309530
21
2903.020624
0
LINE
8
Calque 1
10
392.309530
20
2903.020624
11
392.309530
21
2903.020624
0
LINE
8
Calque 1
10
356.112230
20
2881.649824
11
355.165520
21
2881.538204
0
LINE
8
Calque 1
10
355.165520
20
2881.538204
11
354.076700
21
2881.056584
0
LINE
8
Calque 1
10
354.076700
20
2881.056584
11
352.716580
21
2880.255074
0
LINE
8
Calque 1
10
352.716580
20
2880.255074
11
352.517620
21
2879.592074
0
LINE
8
Calque 1
10
352.517620
20
2879.592074
11
352.518000
21
2879.590000
0
LINE
8
Calque 1
10
352.518000
20
2879.590000
11
352.615724
21
2878.942485
0
LINE
8
Calque 1
10
352.615724
20
2878.942485
11
352.929860
21
2878.149770
0
LINE
8
Calque 1
10
352.929860
20
2878.149770
11
353.903440
21
2876.733840
0
LINE
8
Calque 1
10
353.903440
20
2876.733840
11
354.235414
21
2876.509503
0
LINE
8
Calque 1
10
354.235414
20
2876.509503
11
354.676010
21
2876.189690
0
LINE
8
Calque 1
10
354.676010
20
2876.189690
11
355.348830
21
2875.851210
0
LINE
8
Calque 1
10
355.348830
20
2875.851210
11
357.502190
21
2876.402590
0
LINE
8
Calque 1
10
357.502190
20
2876.402590
11
358.420480
21
2876.877500
0
LINE
8
Calque 1
10
358.420480
20
2876.877500
11
358.633900
21
2877.096090
0
LINE
8
Calque 1
10
358.633900
20
2877.096090
11
358.634900
21
2877.099090
0
LINE
8
Calque 1
10
358.634900
20
2877.099090
11
358.619440
21
2877.781619
0
LINE
8
Calque 1
10
358.619440
20
2877.781619
11
358.833330
21
2878.913450
0
LINE
8
Calque 1
10
358.833330
20
2878.913450
11
358.978030
21
2879.496360
0
LINE
8
Calque 1
10
358.978030
20
2879.496360
11
358.801810
21
2879.960420
0
LINE
8
Calque 1
10
358.801810
20
2879.960420
11
358.270416
21
2880.987601
0
LINE
8
Calque 1
10
358.270416
20
2880.987601
11
357.257200
21
2881.432160
0
LINE
8
Calque 1
10
357.257200
20
2881.432160
11
356.114120
21
2881.647650
0
LINE
8
Calque 1
10
356.114120
20
2881.647650
11
356.112230
21
2881.649824
0
LINE
8
Calque 1
10
358.833510
20
2878.915624
11
358.804610
21
2878.795734
0
LINE
8
Calque 1
10
358.804610
20
2878.795734
11
358.886810
21
2879.067554
0
LINE
8
Calque 1
10
358.886810
20
2879.067554
11
358.833610
21
2878.915624
0
LINE
8
Calque 1
10
358.833610
20
2878.915624
11
358.833510
21
2878.915624
0
LINE
8
Calque 1
10
395.098010
20
2868.979284
11
393.727550
21
2868.810814
0
LINE
8
Calque 1
10
393.727550
20
2868.810814
11
392.794270
21
2868.747214
0
LINE
8
Calque 1
10
392.794270
20
2868.747214
11
391.949880
21
2868.443354
0
LINE
8
Calque 1
10
391.949880
20
2868.443354
11
391.725600
21
2868.362754
0
LINE
8
Calque 1
10
391.725600
20
2868.362754
11
391.021250
21
2867.763824
0
LINE
8
Calque 1
10
391.021250
20
2867.763824
11
391.082666
21
2867.805531
0
LINE
8
Calque 1
10
391.082666
20
2867.805531
11
390.774760
21
2867.507504
0
LINE
8
Calque 1
10
390.774760
20
2867.507504
11
390.769760
21
2867.502504
0
LINE
8
Calque 1
10
390.769760
20
2867.502504
11
390.690660
21
2867.366084
0
LINE
8
Calque 1
10
390.690660
20
2867.366084
11
390.286040
21
2866.776964
0
LINE
8
Calque 1
10
390.286040
20
2866.776964
11
390.147550
21
2866.624004
0
LINE
8
Calque 1
10
390.147550
20
2866.624004
11
390.028170
21
2866.448824
0
LINE
8
Calque 1
10
390.028170
20
2866.448824
11
389.919650
21
2866.314464
0
LINE
8
Calque 1
10
389.919650
20
2866.314464
11
389.614760
21
2865.990454
0
LINE
8
Calque 1
10
389.614760
20
2865.990454
11
389.581660
21
2865.918654
0
LINE
8
Calque 1
10
389.581660
20
2865.918654
11
389.529960
21
2865.823054
0
LINE
8
Calque 1
10
389.529960
20
2865.823054
11
389.530000
21
2865.820000
0
LINE
8
Calque 1
10
389.530000
20
2865.820000
11
389.529000
21
2865.820000
0
LINE
8
Calque 1
10
389.529000
20
2865.820000
11
389.527000
21
2865.819480
0
LINE
8
Calque 1
10
389.527000
20
2865.819480
11
389.578200
21
2865.570400
0
LINE
8
Calque 1
10
389.578200
20
2865.570400
11
389.736850
21
2864.713090
0
LINE
8
Calque 1
10
389.736850
20
2864.713090
11
389.566320
21
2863.952410
0
LINE
8
Calque 1
10
389.566320
20
2863.952410
11
389.658320
21
2863.834590
0
LINE
8
Calque 1
10
389.658320
20
2863.834590
11
389.659000
21
2863.840000
0
LINE
8
Calque 1
10
389.659000
20
2863.840000
11
389.665000
21
2863.831000
0
LINE
8
Calque 1
10
389.665000
20
2863.831000
11
389.892890
21
2863.580370
0
LINE
8
Calque 1
10
389.892890
20
2863.580370
11
390.035520
21
2863.394340
0
LINE
8
Calque 1
10
390.035520
20
2863.394340
11
390.036000
21
2863.390000
0
LINE
8
Calque 1
10
390.036000
20
2863.390000
11
390.281460
21
2863.032400
0
LINE
8
Calque 1
10
390.281460
20
2863.032400
11
390.737250
21
2862.779700
0
LINE
8
Calque 1
10
390.737250
20
2862.779700
11
390.618910
21
2862.836000
0
LINE
8
Calque 1
10
390.618910
20
2862.836000
11
390.844220
21
2862.717140
0
LINE
8
Calque 1
10
390.844220
20
2862.717140
11
390.741380
21
2862.777640
0
LINE
8
Calque 1
10
390.741380
20
2862.777640
11
391.291220
21
2862.447430
0
LINE
8
Calque 1
10
391.291220
20
2862.447430
11
391.618330
21
2862.263460
0
LINE
8
Calque 1
10
391.618330
20
2862.263460
11
391.619000
21
2862.260000
0
LINE
8
Calque 1
10
391.619000
20
2862.260000
11
391.699100
21
2862.215000
0
LINE
8
Calque 1
10
391.699100
20
2862.215000
11
391.906320
21
2862.150400
0
LINE
8
Calque 1
10
391.906320
20
2862.150400
11
392.319210
21
2862.078600
0
LINE
8
Calque 1
10
392.319210
20
2862.078600
11
393.043200
21
2862.053300
0
LINE
8
Calque 1
10
393.043200
20
2862.053300
11
393.044000
21
2862.060000
0
LINE
8
Calque 1
10
393.044000
20
2862.060000
11
393.674970
21
2861.980400
0
LINE
8
Calque 1
10
393.674970
20
2861.980400
11
393.747870
21
2861.983400
0
LINE
8
Calque 1
10
393.747870
20
2861.983400
11
393.748000
21
2861.980000
0
LINE
8
Calque 1
10
393.748000
20
2861.980000
11
393.750000
21
2861.980000
0
LINE
8
Calque 1
10
393.750000
20
2861.980000
11
393.751000
21
2861.980000
0
LINE
8
Calque 1
10
393.751000
20
2861.980000
11
393.751000
21
2861.980000
0
LINE
8
Calque 1
10
393.751000
20
2861.980000
11
393.752000
21
2861.980000
0
LINE
8
Calque 1
10
393.752000
20
2861.980000
11
393.752000
21
2861.980000
0
LINE
8
Calque 1
10
393.752000
20
2861.980000
11
393.753000
21
2861.980000
0
LINE
8
Calque 1
10
393.753000
20
2861.980000
11
393.753000
21
2861.980000
0
LINE
8
Calque 1
10
393.753000
20
2861.980000
11
393.754000
21
2861.980000
0
LINE
8
Calque 1
10
393.754000
20
2861.980000
11
393.754000
21
2861.980000
0
LINE
8
Calque 1
10
393.754000
20
2861.980000
11
393.755000
21
2861.980000
0
LINE
8
Calque 1
10
393.755000
20
2861.980000
11
393.755000
21
2861.980000
0
LINE
8
Calque 1
10
393.755000
20
2861.980000
11
393.756000
21
2861.980000
0
LINE
8
Calque 1
10
393.756000
20
2861.980000
11
393.756000
21
2861.980000
0
LINE
8
Calque 1
10
393.756000
20
2861.980000
11
393.757000
21
2861.980000
0
LINE
8
Calque 1
10
393.757000
20
2861.980000
11
394.169900
21
2862.004300
0
LINE
8
Calque 1
10
394.169900
20
2862.004300
11
394.543520
21
2862.102500
0
LINE
8
Calque 1
10
394.543520
20
2862.102500
11
394.939870
21
2862.206890
0
LINE
8
Calque 1
10
394.939870
20
2862.206890
11
395.358450
21
2862.598080
0
LINE
8
Calque 1
10
395.358450
20
2862.598080
11
395.779620
21
2862.961360
0
LINE
8
Calque 1
10
395.779620
20
2862.961360
11
395.979600
21
2863.207340
0
LINE
8
Calque 1
10
395.979600
20
2863.207340
11
395.980000
21
2863.210000
0
LINE
8
Calque 1
10
395.980000
20
2863.210000
11
396.209440
21
2863.492670
0
LINE
8
Calque 1
10
396.209440
20
2863.492670
11
396.209000
21
2863.490000
0
LINE
8
Calque 1
10
396.209000
20
2863.490000
11
396.331470
21
2863.665190
0
LINE
8
Calque 1
10
396.331470
20
2863.665190
11
396.344370
21
2863.699290
0
LINE
8
Calque 1
10
396.344370
20
2863.699290
11
396.418270
21
2863.863620
0
LINE
8
Calque 1
10
396.418270
20
2863.863620
11
396.490070
21
2864.051730
0
LINE
8
Calque 1
10
396.490070
20
2864.051730
11
396.746900
21
2864.821190
0
LINE
8
Calque 1
10
396.746900
20
2864.821190
11
396.861100
21
2865.225300
0
LINE
8
Calque 1
10
396.861100
20
2865.225300
11
397.024400
21
2865.795290
0
LINE
8
Calque 1
10
397.024400
20
2865.795290
11
397.026400
21
2865.799290
0
LINE
8
Calque 1
10
397.026400
20
2865.799290
11
397.149910
21
2866.086610
0
LINE
8
Calque 1
10
397.149910
20
2866.086610
11
397.166910
21
2866.178110
0
LINE
8
Calque 1
10
397.166910
20
2866.178110
11
397.167430
21
2866.181110
0
LINE
8
Calque 1
10
397.167430
20
2866.181110
11
397.330210
21
2866.854980
0
LINE
8
Calque 1
10
397.330210
20
2866.854980
11
397.381910
21
2867.217740
0
LINE
8
Calque 1
10
397.381910
20
2867.217740
11
397.397410
21
2867.306140
0
LINE
8
Calque 1
10
397.397410
20
2867.306140
11
397.398410
21
2867.320640
0
LINE
8
Calque 1
10
397.398410
20
2867.320640
11
397.398930
21
2867.329640
0
LINE
8
Calque 1
10
397.398930
20
2867.329640
11
397.411330
21
2867.550820
0
LINE
8
Calque 1
10
397.411330
20
2867.550820
11
397.322930
21
2868.356970
0
LINE
8
Calque 1
10
397.322930
20
2868.356970
11
397.323000
21
2868.360000
0
LINE
8
Calque 1
10
397.323000
20
2868.360000
11
397.317000
21
2868.480920
0
LINE
8
Calque 1
10
397.317000
20
2868.480920
11
397.086000
21
2868.592030
0
LINE
8
Calque 1
10
397.086000
20
2868.592030
11
396.821940
21
2868.643230
0
LINE
8
Calque 1
10
396.821940
20
2868.643230
11
396.605410
21
2868.704730
0
LINE
8
Calque 1
10
396.605410
20
2868.704730
11
396.377520
21
2868.739830
0
LINE
8
Calque 1
10
396.377520
20
2868.739830
11
395.921730
21
2868.822530
0
LINE
8
Calque 1
10
395.921730
20
2868.822530
11
395.918000
21
2868.820000
0
LINE
8
Calque 1
10
395.918000
20
2868.820000
11
395.601220
21
2868.890800
0
LINE
8
Calque 1
10
395.601220
20
2868.890800
11
395.599095
21
2868.885538
0
LINE
8
Calque 1
10
395.599095
20
2868.885538
11
395.518520
21
2868.898800
0
LINE
8
Calque 1
10
395.518520
20
2868.898800
11
395.208980
21
2868.968600
0
LINE
8
Calque 1
10
395.208980
20
2868.968600
11
395.127280
21
2868.972600
0
LINE
8
Calque 1
10
395.127280
20
2868.972600
11
395.096780
21
2868.977600
0
LINE
8
Calque 1
10
395.096780
20
2868.977600
11
395.098010
21
2868.979284
0
LINE
8
Calque 1
10
397.318030
20
2868.480084
11
397.328330
21
2868.475084
0
LINE
8
Calque 1
10
397.328330
20
2868.475084
11
397.318030
21
2868.480084
0
LINE
8
Calque 1
10
397.318030
20
2868.480084
11
397.318030
21
2868.480084
0
LINE
8
Calque 1
10
397.412030
20
2867.549914
11
397.427030
21
2867.539614
0
LINE
8
Calque 1
10
397.427030
20
2867.539614
11
397.427405
21
2867.708654
0
LINE
8
Calque 1
10
397.427405
20
2867.708654
11
397.412030
21
2867.549914
0
LINE
8
Calque 1
10
397.412030
20
2867.549914
11
397.412030
21
2867.549914
0
LINE
8
Calque 1
10
396.861670
20
2865.224474
11
396.859045
21
2865.133090
0
LINE
8
Calque 1
10
396.859045
20
2865.133090
11
396.915370
21
2865.306074
0
LINE
8
Calque 1
10
396.915370
20
2865.306074
11
396.925270
21
2865.393059
0
LINE
8
Calque 1
10
396.925270
20
2865.393059
11
396.861670
21
2865.224474
0
LINE
8
Calque 1
10
396.861670
20
2865.224474
11
396.861670
21
2865.224474
0
LINE
8
Calque 1
10
394.170370
20
2862.003484
11
394.207070
21
2862.005484
0
LINE
8
Calque 1
10
394.207070
20
2862.005484
11
394.170370
21
2862.003484
0
LINE
8
Calque 1
10
394.170370
20
2862.003484
11
394.170370
21
2862.003484
0
LINE
8
Calque 1
10
391.291990
20
2862.446864
11
391.182950
21
2862.487164
0
LINE
8
Calque 1
10
391.182950
20
2862.487164
11
391.291990
21
2862.446864
0
LINE
8
Calque 1
10
391.291990
20
2862.446864
11
391.291990
21
2862.446864
0
LINE
8
Calque 1
10
390.690470
20
2867.366464
11
390.687470
21
2867.361464
0
LINE
8
Calque 1
10
390.687470
20
2867.361464
11
390.688000
21
2867.360000
0
LINE
8
Calque 1
10
390.688000
20
2867.360000
11
390.691000
21
2867.365000
0
LINE
8
Calque 1
10
390.691000
20
2867.365000
11
390.690470
21
2867.366464
0
LINE
8
Calque 1
10
390.769570
20
2867.502884
11
390.741670
21
2867.477084
0
LINE
8
Calque 1
10
390.741670
20
2867.477084
11
390.769570
21
2867.502884
0
LINE
8
Calque 1
10
390.769570
20
2867.502884
11
390.769570
21
2867.502884
0
LINE
8
Calque 1
10
393.042300
20
2834.623284
11
391.748840
21
2834.381444
0
LINE
8
Calque 1
10
391.748840
20
2834.381444
11
391.027538
21
2834.135746
0
LINE
8
Calque 1
10
391.027538
20
2834.135746
11
390.569613
21
2833.846513
0
LINE
8
Calque 1
10
390.569613
20
2833.846513
11
390.248228
21
2833.393763
0
LINE
8
Calque 1
10
390.248228
20
2833.393763
11
389.936550
21
2832.657514
0
LINE
8
Calque 1
10
389.936550
20
2832.657514
11
389.722090
21
2832.093214
0
LINE
8
Calque 1
10
389.722090
20
2832.093214
11
389.722000
21
2832.090000
0
LINE
8
Calque 1
10
389.722000
20
2832.090000
11
389.896140
21
2831.384100
0
LINE
8
Calque 1
10
389.896140
20
2831.384100
11
390.116800
21
2830.253420
0
LINE
8
Calque 1
10
390.116800
20
2830.253420
11
390.103900
21
2829.470000
0
LINE
8
Calque 1
10
390.103900
20
2829.470000
11
390.111900
21
2829.372300
0
LINE
8
Calque 1
10
390.111900
20
2829.372300
11
390.401280
21
2829.079300
0
LINE
8
Calque 1
10
390.401280
20
2829.079300
11
391.473570
21
2828.518610
0
LINE
8
Calque 1
10
391.473570
20
2828.518610
11
393.927170
21
2827.902110
0
LINE
8
Calque 1
10
393.927170
20
2827.902110
11
394.720400
21
2828.308800
0
LINE
8
Calque 1
10
394.720400
20
2828.308800
11
395.207270
21
2828.659731
0
LINE
8
Calque 1
10
395.207270
20
2828.659731
11
395.587010
21
2828.920130
0
LINE
8
Calque 1
10
395.587010
20
2828.920130
11
396.130190
21
2829.564775
0
LINE
8
Calque 1
10
396.130190
20
2829.564775
11
396.691340
21
2830.517970
0
LINE
8
Calque 1
10
396.691340
20
2830.517970
11
397.172481
21
2831.944123
0
LINE
8
Calque 1
10
397.172481
20
2831.944123
11
397.134459
21
2832.515250
0
LINE
8
Calque 1
10
397.134459
20
2832.515250
11
396.909930
21
2833.014460
0
LINE
8
Calque 1
10
396.909930
20
2833.014460
11
396.440609
21
2833.364297
0
LINE
8
Calque 1
10
396.440609
20
2833.364297
11
395.348270
21
2833.956520
0
LINE
8
Calque 1
10
395.348270
20
2833.956520
11
394.140590
21
2834.489300
0
LINE
8
Calque 1
10
394.140590
20
2834.489300
11
393.041950
21
2834.620040
0
LINE
8
Calque 1
10
393.041950
20
2834.620040
11
393.042300
21
2834.623284
0
LINE
8
Calque 1
10
389.896750
20
2831.387314
11
389.843550
21
2831.538724
0
LINE
8
Calque 1
10
389.843550
20
2831.538724
11
389.925750
21
2831.267424
0
LINE
8
Calque 1
10
389.925750
20
2831.267424
11
389.896850
21
2831.387314
0
LINE
8
Calque 1
10
389.896850
20
2831.387314
11
389.896750
21
2831.387314
0
LINE
8
Calque 1
10
14.998100
20
1474.430000
11
14.998100
21
679.638000
0
LINE
8
Calque 1
10
14.998100
20
679.638000
11
224.992000
21
679.638000
0
LINE
8
Calque 1
10
224.992000
20
679.638000
11
225.002000
21
684.432100
0
LINE
8
Calque 1
10
225.002000
20
684.432100
11
225.002000
21
1469.630000
0
LINE
8
Calque 1
10
225.002000
20
1469.630000
11
225.002000
21
1474.430000
0
LINE
8
Calque 1
10
225.002000
20
1474.430000
11
14.998100
21
1474.430000
0
LINE
8
Calque 1
10
469.381000
20
1458.130000
11
465.140950
21
1457.592600
0
LINE
8
Calque 1
10
465.140950
20
1457.592600
11
456.725960
21
1455.903800
0
LINE
8
Calque 1
10
456.725960
20
1455.903800
11
447.709197
21
1453.659500
0
LINE
8
Calque 1
10
447.709197
20
1453.659500
11
438.747260
21
1451.090600
0
LINE
8
Calque 1
10
438.747260
20
1451.090600
11
421.454760
21
1445.760700
0
LINE
8
Calque 1
10
421.454760
20
1445.760700
11
414.306167
21
1443.502813
0
LINE
8
Calque 1
10
414.306167
20
1443.502813
11
407.260760
21
1441.118100
0
LINE
8
Calque 1
10
407.260760
20
1441.118100
11
402.855382
21
1439.285413
0
LINE
8
Calque 1
10
402.855382
20
1439.285413
11
400.753692
21
1438.208892
0
LINE
8
Calque 1
10
400.753692
20
1438.208892
11
398.736730
21
1437.012400
0
LINE
8
Calque 1
10
398.736730
20
1437.012400
11
398.720730
21
1437.002400
0
LINE
8
Calque 1
10
398.720730
20
1437.002400
11
395.925963
21
1435.119688
0
LINE
8
Calque 1
10
395.925963
20
1435.119688
11
393.216677
21
1433.068075
0
LINE
8
Calque 1
10
393.216677
20
1433.068075
11
387.976730
21
1428.599300
0
LINE
8
Calque 1
10
387.976730
20
1428.599300
11
383.093267
21
1424.037688
0
LINE
8
Calque 1
10
383.093267
20
1424.037688
11
378.501330
21
1419.247400
0
LINE
8
Calque 1
10
378.501330
20
1419.247400
11
374.611989
21
1414.566200
0
LINE
8
Calque 1
10
374.611989
20
1414.566200
11
372.841591
21
1412.125194
0
LINE
8
Calque 1
10
372.841591
20
1412.125194
11
371.215990
21
1409.607200
0
LINE
8
Calque 1
10
371.215990
20
1409.607200
11
371.216000
21
1409.600000
0
LINE
8
Calque 1
10
371.216000
20
1409.600000
11
369.428350
21
1406.447244
0
LINE
8
Calque 1
10
369.428350
20
1406.447244
11
367.818151
21
1403.183450
0
LINE
8
Calque 1
10
367.818151
20
1403.183450
11
366.369504
21
1399.826731
0
LINE
8
Calque 1
10
366.369504
20
1399.826731
11
365.066510
21
1396.395200
0
LINE
8
Calque 1
10
365.066510
20
1396.395200
11
363.806540
21
1392.575836
0
LINE
8
Calque 1
10
363.806540
20
1392.575836
11
362.710157
21
1388.699687
0
LINE
8
Calque 1
10
362.710157
20
1388.699687
11
361.769532
21
1384.776045
0
LINE
8
Calque 1
10
361.769532
20
1384.776045
11
360.976830
21
1380.814200
0
LINE
8
Calque 1
10
360.976830
20
1380.814200
11
360.247303
21
1376.180573
0
LINE
8
Calque 1
10
360.247303
20
1376.180573
11
359.706737
21
1371.515813
0
LINE
8
Calque 1
10
359.706737
20
1371.515813
11
359.346078
21
1366.828045
0
LINE
8
Calque 1
10
359.346078
20
1366.828045
11
359.156270
21
1362.125400
0
LINE
8
Calque 1
10
359.156270
20
1362.125400
11
359.148134
21
1356.040581
0
LINE
8
Calque 1
10
359.148134
20
1356.040581
11
359.339260
21
1349.921375
0
LINE
8
Calque 1
10
359.339260
20
1349.921375
11
359.934000
21
1337.575000
0
LINE
8
Calque 1
10
359.934000
20
1337.575000
11
359.934000
21
1337.650000
0
LINE
8
Calque 1
10
359.934000
20
1337.650000
11
359.950402
21
1336.617775
0
LINE
8
Calque 1
10
359.950402
20
1336.617775
11
359.810050
21
1335.895113
0
LINE
8
Calque 1
10
359.810050
20
1335.895113
11
359.461680
21
1335.087400
0
LINE
8
Calque 1
10
359.461680
20
1335.087400
11
358.714549
21
1334.085884
0
LINE
8
Calque 1
10
358.714549
20
1334.085884
11
357.754815
21
1333.371000
0
LINE
8
Calque 1
10
357.754815
20
1333.371000
11
356.638369
21
1332.959941
0
LINE
8
Calque 1
10
356.638369
20
1332.959941
11
355.421100
21
1332.869900
0
LINE
8
Calque 1
10
355.421100
20
1332.869900
11
353.727674
21
1333.075800
0
LINE
8
Calque 1
10
353.727674
20
1333.075800
11
352.470380
21
1333.321600
0
LINE
8
Calque 1
10
352.470380
20
1333.321600
11
352.452000
21
1333.330000
0
LINE
8
Calque 1
10
352.452000
20
1333.330000
11
347.551463
21
1333.989737
0
LINE
8
Calque 1
10
347.551463
20
1333.989737
11
345.146489
21
1334.153233
0
LINE
8
Calque 1
10
345.146489
20
1334.153233
11
342.775590
21
1334.155300
0
LINE
8
Calque 1
10
342.775590
20
1334.155300
11
342.766000
21
1334.150000
0
LINE
8
Calque 1
10
342.766000
20
1334.150000
11
340.477049
21
1333.955100
0
LINE
8
Calque 1
10
340.477049
20
1333.955100
11
338.251540
21
1333.522600
0
LINE
8
Calque 1
10
338.251540
20
1333.522600
11
338.242000
21
1333.520000
0
LINE
8
Calque 1
10
338.242000
20
1333.520000
11
335.548620
21
1332.667100
0
LINE
8
Calque 1
10
335.548620
20
1332.667100
11
332.893490
21
1331.555300
0
LINE
8
Calque 1
10
332.893490
20
1331.555300
11
336.656560
21
1329.861300
0
LINE
8
Calque 1
10
336.656560
20
1329.861300
11
346.508680
21
1325.337600
0
LINE
8
Calque 1
10
346.508680
20
1325.337600
11
348.475480
21
1324.480800
0
LINE
8
Calque 1
10
348.475480
20
1324.480800
11
351.999810
21
1322.688600
0
LINE
8
Calque 1
10
351.999810
20
1322.688600
11
354.929871
21
1321.243934
0
LINE
8
Calque 1
10
354.929871
20
1321.243934
11
357.954855
21
1319.647975
0
LINE
8
Calque 1
10
357.954855
20
1319.647975
11
360.929267
21
1317.738853
0
LINE
8
Calque 1
10
360.929267
20
1317.738853
11
362.352041
21
1316.616272
0
LINE
8
Calque 1
10
362.352041
20
1316.616272
11
363.707610
21
1315.354700
0
LINE
8
Calque 1
10
363.707610
20
1315.354700
11
364.893589
21
1313.994783
0
LINE
8
Calque 1
10
364.893589
20
1313.994783
11
365.885264
21
1312.586462
0
LINE
8
Calque 1
10
365.885264
20
1312.586462
11
367.491350
21
1309.790700
0
LINE
8
Calque 1
10
367.491350
20
1309.790700
11
368.357970
21
1308.174800
0
LINE
8
Calque 1
10
368.357970
20
1308.174800
11
369.037510
21
1306.395600
0
LINE
8
Calque 1
10
369.037510
20
1306.395600
11
369.673130
21
1304.914000
0
LINE
8
Calque 1
10
369.673130
20
1304.914000
11
373.686840
21
1303.749700
0
LINE
8
Calque 1
10
373.686840
20
1303.749700
11
382.297940
21
1301.693750
0
LINE
8
Calque 1
10
382.297940
20
1301.693750
11
391.067140
21
1299.597000
0
LINE
8
Calque 1
10
391.067140
20
1299.597000
11
395.709429
21
1298.208787
0
LINE
8
Calque 1
10
395.709429
20
1298.208787
11
397.870528
21
1297.591420
0
LINE
8
Calque 1
10
397.870528
20
1297.591420
11
399.968400
21
1297.157400
0
LINE
8
Calque 1
10
399.968400
20
1297.157400
11
402.009620
21
1296.876300
0
LINE
8
Calque 1
10
402.009620
20
1296.876300
11
403.025448
21
1296.562362
0
LINE
8
Calque 1
10
403.025448
20
1296.562362
11
403.493250
21
1296.361000
0
LINE
8
Calque 1
10
403.493250
20
1296.361000
11
406.265690
21
1295.502700
0
LINE
8
Calque 1
10
406.265690
20
1295.502700
11
407.567940
21
1294.948700
0
LINE
8
Calque 1
10
407.567940
20
1294.948700
11
409.338890
21
1294.563200
0
LINE
8
Calque 1
10
409.338890
20
1294.563200
11
410.443801
21
1294.132412
0
LINE
8
Calque 1
10
410.443801
20
1294.132412
11
410.993570
21
1293.778200
0
LINE
8
Calque 1
10
410.993570
20
1293.778200
11
411.167200
21
1293.715200
0
LINE
8
Calque 1
10
411.167200
20
1293.715200
11
411.308790
21
1293.676200
0
LINE
8
Calque 1
10
411.308790
20
1293.676200
11
411.249890
21
1293.686200
0
LINE
8
Calque 1
10
411.249890
20
1293.686200
11
411.281390
21
1293.674200
0
LINE
8
Calque 1
10
411.281390
20
1293.674200
11
411.293000
21
1293.680000
0
LINE
8
Calque 1
10
411.293000
20
1293.680000
11
411.391700
21
1293.643000
0
LINE
8
Calque 1
10
411.391700
20
1293.643000
11
411.416000
21
1293.633000
0
LINE
8
Calque 1
10
411.416000
20
1293.633000
11
411.426000
21
1293.630000
0
LINE
8
Calque 1
10
411.426000
20
1293.630000
11
411.541750
21
1293.589000
0
LINE
8
Calque 1
10
411.541750
20
1293.589000
11
411.373800
21
1293.666000
0
LINE
8
Calque 1
10
411.373800
20
1293.666000
11
411.515400
21
1293.627000
0
LINE
8
Calque 1
10
411.515400
20
1293.627000
11
411.725720
21
1293.496200
0
LINE
8
Calque 1
10
411.725720
20
1293.496200
11
411.964460
21
1293.413200
0
LINE
8
Calque 1
10
411.964460
20
1293.413200
11
412.483300
21
1293.081900
0
LINE
8
Calque 1
10
412.483300
20
1293.081900
11
413.297200
21
1292.754300
0
LINE
8
Calque 1
10
413.297200
20
1292.754300
11
414.362592
21
1292.116638
0
LINE
8
Calque 1
10
414.362592
20
1292.116638
11
415.271760
21
1291.391600
0
LINE
8
Calque 1
10
415.271760
20
1291.391600
11
416.075840
21
1290.912500
0
LINE
8
Calque 1
10
416.075840
20
1290.912500
11
416.593120
21
1290.353400
0
LINE
8
Calque 1
10
416.593120
20
1290.353400
11
416.737820
21
1290.254400
0
LINE
8
Calque 1
10
416.737820
20
1290.254400
11
416.954340
21
1290.047200
0
LINE
8
Calque 1
10
416.954340
20
1290.047200
11
417.106270
21
1289.850300
0
LINE
8
Calque 1
10
417.106270
20
1289.850300
11
417.197270
21
1289.777300
0
LINE
8
Calque 1
10
417.197270
20
1289.777300
11
417.655975
21
1289.614738
0
LINE
8
Calque 1
10
417.655975
20
1289.614738
11
418.231830
21
1289.243000
0
LINE
8
Calque 1
10
418.231830
20
1289.243000
11
418.427690
21
1289.074500
0
LINE
8
Calque 1
10
418.427690
20
1289.074500
11
418.626120
21
1288.886900
0
LINE
8
Calque 1
10
418.626120
20
1288.886900
11
419.114470
21
1288.422900
0
LINE
8
Calque 1
10
419.114470
20
1288.422900
11
419.582140
21
1287.513400
0
LINE
8
Calque 1
10
419.582140
20
1287.513400
11
419.663240
21
1287.340200
0
LINE
8
Calque 1
10
419.663240
20
1287.340200
11
419.831190
21
1286.670500
0
LINE
8
Calque 1
10
419.831190
20
1286.670500
11
420.251315
21
1285.479050
0
LINE
8
Calque 1
10
420.251315
20
1285.479050
11
420.258040
21
1284.359600
0
LINE
8
Calque 1
10
420.258040
20
1284.359600
11
419.926637
21
1283.405075
0
LINE
8
Calque 1
10
419.926637
20
1283.405075
11
419.529910
21
1282.753400
0
LINE
8
Calque 1
10
419.529910
20
1282.753400
11
418.889234
21
1281.824225
0
LINE
8
Calque 1
10
418.889234
20
1281.824225
11
418.677250
21
1281.573200
0
LINE
8
Calque 1
10
418.677250
20
1281.573200
11
418.513440
21
1281.256900
0
LINE
8
Calque 1
10
418.513440
20
1281.256900
11
414.973175
21
1275.174038
0
LINE
8
Calque 1
10
414.973175
20
1275.174038
11
413.075277
21
1272.059927
0
LINE
8
Calque 1
10
413.075277
20
1272.059927
11
410.941810
21
1269.000800
0
LINE
8
Calque 1
10
410.941810
20
1269.000800
11
410.005430
21
1268.031300
0
LINE
8
Calque 1
10
410.005430
20
1268.031300
11
408.494930
21
1266.615900
0
LINE
8
Calque 1
10
408.494930
20
1266.615900
11
404.199580
21
1262.681300
0
LINE
8
Calque 1
10
404.199580
20
1262.681300
11
399.962120
21
1258.838600
0
LINE
8
Calque 1
10
399.962120
20
1258.838600
11
398.487842
21
1257.504925
0
LINE
8
Calque 1
10
398.487842
20
1257.504925
11
397.952940
21
1257.022200
0
LINE
8
Calque 1
10
397.952940
20
1257.022200
11
392.478340
21
1251.848900
0
LINE
8
Calque 1
10
392.478340
20
1251.848900
11
392.407040
21
1251.783900
0
LINE
8
Calque 1
10
392.407040
20
1251.783900
11
385.677220
21
1245.918100
0
LINE
8
Calque 1
10
385.677220
20
1245.918100
11
379.459000
21
1240.042500
0
LINE
8
Calque 1
10
379.459000
20
1240.042500
11
374.395086
21
1235.418313
0
LINE
8
Calque 1
10
374.395086
20
1235.418313
11
369.075100
21
1230.844600
0
LINE
8
Calque 1
10
369.075100
20
1230.844600
11
360.068930
21
1223.172700
0
LINE
8
Calque 1
10
360.068930
20
1223.172700
11
356.013089
21
1219.812525
0
LINE
8
Calque 1
10
356.013089
20
1219.812525
11
353.797388
21
1218.224753
0
LINE
8
Calque 1
10
353.797388
20
1218.224753
11
351.282390
21
1216.772600
0
LINE
8
Calque 1
10
351.282390
20
1216.772600
11
349.432370
21
1215.961800
0
LINE
8
Calque 1
10
349.432370
20
1215.961800
11
346.471601
21
1213.015434
0
LINE
8
Calque 1
10
346.471601
20
1213.015434
11
343.400595
21
1210.190250
0
LINE
8
Calque 1
10
343.400595
20
1210.190250
11
340.218927
21
1207.490916
0
LINE
8
Calque 1
10
340.218927
20
1207.490916
11
336.926170
21
1204.922100
0
LINE
8
Calque 1
10
336.926170
20
1204.922100
11
335.026030
21
1203.510800
0
LINE
8
Calque 1
10
335.026030
20
1203.510800
11
333.786830
21
1202.266500
0
LINE
8
Calque 1
10
333.786830
20
1202.266500
11
333.270580
21
1201.663400
0
LINE
8
Calque 1
10
333.270580
20
1201.663400
11
332.574500
21
1200.940500
0
LINE
8
Calque 1
10
332.574500
20
1200.940500
11
332.337300
21
1200.746200
0
LINE
8
Calque 1
10
332.337300
20
1200.746200
11
331.710990
21
1200.062000
0
LINE
8
Calque 1
10
331.710990
20
1200.062000
11
330.404301
21
1198.473538
0
LINE
8
Calque 1
10
330.404301
20
1198.473538
11
328.646570
21
1196.640500
0
LINE
8
Calque 1
10
328.646570
20
1196.640500
11
326.018964
21
1194.694163
0
LINE
8
Calque 1
10
326.018964
20
1194.694163
11
323.453090
21
1193.124400
0
LINE
8
Calque 1
10
323.453090
20
1193.124400
11
320.050720
21
1191.108500
0
LINE
8
Calque 1
10
320.050720
20
1191.108500
11
317.937874
21
1190.095388
0
LINE
8
Calque 1
10
317.937874
20
1190.095388
11
316.265420
21
1189.210900
0
LINE
8
Calque 1
10
316.265420
20
1189.210900
11
314.004570
21
1187.606400
0
LINE
8
Calque 1
10
314.004570
20
1187.606400
11
312.959680
21
1186.616300
0
LINE
8
Calque 1
10
312.959680
20
1186.616300
11
311.681720
21
1185.491300
0
LINE
8
Calque 1
10
311.681720
20
1185.491300
11
309.708190
21
1183.676400
0
LINE
8
Calque 1
10
309.708190
20
1183.676400
11
309.698190
21
1183.666400
0
LINE
8
Calque 1
10
309.698190
20
1183.666400
11
307.830600
21
1181.994600
0
LINE
8
Calque 1
10
307.830600
20
1181.994600
11
305.684973
21
1180.566525
0
LINE
8
Calque 1
10
305.684973
20
1180.566525
11
303.622070
21
1179.462000
0
LINE
8
Calque 1
10
303.622070
20
1179.462000
11
300.254320
21
1177.402200
0
LINE
8
Calque 1
10
300.254320
20
1177.402200
11
297.341320
21
1175.222400
0
LINE
8
Calque 1
10
297.341320
20
1175.222400
11
294.801820
21
1173.216537
0
LINE
8
Calque 1
10
294.801820
20
1173.216537
11
292.305970
21
1170.973600
0
LINE
8
Calque 1
10
292.305970
20
1170.973600
11
289.287030
21
1168.008400
0
LINE
8
Calque 1
10
289.287030
20
1168.008400
11
285.275900
21
1163.869600
0
LINE
8
Calque 1
10
285.275900
20
1163.869600
11
284.767041
21
1163.259050
0
LINE
8
Calque 1
10
284.767041
20
1163.259050
11
283.767990
21
1162.333800
0
LINE
8
Calque 1
10
283.767990
20
1162.333800
11
282.522970
21
1161.562712
0
LINE
8
Calque 1
10
282.522970
20
1161.562712
11
281.643050
21
1161.127700
0
LINE
8
Calque 1
10
281.643050
20
1161.127700
11
280.734777
21
1160.838712
0
LINE
8
Calque 1
10
280.734777
20
1160.838712
11
279.818023
21
1160.917750
0
LINE
8
Calque 1
10
279.818023
20
1160.917750
11
278.997812
21
1161.334812
0
LINE
8
Calque 1
10
278.997812
20
1161.334812
11
278.379170
21
1162.059900
0
LINE
8
Calque 1
10
278.379170
20
1162.059900
11
278.092880
21
1162.951900
0
LINE
8
Calque 1
10
278.092880
20
1162.951900
11
278.169880
21
1163.885200
0
LINE
8
Calque 1
10
278.169880
20
1163.885200
11
278.597583
21
1164.718050
0
LINE
8
Calque 1
10
278.597583
20
1164.718050
11
279.311410
21
1165.323800
0
LINE
8
Calque 1
10
279.311410
20
1165.323800
11
280.887020
21
1166.173400
0
LINE
8
Calque 1
10
280.887020
20
1166.173400
11
281.783610
21
1167.163000
0
LINE
8
Calque 1
10
281.783610
20
1167.163000
11
285.913070
21
1171.422700
0
LINE
8
Calque 1
10
285.913070
20
1171.422700
11
289.025550
21
1174.477800
0
LINE
8
Calque 1
10
289.025550
20
1174.477800
11
291.713606
21
1176.886875
0
LINE
8
Calque 1
10
291.713606
20
1176.886875
11
294.429870
21
1179.038700
0
LINE
8
Calque 1
10
294.429870
20
1179.038700
11
297.569210
21
1181.381200
0
LINE
8
Calque 1
10
297.569210
20
1181.381200
11
301.205160
21
1183.609000
0
LINE
8
Calque 1
10
301.205160
20
1183.609000
11
303.237275
21
1184.695187
0
LINE
8
Calque 1
10
303.237275
20
1184.695187
11
304.872640
21
1185.775300
0
LINE
8
Calque 1
10
304.872640
20
1185.775300
11
306.458070
21
1187.207200
0
LINE
8
Calque 1
10
306.458070
20
1187.207200
11
306.468370
21
1187.217200
0
LINE
8
Calque 1
10
306.468370
20
1187.217200
11
308.454290
21
1189.043900
0
LINE
8
Calque 1
10
308.454290
20
1189.043900
11
308.493090
21
1189.079900
0
LINE
8
Calque 1
10
308.493090
20
1189.079900
11
309.541090
21
1190.001300
0
LINE
8
Calque 1
10
309.541090
20
1190.001300
11
307.361380
21
1189.091300
0
LINE
8
Calque 1
10
307.361380
20
1189.091300
11
298.576900
21
1185.561800
0
LINE
8
Calque 1
10
298.576900
20
1185.561800
11
294.105762
21
1184.078700
0
LINE
8
Calque 1
10
294.105762
20
1184.078700
11
289.580550
21
1182.753700
0
LINE
8
Calque 1
10
289.580550
20
1182.753700
11
284.159180
21
1181.116600
0
LINE
8
Calque 1
10
284.159180
20
1181.116600
11
279.842955
21
1179.737112
0
LINE
8
Calque 1
10
279.842955
20
1179.737112
11
274.913230
21
1178.314200
0
LINE
8
Calque 1
10
274.913230
20
1178.314200
11
269.094385
21
1177.098175
0
LINE
8
Calque 1
10
269.094385
20
1177.098175
11
263.464330
21
1175.933900
0
LINE
8
Calque 1
10
263.464330
20
1175.933900
11
257.552726
21
1174.409275
0
LINE
8
Calque 1
10
257.552726
20
1174.409275
11
254.473579
21
1173.678556
0
LINE
8
Calque 1
10
254.473579
20
1173.678556
11
251.279030
21
1173.104100
0
LINE
8
Calque 1
10
251.279030
20
1173.104100
11
247.088070
21
1172.703700
0
LINE
8
Calque 1
10
247.088070
20
1172.703700
11
246.883440
21
1169.756500
0
LINE
8
Calque 1
10
246.883440
20
1169.756500
11
246.879440
21
1169.728500
0
LINE
8
Calque 1
10
246.879440
20
1169.728500
11
246.892340
21
1169.585400
0
LINE
8
Calque 1
10
246.892340
20
1169.585400
11
247.332278
21
1167.009562
0
LINE
8
Calque 1
10
247.332278
20
1167.009562
11
248.046790
21
1164.379500
0
LINE
8
Calque 1
10
248.046790
20
1164.379500
11
249.528187
21
1160.656714
0
LINE
8
Calque 1
10
249.528187
20
1160.656714
11
251.495580
21
1157.168687
0
LINE
8
Calque 1
10
251.495580
20
1157.168687
11
253.915448
21
1153.992867
0
LINE
8
Calque 1
10
253.915448
20
1153.992867
11
256.754270
21
1151.206700
0
LINE
8
Calque 1
10
256.754270
20
1151.206700
11
258.801270
21
1149.884537
0
LINE
8
Calque 1
10
258.801270
20
1149.884537
11
261.080620
21
1149.078600
0
LINE
8
Calque 1
10
261.080620
20
1149.078600
11
261.138520
21
1149.064600
0
LINE
8
Calque 1
10
261.138520
20
1149.064600
11
262.834464
21
1148.745708
0
LINE
8
Calque 1
10
262.834464
20
1148.745708
11
264.625594
21
1148.572738
0
LINE
8
Calque 1
10
264.625594
20
1148.572738
11
268.452800
21
1148.467200
0
LINE
8
Calque 1
10
268.452800
20
1148.467200
11
275.157904
21
1148.753628
0
LINE
8
Calque 1
10
275.157904
20
1148.753628
11
281.824809
21
1149.611875
0
LINE
8
Calque 1
10
281.824809
20
1149.611875
11
288.413435
21
1151.006634
0
LINE
8
Calque 1
10
288.413435
20
1151.006634
11
294.883700
21
1152.902600
0
LINE
8
Calque 1
10
294.883700
20
1152.902600
11
294.884000
21
1152.900000
0
LINE
8
Calque 1
10
294.884000
20
1152.900000
11
302.909038
21
1155.865550
0
LINE
8
Calque 1
10
302.909038
20
1155.865550
11
310.940900
21
1159.136800
0
LINE
8
Calque 1
10
310.940900
20
1159.136800
11
310.951000
21
1159.140000
0
LINE
8
Calque 1
10
310.951000
20
1159.140000
11
327.701575
21
1166.202250
0
LINE
8
Calque 1
10
327.701575
20
1166.202250
11
344.290600
21
1173.583100
0
LINE
8
Calque 1
10
344.290600
20
1173.583100
11
358.987400
21
1180.399200
0
LINE
8
Calque 1
10
358.987400
20
1180.399200
11
359.066500
21
1180.434200
0
LINE
8
Calque 1
10
359.066500
20
1180.434200
11
359.983334
21
1180.650845
0
LINE
8
Calque 1
10
359.983334
20
1180.650845
11
360.873540
21
1180.579763
0
LINE
8
Calque 1
10
360.873540
20
1180.579763
11
361.672321
21
1180.288498
0
LINE
8
Calque 1
10
361.672321
20
1180.288498
11
362.314880
21
1179.844600
0
LINE
8
Calque 1
10
362.314880
20
1179.844600
11
362.806355
21
1179.287169
0
LINE
8
Calque 1
10
362.806355
20
1179.287169
11
363.165485
21
1178.616225
0
LINE
8
Calque 1
10
363.165485
20
1178.616225
11
363.347877
21
1177.840919
0
LINE
8
Calque 1
10
363.347877
20
1177.840919
11
363.309140
21
1176.970400
0
LINE
8
Calque 1
10
363.309140
20
1176.970400
11
363.345340
21
1177.307300
0
LINE
8
Calque 1
10
363.345340
20
1177.307300
11
363.408440
21
1174.237700
0
LINE
8
Calque 1
10
363.408440
20
1174.237700
11
363.802545
21
1170.441875
0
LINE
8
Calque 1
10
363.802545
20
1170.441875
11
364.474000
21
1166.618000
0
LINE
8
Calque 1
10
364.474000
20
1166.618000
11
364.474000
21
1166.600000
0
LINE
8
Calque 1
10
364.474000
20
1166.600000
11
365.689140
21
1160.775187
0
LINE
8
Calque 1
10
365.689140
20
1160.775187
11
367.087280
21
1154.999200
0
LINE
8
Calque 1
10
367.087280
20
1154.999200
11
368.172556
21
1151.155169
0
LINE
8
Calque 1
10
368.172556
20
1151.155169
11
369.393104
21
1147.370650
0
LINE
8
Calque 1
10
369.393104
20
1147.370650
11
370.774224
21
1143.663306
0
LINE
8
Calque 1
10
370.774224
20
1143.663306
11
372.341220
21
1140.050800
0
LINE
8
Calque 1
10
372.341220
20
1140.050800
11
373.953162
21
1136.938522
0
LINE
8
Calque 1
10
373.953162
20
1136.938522
11
375.745889
21
1133.876850
0
LINE
8
Calque 1
10
375.745889
20
1133.876850
11
379.649300
21
1127.790500
0
LINE
8
Calque 1
10
379.649300
20
1127.790500
11
379.649000
21
1127.780000
0
LINE
8
Calque 1
10
379.649000
20
1127.780000
11
386.920400
21
1117.212200
0
LINE
8
Calque 1
10
386.920400
20
1117.212200
11
389.713579
21
1113.600450
0
LINE
8
Calque 1
10
389.713579
20
1113.600450
11
392.803240
21
1110.379000
0
LINE
8
Calque 1
10
392.803240
20
1110.379000
11
392.829040
21
1110.355000
0
LINE
8
Calque 1
10
392.829040
20
1110.355000
11
395.686200
21
1107.953625
0
LINE
8
Calque 1
10
395.686200
20
1107.953625
11
397.190780
21
1106.924959
0
LINE
8
Calque 1
10
397.190780
20
1106.924959
11
398.749610
21
1106.039000
0
LINE
8
Calque 1
10
398.749610
20
1106.039000
11
402.238514
21
1104.521850
0
LINE
8
Calque 1
10
402.238514
20
1104.521850
11
406.009110
21
1103.048500
0
LINE
8
Calque 1
10
406.009110
20
1103.048500
11
406.045310
21
1103.034500
0
LINE
8
Calque 1
10
406.045310
20
1103.034500
11
417.984110
21
1098.480800
0
LINE
8
Calque 1
10
417.984110
20
1098.480800
11
420.481753
21
1097.745692
0
LINE
8
Calque 1
10
420.481753
20
1097.745692
11
423.051942
21
1097.138262
0
LINE
8
Calque 1
10
423.051942
20
1097.138262
11
428.360210
21
1096.154900
0
LINE
8
Calque 1
10
428.360210
20
1096.154900
11
428.384000
21
1096.150000
0
LINE
8
Calque 1
10
428.384000
20
1096.150000
11
435.453078
21
1094.919950
0
LINE
8
Calque 1
10
435.453078
20
1094.919950
11
438.929640
21
1094.447172
0
LINE
8
Calque 1
10
438.929640
20
1094.447172
11
442.376400
21
1094.166600
0
LINE
8
Calque 1
10
442.376400
20
1094.166600
11
442.400200
21
1094.166600
0
LINE
8
Calque 1
10
442.400200
20
1094.166600
11
458.840000
21
1093.523200
0
LINE
8
Calque 1
10
458.840000
20
1093.523200
11
458.850000
21
1093.530000
0
LINE
8
Calque 1
10
458.850000
20
1093.530000
11
473.854609
21
1093.210213
0
LINE
8
Calque 1
10
473.854609
20
1093.210213
11
488.870400
21
1093.103200
0
LINE
8
Calque 1
10
488.870400
20
1093.103200
11
488.881000
21
1093.100000
0
LINE
8
Calque 1
10
488.881000
20
1093.100000
11
495.174701
21
1093.067625
0
LINE
8
Calque 1
10
495.174701
20
1093.067625
11
501.573800
21
1092.823000
0
LINE
8
Calque 1
10
501.573800
20
1092.823000
11
505.763114
21
1092.408325
0
LINE
8
Calque 1
10
505.763114
20
1092.408325
11
509.832210
21
1091.893900
0
LINE
8
Calque 1
10
509.832210
20
1091.893900
11
511.675500
21
1091.767300
0
LINE
8
Calque 1
10
511.675500
20
1091.767300
11
511.717400
21
1091.567800
0
LINE
8
Calque 1
10
511.717400
20
1091.567800
11
512.304960
21
1091.659800
0
LINE
8
Calque 1
10
512.304960
20
1091.659800
11
513.582546
21
1091.463789
0
LINE
8
Calque 1
10
513.582546
20
1091.463789
11
514.453765
21
1091.112987
0
LINE
8
Calque 1
10
514.453765
20
1091.112987
11
515.098070
21
1090.632400
0
LINE
8
Calque 1
10
515.098070
20
1090.632400
11
517.127410
21
1090.064000
0
LINE
8
Calque 1
10
517.127410
20
1090.064000
11
521.831283
21
1088.867812
0
LINE
8
Calque 1
10
521.831283
20
1088.867812
11
526.484980
21
1087.959700
0
LINE
8
Calque 1
10
526.484980
20
1087.959700
11
531.402510
21
1087.444500
0
LINE
8
Calque 1
10
531.402510
20
1087.444500
11
532.914560
21
1087.482500
0
LINE
8
Calque 1
10
532.914560
20
1087.482500
11
535.030190
21
1087.787400
0
LINE
8
Calque 1
10
535.030190
20
1087.787400
11
538.675960
21
1088.114500
0
LINE
8
Calque 1
10
538.675960
20
1088.114500
11
539.102290
21
1088.095500
0
LINE
8
Calque 1
10
539.102290
20
1088.095500
11
539.237690
21
1088.066500
0
LINE
8
Calque 1
10
539.237690
20
1088.066500
11
540.565250
21
1088.200800
0
LINE
8
Calque 1
10
540.565250
20
1088.200800
11
542.684500
21
1088.488700
0
LINE
8
Calque 1
10
542.684500
20
1088.488700
11
545.031130
21
1088.728500
0
LINE
8
Calque 1
10
545.031130
20
1088.728500
11
548.017818
21
1088.812000
0
LINE
8
Calque 1
10
548.017818
20
1088.812000
11
550.579630
21
1088.941400
0
LINE
8
Calque 1
10
550.579630
20
1088.941400
11
552.959169
21
1089.458819
0
LINE
8
Calque 1
10
552.959169
20
1089.458819
11
555.300624
21
1090.336800
0
LINE
8
Calque 1
10
555.300624
20
1090.336800
11
557.595652
21
1091.505781
0
LINE
8
Calque 1
10
557.595652
20
1091.505781
11
559.835910
21
1092.896200
0
LINE
8
Calque 1
10
559.835910
20
1092.896200
11
563.342680
21
1095.561100
0
LINE
8
Calque 1
10
563.342680
20
1095.561100
11
564.970307
21
1097.212378
0
LINE
8
Calque 1
10
564.970307
20
1097.212378
11
566.547020
21
1099.012925
0
LINE
8
Calque 1
10
566.547020
20
1099.012925
11
569.718510
21
1102.863000
0
LINE
8
Calque 1
10
569.718510
20
1102.863000
11
573.599892
21
1107.626062
0
LINE
8
Calque 1
10
573.599892
20
1107.626062
11
575.239242
21
1110.026677
0
LINE
8
Calque 1
10
575.239242
20
1110.026677
11
576.417850
21
1112.391600
0
LINE
8
Calque 1
10
576.417850
20
1112.391600
11
577.359922
21
1115.512375
0
LINE
8
Calque 1
10
577.359922
20
1115.512375
11
578.060120
21
1118.635700
0
LINE
8
Calque 1
10
578.060120
20
1118.635700
11
578.283370
21
1122.177100
0
LINE
8
Calque 1
10
578.283370
20
1122.177100
11
578.374057
21
1127.843375
0
LINE
8
Calque 1
10
578.374057
20
1127.843375
11
578.226470
21
1133.562900
0
LINE
8
Calque 1
10
578.226470
20
1133.562900
11
577.981520
21
1139.868000
0
LINE
8
Calque 1
10
577.981520
20
1139.868000
11
578.018720
21
1148.238000
0
LINE
8
Calque 1
10
578.018720
20
1148.238000
11
578.177370
21
1153.762200
0
LINE
8
Calque 1
10
578.177370
20
1153.762200
11
578.498280
21
1156.228200
0
LINE
8
Calque 1
10
578.498280
20
1156.228200
11
578.724110
21
1158.998100
0
LINE
8
Calque 1
10
578.724110
20
1158.998100
11
579.131320
21
1161.828400
0
LINE
8
Calque 1
10
579.131320
20
1161.828400
11
579.371090
21
1164.430300
0
LINE
8
Calque 1
10
579.371090
20
1164.430300
11
579.497180
21
1167.418200
0
LINE
8
Calque 1
10
579.497180
20
1167.418200
11
579.887340
21
1171.582800
0
LINE
8
Calque 1
10
579.887340
20
1171.582800
11
580.619080
21
1176.024900
0
LINE
8
Calque 1
10
580.619080
20
1176.024900
11
581.664490
21
1185.777300
0
LINE
8
Calque 1
10
581.664490
20
1185.777300
11
582.834450
21
1193.352600
0
LINE
8
Calque 1
10
582.834450
20
1193.352600
11
583.635372
21
1196.801450
0
LINE
8
Calque 1
10
583.635372
20
1196.801450
11
584.420920
21
1199.816800
0
LINE
8
Calque 1
10
584.420920
20
1199.816800
11
585.046200
21
1204.483700
0
LINE
8
Calque 1
10
585.046200
20
1204.483700
11
585.624460
21
1208.150100
0
LINE
8
Calque 1
10
585.624460
20
1208.150100
11
585.807910
21
1210.154100
0
LINE
8
Calque 1
10
585.807910
20
1210.154100
11
586.087480
21
1212.266100
0
LINE
8
Calque 1
10
586.087480
20
1212.266100
11
586.222870
21
1213.924400
0
LINE
8
Calque 1
10
586.222870
20
1213.924400
11
586.580470
21
1216.162500
0
LINE
8
Calque 1
10
586.580470
20
1216.162500
11
587.452770
21
1224.751700
0
LINE
8
Calque 1
10
587.452770
20
1224.751700
11
587.731310
21
1226.937600
0
LINE
8
Calque 1
10
587.731310
20
1226.937600
11
588.077020
21
1230.607100
0
LINE
8
Calque 1
10
588.077020
20
1230.607100
11
588.409820
21
1232.658200
0
LINE
8
Calque 1
10
588.409820
20
1232.658200
11
588.593790
21
1234.408500
0
LINE
8
Calque 1
10
588.593790
20
1234.408500
11
588.698690
21
1236.241400
0
LINE
8
Calque 1
10
588.698690
20
1236.241400
11
589.365830
21
1243.017200
0
LINE
8
Calque 1
10
589.365830
20
1243.017200
11
589.365830
21
1246.105900
0
LINE
8
Calque 1
10
589.365830
20
1246.105900
11
589.365830
21
1248.572500
0
LINE
8
Calque 1
10
589.365830
20
1248.572500
11
589.315730
21
1249.298500
0
LINE
8
Calque 1
10
589.315730
20
1249.298500
11
589.281630
21
1249.398800
0
LINE
8
Calque 1
10
589.281630
20
1249.398800
11
589.235630
21
1249.719700
0
LINE
8
Calque 1
10
589.235630
20
1249.719700
11
589.225630
21
1249.890200
0
LINE
8
Calque 1
10
589.225630
20
1249.890200
11
589.175530
21
1251.464300
0
LINE
8
Calque 1
10
589.175530
20
1251.464300
11
589.026190
21
1259.018800
0
LINE
8
Calque 1
10
589.026190
20
1259.018800
11
588.801910
21
1265.152800
0
LINE
8
Calque 1
10
588.801910
20
1265.152800
11
588.652050
21
1267.470000
0
LINE
8
Calque 1
10
588.652050
20
1267.470000
11
588.722850
21
1268.955700
0
LINE
8
Calque 1
10
588.722850
20
1268.955700
11
588.855140
21
1269.721000
0
LINE
8
Calque 1
10
588.855140
20
1269.721000
11
588.908840
21
1270.552500
0
LINE
8
Calque 1
10
588.908840
20
1270.552500
11
589.174460
21
1272.267600
0
LINE
8
Calque 1
10
589.174460
20
1272.267600
11
589.300550
21
1273.483600
0
LINE
8
Calque 1
10
589.300550
20
1273.483600
11
589.545500
21
1274.553300
0
LINE
8
Calque 1
10
589.545500
20
1274.553300
11
589.718100
21
1275.932000
0
LINE
8
Calque 1
10
589.718100
20
1275.932000
11
589.877780
21
1277.156800
0
LINE
8
Calque 1
10
589.877780
20
1277.156800
11
589.878000
21
1277.320000
0
LINE
8
Calque 1
10
589.878000
20
1277.320000
11
590.025790
21
1279.112600
0
LINE
8
Calque 1
10
590.025790
20
1279.112600
11
590.487780
21
1283.802800
0
LINE
8
Calque 1
10
590.487780
20
1283.802800
11
590.671230
21
1288.065100
0
LINE
8
Calque 1
10
590.671230
20
1288.065100
11
590.784483
21
1290.934413
0
LINE
8
Calque 1
10
590.784483
20
1290.934413
11
591.000410
21
1293.927700
0
LINE
8
Calque 1
10
591.000410
20
1293.927700
11
591.174560
21
1295.536400
0
LINE
8
Calque 1
10
591.174560
20
1295.536400
11
591.193660
21
1295.663600
0
LINE
8
Calque 1
10
591.193660
20
1295.663600
11
591.285660
21
1296.032000
0
LINE
8
Calque 1
10
591.285660
20
1296.032000
11
591.305860
21
1296.072000
0
LINE
8
Calque 1
10
591.305860
20
1296.072000
11
591.342060
21
1296.358300
0
LINE
8
Calque 1
10
591.342060
20
1296.358300
11
591.772010
21
1299.639700
0
LINE
8
Calque 1
10
591.772010
20
1299.639700
11
592.457750
21
1302.263400
0
LINE
8
Calque 1
10
592.457750
20
1302.263400
11
592.561110
21
1303.005900
0
LINE
8
Calque 1
10
592.561110
20
1303.005900
11
592.836540
21
1304.048300
0
LINE
8
Calque 1
10
592.836540
20
1304.048300
11
592.898540
21
1304.440500
0
LINE
8
Calque 1
10
592.898540
20
1304.440500
11
592.964640
21
1305.391800
0
LINE
8
Calque 1
10
592.964640
20
1305.391800
11
593.095900
21
1306.188700
0
LINE
8
Calque 1
10
593.095900
20
1306.188700
11
593.108800
21
1306.229700
0
LINE
8
Calque 1
10
593.108800
20
1306.229700
11
593.119100
21
1306.596600
0
LINE
8
Calque 1
10
593.119100
20
1306.596600
11
592.786310
21
1308.424400
0
LINE
8
Calque 1
10
592.786310
20
1308.424400
11
592.225620
21
1310.652200
0
LINE
8
Calque 1
10
592.225620
20
1310.652200
11
591.674230
21
1312.634500
0
LINE
8
Calque 1
10
591.674230
20
1312.634500
11
591.561570
21
1313.044300
0
LINE
8
Calque 1
10
591.561570
20
1313.044300
11
590.430380
21
1315.103100
0
LINE
8
Calque 1
10
590.430380
20
1315.103100
11
590.028850
21
1316.145400
0
LINE
8
Calque 1
10
590.028850
20
1316.145400
11
589.636630
21
1316.845100
0
LINE
8
Calque 1
10
589.636630
20
1316.845100
11
589.378250
21
1317.496200
0
LINE
8
Calque 1
10
589.378250
20
1317.496200
11
588.966900
21
1317.929300
0
LINE
8
Calque 1
10
588.966900
20
1317.929300
11
588.823240
21
1318.051200
0
LINE
8
Calque 1
10
588.823240
20
1318.051200
11
586.881240
21
1318.550400
0
LINE
8
Calque 1
10
586.881240
20
1318.550400
11
585.816710
21
1318.568400
0
LINE
8
Calque 1
10
585.816710
20
1318.568400
11
584.970250
21
1318.662400
0
LINE
8
Calque 1
10
584.970250
20
1318.662400
11
584.959000
21
1318.660000
0
LINE
8
Calque 1
10
584.959000
20
1318.660000
11
583.935810
21
1318.776300
0
LINE
8
Calque 1
10
583.935810
20
1318.776300
11
583.632990
21
1318.810300
0
LINE
8
Calque 1
10
583.632990
20
1318.810300
11
579.321100
21
1318.463600
0
LINE
8
Calque 1
10
579.321100
20
1318.463600
11
576.403970
21
1318.276500
0
LINE
8
Calque 1
10
576.403970
20
1318.276500
11
573.935900
21
1317.722500
0
LINE
8
Calque 1
10
573.935900
20
1317.722500
11
567.354390
21
1316.297300
0
LINE
8
Calque 1
10
567.354390
20
1316.297300
11
567.315590
21
1316.287300
0
LINE
8
Calque 1
10
567.315590
20
1316.287300
11
566.343550
21
1316.080000
0
LINE
8
Calque 1
10
566.343550
20
1316.080000
11
566.102220
21
1316.041000
0
LINE
8
Calque 1
10
566.102220
20
1316.041000
11
565.364280
21
1315.971000
0
LINE
8
Calque 1
10
565.364280
20
1315.971000
11
563.770070
21
1315.503900
0
LINE
8
Calque 1
10
563.770070
20
1315.503900
11
562.697780
21
1315.302800
0
LINE
8
Calque 1
10
562.697780
20
1315.302800
11
560.930450
21
1314.720500
0
LINE
8
Calque 1
10
560.930450
20
1314.720500
11
559.142669
21
1314.065225
0
LINE
8
Calque 1
10
559.142669
20
1314.065225
11
557.504820
21
1313.313800
0
LINE
8
Calque 1
10
557.504820
20
1313.313800
11
556.617010
21
1312.800200
0
LINE
8
Calque 1
10
556.617010
20
1312.800200
11
556.582910
21
1312.787200
0
LINE
8
Calque 1
10
556.582910
20
1312.787200
11
554.562880
21
1311.944900
0
LINE
8
Calque 1
10
554.562880
20
1311.944900
11
552.819830
21
1311.336700
0
LINE
8
Calque 1
10
552.819830
20
1311.336700
11
552.567650
21
1311.252700
0
LINE
8
Calque 1
10
552.567650
20
1311.252700
11
551.102110
21
1310.563800
0
LINE
8
Calque 1
10
551.102110
20
1310.563800
11
551.091000
21
1310.560000
0
LINE
8
Calque 1
10
551.091000
20
1310.560000
11
548.911810
21
1309.772000
0
LINE
8
Calque 1
10
548.911810
20
1309.772000
11
548.865810
21
1309.755000
0
LINE
8
Calque 1
10
548.865810
20
1309.755000
11
548.104100
21
1309.417000
0
LINE
8
Calque 1
10
548.104100
20
1309.417000
11
545.665841
21
1308.516600
0
LINE
8
Calque 1
10
545.665841
20
1308.516600
11
543.464590
21
1307.617100
0
LINE
8
Calque 1
10
543.464590
20
1307.617100
11
539.010590
21
1305.304600
0
LINE
8
Calque 1
10
539.010590
20
1305.304600
11
537.699560
21
1304.657600
0
LINE
8
Calque 1
10
537.699560
20
1304.657600
11
532.016710
21
1301.054800
0
LINE
8
Calque 1
10
532.016710
20
1301.054800
11
529.036010
21
1299.167000
0
LINE
8
Calque 1
10
529.036010
20
1299.167000
11
526.369500
21
1297.444600
0
LINE
8
Calque 1
10
526.369500
20
1297.444600
11
525.446050
21
1296.655500
0
LINE
8
Calque 1
10
525.446050
20
1296.655500
11
524.935480
21
1296.301600
0
LINE
8
Calque 1
10
524.935480
20
1296.301600
11
524.809390
21
1296.214600
0
LINE
8
Calque 1
10
524.809390
20
1296.214600
11
524.448690
21
1295.964000
0
LINE
8
Calque 1
10
524.448690
20
1295.964000
11
523.613080
21
1295.339700
0
LINE
8
Calque 1
10
523.613080
20
1295.339700
11
520.626190
21
1292.761600
0
LINE
8
Calque 1
10
520.626190
20
1292.761600
11
519.862410
21
1292.150300
0
LINE
8
Calque 1
10
519.862410
20
1292.150300
11
517.670290
21
1289.743200
0
LINE
8
Calque 1
10
517.670290
20
1289.743200
11
516.170640
21
1287.921100
0
LINE
8
Calque 1
10
516.170640
20
1287.921100
11
514.316056
21
1284.940463
0
LINE
8
Calque 1
10
514.316056
20
1284.940463
11
512.889190
21
1281.923000
0
LINE
8
Calque 1
10
512.889190
20
1281.923000
11
511.957460
21
1278.869400
0
LINE
8
Calque 1
10
511.957460
20
1278.869400
11
511.106870
21
1274.630400
0
LINE
8
Calque 1
10
511.106870
20
1274.630400
11
510.089880
21
1269.758900
0
LINE
8
Calque 1
10
510.089880
20
1269.758900
11
509.527640
21
1267.148700
0
LINE
8
Calque 1
10
509.527640
20
1267.148700
11
509.121055
21
1263.719463
0
LINE
8
Calque 1
10
509.121055
20
1263.719463
11
509.001570
21
1260.203900
0
LINE
8
Calque 1
10
509.001570
20
1260.203900
11
509.182960
21
1257.547700
0
LINE
8
Calque 1
10
509.182960
20
1257.547700
11
509.252760
21
1256.002600
0
LINE
8
Calque 1
10
509.252760
20
1256.002600
11
509.269760
21
1255.827900
0
LINE
8
Calque 1
10
509.269760
20
1255.827900
11
509.300760
21
1255.771900
0
LINE
8
Calque 1
10
509.300760
20
1255.771900
11
509.372560
21
1255.548700
0
LINE
8
Calque 1
10
509.372560
20
1255.548700
11
509.415460
21
1255.361100
0
LINE
8
Calque 1
10
509.415460
20
1255.361100
11
509.438760
21
1255.219500
0
LINE
8
Calque 1
10
509.438760
20
1255.219500
11
509.666650
21
1252.613000
0
LINE
8
Calque 1
10
509.666650
20
1252.613000
11
509.724550
21
1251.354600
0
LINE
8
Calque 1
10
509.724550
20
1251.354600
11
510.039770
21
1247.773500
0
LINE
8
Calque 1
10
510.039770
20
1247.773500
11
510.300740
21
1244.188100
0
LINE
8
Calque 1
10
510.300740
20
1244.188100
11
510.960130
21
1236.101800
0
LINE
8
Calque 1
10
510.960130
20
1236.101800
11
511.038130
21
1232.100500
0
LINE
8
Calque 1
10
511.038130
20
1232.100500
11
510.905320
21
1227.215500
0
LINE
8
Calque 1
10
510.905320
20
1227.215500
11
510.846700
21
1225.320238
0
LINE
8
Calque 1
10
510.846700
20
1225.320238
11
510.577180
21
1223.107800
0
LINE
8
Calque 1
10
510.577180
20
1223.107800
11
509.918820
21
1220.655200
0
LINE
8
Calque 1
10
509.918820
20
1220.655200
11
509.171580
21
1218.541600
0
LINE
8
Calque 1
10
509.171580
20
1218.541600
11
509.059440
21
1217.620300
0
LINE
8
Calque 1
10
509.059440
20
1217.620300
11
508.111180
21
1213.043300
0
LINE
8
Calque 1
10
508.111180
20
1213.043300
11
507.787825
21
1209.970750
0
LINE
8
Calque 1
10
507.787825
20
1209.970750
11
507.634720
21
1206.721200
0
LINE
8
Calque 1
10
507.634720
20
1206.721200
11
507.448690
21
1201.921500
0
LINE
8
Calque 1
10
507.448690
20
1201.921500
11
506.982560
21
1192.198000
0
LINE
8
Calque 1
10
506.982560
20
1192.198000
11
506.982560
21
1189.735100
0
LINE
8
Calque 1
10
506.982560
20
1189.735100
11
506.734250
21
1184.996600
0
LINE
8
Calque 1
10
506.734250
20
1184.996600
11
506.171240
21
1180.318100
0
LINE
8
Calque 1
10
506.171240
20
1180.318100
11
505.528910
21
1177.180300
0
LINE
8
Calque 1
10
505.528910
20
1177.180300
11
505.126350
21
1174.695700
0
LINE
8
Calque 1
10
505.126350
20
1174.695700
11
504.948060
21
1173.933500
0
LINE
8
Calque 1
10
504.948060
20
1173.933500
11
504.799240
21
1172.800300
0
LINE
8
Calque 1
10
504.799240
20
1172.800300
11
504.469540
21
1171.688700
0
LINE
8
Calque 1
10
504.469540
20
1171.688700
11
504.350680
21
1170.911000
0
LINE
8
Calque 1
10
504.350680
20
1170.911000
11
504.123310
21
1170.067100
0
LINE
8
Calque 1
10
504.123310
20
1170.067100
11
503.672170
21
1167.898700
0
LINE
8
Calque 1
10
503.672170
20
1167.898700
11
503.030350
21
1165.479800
0
LINE
8
Calque 1
10
503.030350
20
1165.479800
11
502.770940
21
1164.037000
0
LINE
8
Calque 1
10
502.770940
20
1164.037000
11
502.688783
21
1163.636963
0
LINE
8
Calque 1
10
502.688783
20
1163.636963
11
502.671740
21
1163.606000
0
LINE
8
Calque 1
10
502.671740
20
1163.606000
11
502.643840
21
1162.742000
0
LINE
8
Calque 1
10
502.643840
20
1162.742000
11
502.386490
21
1158.738600
0
LINE
8
Calque 1
10
502.386490
20
1158.738600
11
502.320889
21
1157.443313
0
LINE
8
Calque 1
10
502.320889
20
1157.443313
11
502.217510
21
1156.736100
0
LINE
8
Calque 1
10
502.217510
20
1156.736100
11
502.191759
21
1153.773650
0
LINE
8
Calque 1
10
502.191759
20
1153.773650
11
502.362200
21
1150.757200
0
LINE
8
Calque 1
10
502.362200
20
1150.757200
11
502.583900
21
1148.347000
0
LINE
8
Calque 1
10
502.583900
20
1148.347000
11
502.573450
21
1148.650875
0
LINE
8
Calque 1
10
502.573450
20
1148.650875
11
502.680000
21
1147.895300
0
LINE
8
Calque 1
10
502.680000
20
1147.895300
11
502.680000
21
1147.900000
0
LINE
8
Calque 1
10
502.680000
20
1147.900000
11
502.685212
21
1146.199150
0
LINE
8
Calque 1
10
502.685212
20
1146.199150
11
502.629900
21
1145.355400
0
LINE
8
Calque 1
10
502.629900
20
1145.355400
11
502.654525
21
1145.362713
0
LINE
8
Calque 1
10
502.654525
20
1145.362713
11
502.814900
21
1144.828300
0
LINE
8
Calque 1
10
502.814900
20
1144.828300
11
502.896736
21
1143.878680
0
LINE
8
Calque 1
10
502.896736
20
1143.878680
11
502.617686
21
1143.001763
0
LINE
8
Calque 1
10
502.617686
20
1143.001763
11
502.030163
21
1142.293464
0
LINE
8
Calque 1
10
502.030163
20
1142.293464
11
501.186580
21
1141.849700
0
LINE
8
Calque 1
10
501.186580
20
1141.849700
11
500.236866
21
1141.768122
0
LINE
8
Calque 1
10
500.236866
20
1141.768122
11
499.360058
21
1142.047350
0
LINE
8
Calque 1
10
499.360058
20
1142.047350
11
498.651980
21
1142.634978
0
LINE
8
Calque 1
10
498.651980
20
1142.634978
11
498.208460
21
1143.478600
0
LINE
8
Calque 1
10
498.208460
20
1143.478600
11
498.072030
21
1143.829763
0
LINE
8
Calque 1
10
498.072030
20
1143.829763
11
497.870500
21
1144.736900
0
LINE
8
Calque 1
10
497.870500
20
1144.736900
11
497.805905
21
1146.393925
0
LINE
8
Calque 1
10
497.805905
20
1146.393925
11
497.882400
21
1147.341900
0
LINE
8
Calque 1
10
497.882400
20
1147.341900
11
497.841600
21
1147.600800
0
LINE
8
Calque 1
10
497.841600
20
1147.600800
11
497.577530
21
1150.374800
0
LINE
8
Calque 1
10
497.577530
20
1150.374800
11
497.393570
21
1153.642800
0
LINE
8
Calque 1
10
497.393570
20
1153.642800
11
497.423570
21
1156.979000
0
LINE
8
Calque 1
10
497.423570
20
1156.979000
11
497.594100
21
1158.648700
0
LINE
8
Calque 1
10
497.594100
20
1158.648700
11
497.594100
21
1158.928800
0
LINE
8
Calque 1
10
497.594100
20
1158.928800
11
497.857130
21
1163.017400
0
LINE
8
Calque 1
10
497.857130
20
1163.017400
11
497.903130
21
1164.105200
0
LINE
8
Calque 1
10
497.903130
20
1164.105200
11
498.065390
21
1164.961500
0
LINE
8
Calque 1
10
498.065390
20
1164.961500
11
498.366150
21
1166.591900
0
LINE
8
Calque 1
10
498.366150
20
1166.591900
11
499.033290
21
1169.115200
0
LINE
8
Calque 1
10
499.033290
20
1169.115200
11
499.404840
21
1170.923400
0
LINE
8
Calque 1
10
499.404840
20
1170.923400
11
496.106850
21
1169.128200
0
LINE
8
Calque 1
10
496.106850
20
1169.128200
11
493.358745
21
1167.355975
0
LINE
8
Calque 1
10
493.358745
20
1167.355975
11
490.769190
21
1165.457600
0
LINE
8
Calque 1
10
490.769190
20
1165.457600
11
488.015360
21
1163.410700
0
LINE
8
Calque 1
10
488.015360
20
1163.410700
11
487.000430
21
1162.690300
0
LINE
8
Calque 1
10
487.000430
20
1162.690300
11
486.814400
21
1162.196300
0
LINE
8
Calque 1
10
486.814400
20
1162.196300
11
486.337245
21
1161.371452
0
LINE
8
Calque 1
10
486.337245
20
1161.371452
11
485.606226
21
1160.812938
0
LINE
8
Calque 1
10
485.606226
20
1160.812938
11
484.719134
21
1160.569255
0
LINE
8
Calque 1
10
484.719134
20
1160.569255
11
483.773760
21
1160.688900
0
LINE
8
Calque 1
10
483.773760
20
1160.688900
11
483.101288
21
1161.042414
0
LINE
8
Calque 1
10
483.101288
20
1161.042414
11
482.583395
21
1161.574138
0
LINE
8
Calque 1
10
482.583395
20
1161.574138
11
482.252439
21
1162.238517
0
LINE
8
Calque 1
10
482.252439
20
1162.238517
11
482.140780
21
1162.990000
0
LINE
8
Calque 1
10
482.140780
20
1162.990000
11
482.266350
21
1163.730000
0
LINE
8
Calque 1
10
482.266350
20
1163.730000
11
482.221350
21
1163.772000
0
LINE
8
Calque 1
10
482.221350
20
1163.772000
11
482.357943
21
1164.444812
0
LINE
8
Calque 1
10
482.357943
20
1164.444812
11
483.092090
21
1165.627700
0
LINE
8
Calque 1
10
483.092090
20
1165.627700
11
484.328235
21
1166.736638
0
LINE
8
Calque 1
10
484.328235
20
1166.736638
11
485.135380
21
1167.250300
0
LINE
8
Calque 1
10
485.135380
20
1167.250300
11
487.912990
21
1169.314300
0
LINE
8
Calque 1
10
487.912990
20
1169.314300
11
490.624290
21
1171.297412
0
LINE
8
Calque 1
10
490.624290
20
1171.297412
11
493.638740
21
1173.244300
0
LINE
8
Calque 1
10
493.638740
20
1173.244300
11
496.915445
21
1174.979838
0
LINE
8
Calque 1
10
496.915445
20
1174.979838
11
498.657601
21
1175.674708
0
LINE
8
Calque 1
10
498.657601
20
1175.674708
11
500.519450
21
1176.228100
0
LINE
8
Calque 1
10
500.519450
20
1176.228100
11
500.802120
21
1177.981500
0
LINE
8
Calque 1
10
500.802120
20
1177.981500
11
501.430510
21
1181.032400
0
LINE
8
Calque 1
10
501.430510
20
1181.032400
11
501.958803
21
1185.422975
0
LINE
8
Calque 1
10
501.958803
20
1185.422975
11
502.189120
21
1189.805000
0
LINE
8
Calque 1
10
502.189120
20
1189.805000
11
502.189120
21
1192.284500
0
LINE
8
Calque 1
10
502.189120
20
1192.284500
11
502.407308
21
1197.264225
0
LINE
8
Calque 1
10
502.407308
20
1197.264225
11
502.657820
21
1202.080300
0
LINE
8
Calque 1
10
502.657820
20
1202.080300
11
502.844890
21
1206.915600
0
LINE
8
Calque 1
10
502.844890
20
1206.915600
11
503.001860
21
1210.285087
0
LINE
8
Calque 1
10
503.001860
20
1210.285087
11
503.377680
21
1213.800000
0
LINE
8
Calque 1
10
503.377680
20
1213.800000
11
504.336270
21
1218.442600
0
LINE
8
Calque 1
10
504.336270
20
1218.442600
11
504.485620
21
1219.555700
0
LINE
8
Calque 1
10
504.485620
20
1219.555700
11
504.954198
21
1221.092375
0
LINE
8
Calque 1
10
504.954198
20
1221.092375
11
505.345000
21
1222.094000
0
LINE
8
Calque 1
10
505.345000
20
1222.094000
11
505.883470
21
1224.085600
0
LINE
8
Calque 1
10
505.883470
20
1224.085600
11
506.048193
21
1225.576200
0
LINE
8
Calque 1
10
506.048193
20
1225.576200
11
506.115490
21
1227.411500
0
LINE
8
Calque 1
10
506.115490
20
1227.411500
11
506.244690
21
1232.077900
0
LINE
8
Calque 1
10
506.244690
20
1232.077900
11
506.245000
21
1232.080000
0
LINE
8
Calque 1
10
506.245000
20
1232.080000
11
506.173700
21
1235.844100
0
LINE
8
Calque 1
10
506.173700
20
1235.844100
11
505.524650
21
1243.788900
0
LINE
8
Calque 1
10
505.524650
20
1243.788900
11
505.262130
21
1247.388100
0
LINE
8
Calque 1
10
505.262130
20
1247.388100
11
504.941740
21
1251.033400
0
LINE
8
Calque 1
10
504.941740
20
1251.033400
11
504.887940
21
1252.225600
0
LINE
8
Calque 1
10
504.887940
20
1252.225600
11
504.851740
21
1252.645200
0
LINE
8
Calque 1
10
504.851740
20
1252.645200
11
504.786640
21
1252.902000
0
LINE
8
Calque 1
10
504.786640
20
1252.902000
11
504.697740
21
1253.387800
0
LINE
8
Calque 1
10
504.697740
20
1253.387800
11
504.646540
21
1253.837300
0
LINE
8
Calque 1
10
504.646540
20
1253.837300
11
504.479110
21
1255.562800
0
LINE
8
Calque 1
10
504.479110
20
1255.562800
11
504.400010
21
1257.216000
0
LINE
8
Calque 1
10
504.400010
20
1257.216000
11
504.262043
21
1258.712612
0
LINE
8
Calque 1
10
504.262043
20
1258.712612
11
504.207250
21
1260.207500
0
LINE
8
Calque 1
10
504.207250
20
1260.207500
11
504.331810
21
1263.809125
0
LINE
8
Calque 1
10
504.331810
20
1263.809125
11
504.741070
21
1267.450500
0
LINE
8
Calque 1
10
504.741070
20
1267.450500
11
504.433080
21
1269.337700
0
LINE
8
Calque 1
10
504.433080
20
1269.337700
11
502.404935
21
1279.110625
0
LINE
8
Calque 1
10
502.404935
20
1279.110625
11
500.361490
21
1289.018100
0
LINE
8
Calque 1
10
500.361490
20
1289.018100
11
498.889677
21
1297.487800
0
LINE
8
Calque 1
10
498.889677
20
1297.487800
11
497.587481
21
1305.967100
0
LINE
8
Calque 1
10
497.587481
20
1305.967100
11
495.216590
21
1322.899300
0
LINE
8
Calque 1
10
495.216590
20
1322.899300
11
494.223370
21
1330.109200
0
LINE
8
Calque 1
10
494.223370
20
1330.109200
11
492.665294
21
1337.413175
0
LINE
8
Calque 1
10
492.665294
20
1337.413175
11
491.078860
21
1344.363600
0
LINE
8
Calque 1
10
491.078860
20
1344.363600
11
489.081560
21
1352.949100
0
LINE
8
Calque 1
10
489.081560
20
1352.949100
11
487.460732
21
1359.121220
0
LINE
8
Calque 1
10
487.460732
20
1359.121220
11
486.667699
21
1361.880887
0
LINE
8
Calque 1
10
486.667699
20
1361.880887
11
485.991611
21
1364.637836
0
LINE
8
Calque 1
10
485.991611
20
1364.637836
11
484.721620
21
1370.801800
0
LINE
8
Calque 1
10
484.721620
20
1370.801800
11
483.338759
21
1377.832112
0
LINE
8
Calque 1
10
483.338759
20
1377.832112
11
482.111440
21
1384.949200
0
LINE
8
Calque 1
10
482.111440
20
1384.949200
11
480.918904
21
1393.600450
0
LINE
8
Calque 1
10
480.918904
20
1393.600450
11
479.712110
21
1402.105300
0
LINE
8
Calque 1
10
479.712110
20
1402.105300
11
472.029976
21
1403.299875
0
LINE
8
Calque 1
10
472.029976
20
1403.299875
11
464.401910
21
1404.317600
0
LINE
8
Calque 1
10
464.401910
20
1404.317600
11
460.377282
21
1404.755750
0
LINE
8
Calque 1
10
460.377282
20
1404.755750
11
456.450980
21
1405.052900
0
LINE
8
Calque 1
10
456.450980
20
1405.052900
11
450.772364
21
1405.254087
0
LINE
8
Calque 1
10
450.772364
20
1405.254087
11
445.230480
21
1405.159400
0
LINE
8
Calque 1
10
445.230480
20
1405.159400
11
439.556377
21
1404.613658
0
LINE
8
Calque 1
10
439.556377
20
1404.613658
11
434.995630
21
1403.799837
0
LINE
8
Calque 1
10
434.995630
20
1403.799837
11
424.897880
21
1401.353900
0
LINE
8
Calque 1
10
424.897880
20
1401.353900
11
417.610470
21
1399.763800
0
LINE
8
Calque 1
10
417.610470
20
1399.763800
11
414.469060
21
1399.172700
0
LINE
8
Calque 1
10
414.469060
20
1399.172700
11
412.521967
21
1398.830087
0
LINE
8
Calque 1
10
412.521967
20
1398.830087
11
410.781950
21
1398.655400
0
LINE
8
Calque 1
10
410.781950
20
1398.655400
11
409.258425
21
1398.778950
0
LINE
8
Calque 1
10
409.258425
20
1398.778950
11
408.308200
21
1398.968500
0
LINE
8
Calque 1
10
408.308200
20
1398.968500
11
407.408841
21
1399.283869
0
LINE
8
Calque 1
10
407.408841
20
1399.283869
11
406.724007
21
1399.898300
0
LINE
8
Calque 1
10
406.724007
20
1399.898300
11
406.319543
21
1400.724681
0
LINE
8
Calque 1
10
406.319543
20
1400.724681
11
406.261290
21
1401.675900
0
LINE
8
Calque 1
10
406.261290
20
1401.675900
11
406.576645
21
1402.575202
0
LINE
8
Calque 1
10
406.576645
20
1402.575202
11
407.191055
21
1403.260012
0
LINE
8
Calque 1
10
407.191055
20
1403.260012
11
408.017415
21
1403.664492
0
LINE
8
Calque 1
10
408.017415
20
1403.664492
11
408.968620
21
1403.722800
0
LINE
8
Calque 1
10
408.968620
20
1403.722800
11
410.680660
21
1403.454600
0
LINE
8
Calque 1
10
410.680660
20
1403.454600
11
413.633450
21
1403.899500
0
LINE
8
Calque 1
10
413.633450
20
1403.899500
11
416.634820
21
1404.463800
0
LINE
8
Calque 1
10
416.634820
20
1404.463800
11
423.812160
21
1406.029600
0
LINE
8
Calque 1
10
423.812160
20
1406.029600
11
426.934450
21
1406.791800
0
LINE
8
Calque 1
10
426.934450
20
1406.791800
11
420.772040
21
1409.775600
0
LINE
8
Calque 1
10
420.772040
20
1409.775600
11
420.028842
21
1410.345262
0
LINE
8
Calque 1
10
420.028842
20
1410.345262
11
419.560220
21
1411.155900
0
LINE
8
Calque 1
10
419.560220
20
1411.155900
11
419.437325
21
1412.084212
0
LINE
8
Calque 1
10
419.437325
20
1412.084212
11
419.679080
21
1412.988900
0
LINE
8
Calque 1
10
419.679080
20
1412.988900
11
420.260942
21
1413.743681
0
LINE
8
Calque 1
10
420.260942
20
1413.743681
11
421.059350
21
1414.200825
0
LINE
8
Calque 1
10
421.059350
20
1414.200825
11
421.970933
21
1414.325231
0
LINE
8
Calque 1
10
421.970933
20
1414.325231
11
422.892320
21
1414.081800
0
LINE
8
Calque 1
10
422.892320
20
1414.081800
11
427.591142
21
1411.762313
0
LINE
8
Calque 1
10
427.591142
20
1411.762313
11
431.984790
21
1409.802000
0
LINE
8
Calque 1
10
431.984790
20
1409.802000
11
432.794942
21
1409.203388
0
LINE
8
Calque 1
10
432.794942
20
1409.203388
11
433.288070
21
1408.325100
0
LINE
8
Calque 1
10
433.288070
20
1408.325100
11
438.491454
21
1409.302488
0
LINE
8
Calque 1
10
438.491454
20
1409.302488
11
444.930770
21
1409.949800
0
LINE
8
Calque 1
10
444.930770
20
1409.949800
11
450.860337
21
1410.055300
0
LINE
8
Calque 1
10
450.860337
20
1410.055300
11
456.659270
21
1409.848500
0
LINE
8
Calque 1
10
456.659270
20
1409.848500
11
460.853966
21
1409.533575
0
LINE
8
Calque 1
10
460.853966
20
1409.533575
11
464.929570
21
1409.088900
0
LINE
8
Calque 1
10
464.929570
20
1409.088900
11
471.912304
21
1408.161425
0
LINE
8
Calque 1
10
471.912304
20
1408.161425
11
478.834670
21
1407.081700
0
LINE
8
Calque 1
10
478.834670
20
1407.081700
11
477.128830
21
1415.528300
0
LINE
8
Calque 1
10
477.128830
20
1415.528300
11
476.725130
21
1417.697239
0
LINE
8
Calque 1
10
476.725130
20
1417.697239
11
476.450547
21
1420.100638
0
LINE
8
Calque 1
10
476.450547
20
1420.100638
11
476.275650
21
1424.564900
0
LINE
8
Calque 1
10
476.275650
20
1424.564900
11
476.276000
21
1424.580000
0
LINE
8
Calque 1
10
476.276000
20
1424.580000
11
476.414951
21
1430.052887
0
LINE
8
Calque 1
10
476.414951
20
1430.052887
11
476.378320
21
1434.280700
0
LINE
8
Calque 1
10
476.378320
20
1434.280700
11
476.195539
21
1436.497350
0
LINE
8
Calque 1
10
476.195539
20
1436.497350
11
475.984550
21
1437.669100
0
LINE
8
Calque 1
10
475.984550
20
1437.669100
11
474.801680
21
1442.192900
0
LINE
8
Calque 1
10
474.801680
20
1442.192900
11
473.432770
21
1448.396600
0
LINE
8
Calque 1
10
473.432770
20
1448.396600
11
472.757738
21
1450.739350
0
LINE
8
Calque 1
10
472.757738
20
1450.739350
11
472.044740
21
1453.389600
0
LINE
8
Calque 1
10
472.044740
20
1453.389600
11
471.257190
21
1457.990400
0
LINE
8
Calque 1
10
471.257190
20
1457.990400
11
469.380820
21
1458.129900
0
LINE
8
Calque 1
10
469.380820
20
1458.129900
11
469.381000
21
1458.130000
0
LINE
8
Calque 1
10
502.387300
20
1158.740000
11
502.384300
21
1158.972500
0
LINE
8
Calque 1
10
502.384300
20
1158.972500
11
502.384000
21
1158.690000
0
LINE
8
Calque 1
10
502.384000
20
1158.690000
11
502.387000
21
1158.738000
0
LINE
8
Calque 1
10
502.387000
20
1158.738000
11
502.387300
21
1158.740000
0
LINE
8
Calque 1
10
590.029000
20
1316.140000
11
590.011400
21
1316.199000
0
LINE
8
Calque 1
10
590.011400
20
1316.199000
11
590.029000
21
1316.140000
0
LINE
8
Calque 1
10
590.029000
20
1316.140000
11
590.029000
21
1316.140000
0
LINE
8
Calque 1
10
591.561720
20
1313.038900
11
591.612420
21
1312.949900
0
LINE
8
Calque 1
10
591.612420
20
1312.949900
11
591.561720
21
1313.038900
0
LINE
8
Calque 1
10
591.561720
20
1313.038900
11
591.561720
21
1313.038900
0
LINE
8
Calque 1
10
441.176720
20
1369.992000
11
442.146680
21
1369.976000
0
LINE
8
Calque 1
10
442.146680
20
1369.976000
11
444.001525
21
1369.810875
0
LINE
8
Calque 1
10
444.001525
20
1369.810875
11
445.053320
21
1369.532047
0
LINE
8
Calque 1
10
445.053320
20
1369.532047
11
446.139720
21
1369.036000
0
LINE
8
Calque 1
10
446.139720
20
1369.036000
11
446.855960
21
1368.539400
0
LINE
8
Calque 1
10
446.855960
20
1368.539400
11
447.878120
21
1367.730100
0
LINE
8
Calque 1
10
447.878120
20
1367.730100
11
448.703764
21
1366.979338
0
LINE
8
Calque 1
10
448.703764
20
1366.979338
11
449.679040
21
1365.812400
0
LINE
8
Calque 1
10
449.679040
20
1365.812400
11
450.266465
21
1364.784289
0
LINE
8
Calque 1
10
450.266465
20
1364.784289
11
450.666488
21
1363.822938
0
LINE
8
Calque 1
10
450.666488
20
1363.822938
11
451.185410
21
1362.248300
0
LINE
8
Calque 1
10
451.185410
20
1362.248300
11
451.752810
21
1360.785300
0
LINE
8
Calque 1
10
451.752810
20
1360.785300
11
452.480930
21
1358.661400
0
LINE
8
Calque 1
10
452.480930
20
1358.661400
11
452.915020
21
1357.224300
0
LINE
8
Calque 1
10
452.915020
20
1357.224300
11
453.255560
21
1355.629100
0
LINE
8
Calque 1
10
453.255560
20
1355.629100
11
453.354260
21
1354.895200
0
LINE
8
Calque 1
10
453.354260
20
1354.895200
11
453.418360
21
1354.663700
0
LINE
8
Calque 1
10
453.418360
20
1354.663700
11
453.460460
21
1354.457375
0
LINE
8
Calque 1
10
453.460460
20
1354.457375
11
453.454560
21
1354.459100
0
LINE
8
Calque 1
10
453.454560
20
1354.459100
11
453.571350
21
1353.607000
0
LINE
8
Calque 1
10
453.571350
20
1353.607000
11
453.705710
21
1352.449400
0
LINE
8
Calque 1
10
453.705710
20
1352.449400
11
453.800810
21
1351.859300
0
LINE
8
Calque 1
10
453.800810
20
1351.859300
11
453.829710
21
1351.296000
0
LINE
8
Calque 1
10
453.829710
20
1351.296000
11
453.895310
21
1350.465000
0
LINE
8
Calque 1
10
453.895310
20
1350.465000
11
454.336110
21
1350.563000
0
LINE
8
Calque 1
10
454.336110
20
1350.563000
11
455.432680
21
1350.721600
0
LINE
8
Calque 1
10
455.432680
20
1350.721600
11
456.989180
21
1350.960400
0
LINE
8
Calque 1
10
456.989180
20
1350.960400
11
457.939327
21
1350.885919
0
LINE
8
Calque 1
10
457.939327
20
1350.885919
11
458.758738
21
1350.467375
0
LINE
8
Calque 1
10
458.758738
20
1350.467375
11
459.361417
21
1349.772119
0
LINE
8
Calque 1
10
459.361417
20
1349.772119
11
459.661370
21
1348.867500
0
LINE
8
Calque 1
10
459.661370
20
1348.867500
11
459.586903
21
1347.917338
0
LINE
8
Calque 1
10
459.586903
20
1347.917338
11
459.168383
21
1347.097900
0
LINE
8
Calque 1
10
459.168383
20
1347.097900
11
458.473131
21
1346.495212
0
LINE
8
Calque 1
10
458.473131
20
1346.495212
11
457.568470
21
1346.195300
0
LINE
8
Calque 1
10
457.568470
20
1346.195300
11
456.142200
21
1345.974100
0
LINE
8
Calque 1
10
456.142200
20
1345.974100
11
455.223390
21
1345.845500
0
LINE
8
Calque 1
10
455.223390
20
1345.845500
11
453.976440
21
1345.565400
0
LINE
8
Calque 1
10
453.976440
20
1345.565400
11
451.007630
21
1345.071300
0
LINE
8
Calque 1
10
451.007630
20
1345.071300
11
449.940510
21
1345.016300
0
LINE
8
Calque 1
10
449.940510
20
1345.016300
11
448.854790
21
1344.916000
0
LINE
8
Calque 1
10
448.854790
20
1344.916000
11
446.918990
21
1344.675700
0
LINE
8
Calque 1
10
446.918990
20
1344.675700
11
446.032740
21
1344.517100
0
LINE
8
Calque 1
10
446.032740
20
1344.517100
11
446.157800
21
1343.054600
0
LINE
8
Calque 1
10
446.157800
20
1343.054600
11
446.255174
21
1341.940538
0
LINE
8
Calque 1
10
446.255174
20
1341.940538
11
446.248200
21
1340.451700
0
LINE
8
Calque 1
10
446.248200
20
1340.451700
11
445.815320
21
1338.376975
0
LINE
8
Calque 1
10
445.815320
20
1338.376975
11
445.121140
21
1336.678300
0
LINE
8
Calque 1
10
445.121140
20
1336.678300
11
444.343803
21
1335.186787
0
LINE
8
Calque 1
10
444.343803
20
1335.186787
11
443.756417
21
1334.395239
0
LINE
8
Calque 1
10
443.756417
20
1334.395239
11
442.951240
21
1333.621100
0
LINE
8
Calque 1
10
442.951240
20
1333.621100
11
441.954763
21
1332.960925
0
LINE
8
Calque 1
10
441.954763
20
1332.960925
11
440.908909
21
1332.503475
0
LINE
8
Calque 1
10
440.908909
20
1332.503475
11
438.853820
21
1332.090400
0
LINE
8
Calque 1
10
438.853820
20
1332.090400
11
436.883493
21
1332.175937
0
LINE
8
Calque 1
10
436.883493
20
1332.175937
11
435.329490
21
1332.459400
0
LINE
8
Calque 1
10
435.329490
20
1332.459400
11
434.550425
21
1332.578525
0
LINE
8
Calque 1
10
434.550425
20
1332.578525
11
433.329610
21
1332.953400
0
LINE
8
Calque 1
10
433.329610
20
1332.953400
11
431.506993
21
1333.995962
0
LINE
8
Calque 1
10
431.506993
20
1333.995962
11
429.927750
21
1335.396200
0
LINE
8
Calque 1
10
429.927750
20
1335.396200
11
428.580550
21
1337.096300
0
LINE
8
Calque 1
10
428.580550
20
1337.096300
11
427.836105
21
1338.120225
0
LINE
8
Calque 1
10
427.836105
20
1338.120225
11
427.059710
21
1339.404700
0
LINE
8
Calque 1
10
427.059710
20
1339.404700
11
426.308218
21
1341.053875
0
LINE
8
Calque 1
10
426.308218
20
1341.053875
11
425.707850
21
1342.741000
0
LINE
8
Calque 1
10
425.707850
20
1342.741000
11
424.761660
21
1346.294200
0
LINE
8
Calque 1
10
424.761660
20
1346.294200
11
424.549780
21
1347.040400
0
LINE
8
Calque 1
10
424.549780
20
1347.040400
11
423.945690
21
1350.396300
0
LINE
8
Calque 1
10
423.945690
20
1350.396300
11
423.935390
21
1350.463300
0
LINE
8
Calque 1
10
423.935390
20
1350.463300
11
423.775190
21
1351.206400
0
LINE
8
Calque 1
10
423.775190
20
1351.206400
11
423.760190
21
1351.345900
0
LINE
8
Calque 1
10
423.760190
20
1351.345900
11
422.707020
21
1351.171200
0
LINE
8
Calque 1
10
422.707020
20
1351.171200
11
419.804870
21
1350.527900
0
LINE
8
Calque 1
10
419.804870
20
1350.527900
11
418.853486
21
1350.535366
0
LINE
8
Calque 1
10
418.853486
20
1350.535366
11
418.008080
21
1350.894225
0
LINE
8
Calque 1
10
418.008080
20
1350.894225
11
417.358529
21
1351.543522
0
LINE
8
Calque 1
10
417.358529
20
1351.543522
11
416.994710
21
1352.422300
0
LINE
8
Calque 1
10
416.994710
20
1352.422300
11
416.995000
21
1352.430000
0
LINE
8
Calque 1
10
416.995000
20
1352.430000
11
417.002928
21
1353.382963
0
LINE
8
Calque 1
10
417.002928
20
1353.382963
11
417.363064
21
1354.229500
0
LINE
8
Calque 1
10
417.363064
20
1354.229500
11
418.014333
21
1354.879238
0
LINE
8
Calque 1
10
418.014333
20
1354.879238
11
418.895660
21
1355.241800
0
LINE
8
Calque 1
10
418.895660
20
1355.241800
11
421.784370
21
1355.882500
0
LINE
8
Calque 1
10
421.784370
20
1355.882500
11
424.296880
21
1356.300600
0
LINE
8
Calque 1
10
424.296880
20
1356.300600
11
424.538720
21
1356.343600
0
LINE
8
Calque 1
10
424.538720
20
1356.343600
11
424.931980
21
1356.587500
0
LINE
8
Calque 1
10
424.931980
20
1356.587500
11
425.792390
21
1356.767900
0
LINE
8
Calque 1
10
425.792390
20
1356.767900
11
426.445580
21
1356.684900
0
LINE
8
Calque 1
10
426.445580
20
1356.684900
11
426.481280
21
1356.694900
0
LINE
8
Calque 1
10
426.481280
20
1356.694900
11
427.199070
21
1356.901100
0
LINE
8
Calque 1
10
427.199070
20
1356.901100
11
429.821130
21
1357.506200
0
LINE
8
Calque 1
10
429.821130
20
1357.506200
11
430.705830
21
1357.652000
0
LINE
8
Calque 1
10
430.705830
20
1357.652000
11
430.690830
21
1358.012200
0
LINE
8
Calque 1
10
430.690830
20
1358.012200
11
430.652130
21
1359.375400
0
LINE
8
Calque 1
10
430.652130
20
1359.375400
11
430.782343
21
1361.643050
0
LINE
8
Calque 1
10
430.782343
20
1361.643050
11
431.030003
21
1362.843916
0
LINE
8
Calque 1
10
431.030003
20
1362.843916
11
431.459830
21
1364.069100
0
LINE
8
Calque 1
10
431.459830
20
1364.069100
11
432.511960
21
1365.828700
0
LINE
8
Calque 1
10
432.511960
20
1365.828700
11
432.974980
21
1366.331500
0
LINE
8
Calque 1
10
432.974980
20
1366.331500
11
433.414750
21
1366.843100
0
LINE
8
Calque 1
10
433.414750
20
1366.843100
11
435.026540
21
1368.218800
0
LINE
8
Calque 1
10
435.026540
20
1368.218800
11
435.444600
21
1368.513800
0
LINE
8
Calque 1
10
435.444600
20
1368.513800
11
436.521543
21
1369.037913
0
LINE
8
Calque 1
10
436.521543
20
1369.037913
11
437.371610
21
1369.323600
0
LINE
8
Calque 1
10
437.371610
20
1369.323600
11
438.659910
21
1369.684300
0
LINE
8
Calque 1
10
438.659910
20
1369.684300
11
439.283640
21
1369.784600
0
LINE
8
Calque 1
10
439.283640
20
1369.784600
11
439.963190
21
1369.910100
0
LINE
8
Calque 1
10
439.963190
20
1369.910100
11
441.177070
21
1369.998100
0
LINE
8
Calque 1
10
441.177070
20
1369.998100
11
441.176720
21
1369.992000
0
LINE
8
Calque 1
10
441.226320
20
1365.184500
11
440.648580
21
1365.151500
0
LINE
8
Calque 1
10
440.648580
20
1365.151500
11
440.105460
21
1365.048100
0
LINE
8
Calque 1
10
440.105460
20
1365.048100
11
439.627460
21
1364.976100
0
LINE
8
Calque 1
10
439.627460
20
1364.976100
11
438.833710
21
1364.743500
0
LINE
8
Calque 1
10
438.833710
20
1364.743500
11
437.992410
21
1364.428300
0
LINE
8
Calque 1
10
437.992410
20
1364.428300
11
437.779510
21
1364.277400
0
LINE
8
Calque 1
10
437.779510
20
1364.277400
11
436.932530
21
1363.566300
0
LINE
8
Calque 1
10
436.932530
20
1363.566300
11
436.552710
21
1363.120400
0
LINE
8
Calque 1
10
436.552710
20
1363.120400
11
436.261250
21
1362.811900
0
LINE
8
Calque 1
10
436.261250
20
1362.811900
11
435.865410
21
1362.147800
0
LINE
8
Calque 1
10
435.865410
20
1362.147800
11
435.562925
21
1360.942700
0
LINE
8
Calque 1
10
435.562925
20
1360.942700
11
435.471640
21
1359.374900
0
LINE
8
Calque 1
10
435.471640
20
1359.374900
11
435.467640
21
1359.374300
0
LINE
8
Calque 1
10
435.467640
20
1359.374300
11
435.482640
21
1358.433800
0
LINE
8
Calque 1
10
435.482640
20
1358.433800
11
435.544640
21
1358.445800
0
LINE
8
Calque 1
10
435.544640
20
1358.445800
11
438.190470
21
1358.833900
0
LINE
8
Calque 1
10
438.190470
20
1358.833900
11
438.846770
21
1358.955300
0
LINE
8
Calque 1
10
438.846770
20
1358.955300
11
440.841990
21
1359.075200
0
LINE
8
Calque 1
10
440.841990
20
1359.075200
11
441.302430
21
1359.090200
0
LINE
8
Calque 1
10
441.302430
20
1359.090200
11
441.902390
21
1359.032200
0
LINE
8
Calque 1
10
441.902390
20
1359.032200
11
442.662610
21
1358.856788
0
LINE
8
Calque 1
10
442.662610
20
1358.856788
11
443.176683
21
1358.462964
0
LINE
8
Calque 1
10
443.176683
20
1358.462964
11
443.697630
21
1357.649900
0
LINE
8
Calque 1
10
443.697630
20
1357.649900
11
444.031685
21
1356.709813
0
LINE
8
Calque 1
10
444.031685
20
1356.709813
11
444.163240
21
1355.975600
0
LINE
8
Calque 1
10
444.163240
20
1355.975600
11
444.345140
21
1354.843400
0
LINE
8
Calque 1
10
444.345140
20
1354.843400
11
444.427340
21
1354.379800
0
LINE
8
Calque 1
10
444.427340
20
1354.379800
11
444.478540
21
1354.119900
0
LINE
8
Calque 1
10
444.478540
20
1354.119900
11
444.520440
21
1353.876000
0
LINE
8
Calque 1
10
444.520440
20
1353.876000
11
444.539540
21
1353.751400
0
LINE
8
Calque 1
10
444.539540
20
1353.751400
11
444.549540
21
1353.660400
0
LINE
8
Calque 1
10
444.549540
20
1353.660400
11
444.559540
21
1353.517200
0
LINE
8
Calque 1
10
444.559540
20
1353.517200
11
444.560000
21
1353.440000
0
LINE
8
Calque 1
10
444.560000
20
1353.440000
11
444.644200
21
1352.857100
0
LINE
8
Calque 1
10
444.644200
20
1352.857100
11
444.980100
21
1350.994600
0
LINE
8
Calque 1
10
444.980100
20
1350.994600
11
445.315480
21
1349.267100
0
LINE
8
Calque 1
10
445.315480
20
1349.267100
11
446.173820
21
1349.417000
0
LINE
8
Calque 1
10
446.173820
20
1349.417000
11
448.389710
21
1349.693400
0
LINE
8
Calque 1
10
448.389710
20
1349.693400
11
449.137980
21
1349.761400
0
LINE
8
Calque 1
10
449.137980
20
1349.761400
11
449.127980
21
1349.942300
0
LINE
8
Calque 1
10
449.127980
20
1349.942300
11
449.044780
21
1350.988800
0
LINE
8
Calque 1
10
449.044780
20
1350.988800
11
449.027680
21
1351.367000
0
LINE
8
Calque 1
10
449.027680
20
1351.367000
11
448.953780
21
1351.806800
0
LINE
8
Calque 1
10
448.953780
20
1351.806800
11
448.819430
21
1352.963800
0
LINE
8
Calque 1
10
448.819430
20
1352.963800
11
448.769330
21
1353.329200
0
LINE
8
Calque 1
10
448.769330
20
1353.329200
11
448.738330
21
1353.441300
0
LINE
8
Calque 1
10
448.738330
20
1353.441300
11
448.706330
21
1353.608200
0
LINE
8
Calque 1
10
448.706330
20
1353.608200
11
448.627230
21
1354.084700
0
LINE
8
Calque 1
10
448.627230
20
1354.084700
11
448.531130
21
1354.809200
0
LINE
8
Calque 1
10
448.531130
20
1354.809200
11
448.267580
21
1356.047900
0
LINE
8
Calque 1
10
448.267580
20
1356.047900
11
447.935820
21
1357.137200
0
LINE
8
Calque 1
10
447.935820
20
1357.137200
11
447.240250
21
1359.168100
0
LINE
8
Calque 1
10
447.240250
20
1359.168100
11
446.691970
21
1360.577800
0
LINE
8
Calque 1
10
446.691970
20
1360.577800
11
446.117803
21
1362.182475
0
LINE
8
Calque 1
10
446.117803
20
1362.182475
11
445.699260
21
1363.140500
0
LINE
8
Calque 1
10
445.699260
20
1363.140500
11
444.665220
21
1364.171400
0
LINE
8
Calque 1
10
444.665220
20
1364.171400
11
444.426990
21
1364.400900
0
LINE
8
Calque 1
10
444.426990
20
1364.400900
11
444.087990
21
1364.625700
0
LINE
8
Calque 1
10
444.087990
20
1364.625700
11
443.729360
21
1364.890800
0
LINE
8
Calque 1
10
443.729360
20
1364.890800
11
443.074454
21
1365.094962
0
LINE
8
Calque 1
10
443.074454
20
1365.094962
11
442.052460
21
1365.180700
0
LINE
8
Calque 1
10
442.052460
20
1365.180700
11
441.227180
21
1365.190700
0
LINE
8
Calque 1
10
441.227180
20
1365.190700
11
441.226320
21
1365.184500
0
LINE
8
Calque 1
10
449.026880
20
1351.362100
11
449.031880
21
1351.338100
0
LINE
8
Calque 1
10
449.031880
20
1351.338100
11
449.026880
21
1351.362100
0
LINE
8
Calque 1
10
449.026880
20
1351.362100
11
449.026880
21
1351.362100
0
LINE
8
Calque 1
10
440.841850
20
1359.074800
11
440.919350
21
1359.074800
0
LINE
8
Calque 1
10
440.919350
20
1359.074800
11
440.910000
21
1359.080000
0
LINE
8
Calque 1
10
440.910000
20
1359.080000
11
440.842300
21
1359.080000
0
LINE
8
Calque 1
10
440.842300
20
1359.080000
11
440.841850
21
1359.074800
0
LINE
8
Calque 1
10
439.584050
20
1354.200700
11
439.465190
21
1354.190700
0
LINE
8
Calque 1
10
439.465190
20
1354.190700
11
439.020260
21
1354.101700
0
LINE
8
Calque 1
10
439.020260
20
1354.101700
11
436.318610
21
1353.704300
0
LINE
8
Calque 1
10
436.318610
20
1353.704300
11
435.808050
21
1353.601500
0
LINE
8
Calque 1
10
435.808050
20
1353.601500
11
435.807000
21
1353.600000
0
LINE
8
Calque 1
10
435.807000
20
1353.600000
11
435.841600
21
1353.191700
0
LINE
8
Calque 1
10
435.841600
20
1353.191700
11
436.071763
21
1350.977500
0
LINE
8
Calque 1
10
436.071763
20
1350.977500
11
436.407450
21
1348.992500
0
LINE
8
Calque 1
10
436.407450
20
1348.992500
11
436.740770
21
1347.918700
0
LINE
8
Calque 1
10
436.740770
20
1347.918700
11
437.177950
21
1347.967700
0
LINE
8
Calque 1
10
437.177950
20
1347.967700
11
437.720040
21
1348.075700
0
LINE
8
Calque 1
10
437.720040
20
1348.075700
11
439.286350
21
1348.292700
0
LINE
8
Calque 1
10
439.286350
20
1348.292700
11
439.409340
21
1348.333700
0
LINE
8
Calque 1
10
439.409340
20
1348.333700
11
439.545250
21
1348.368700
0
LINE
8
Calque 1
10
439.545250
20
1348.368700
11
440.555520
21
1348.569700
0
LINE
8
Calque 1
10
440.555520
20
1348.569700
11
440.255800
21
1350.112700
0
LINE
8
Calque 1
10
440.255800
20
1350.112700
11
439.893030
21
1352.136400
0
LINE
8
Calque 1
10
439.893030
20
1352.136400
11
439.687870
21
1353.587500
0
LINE
8
Calque 1
10
439.687870
20
1353.587500
11
439.687000
21
1353.610000
0
LINE
8
Calque 1
10
439.687000
20
1353.610000
11
439.614100
21
1354.013000
0
LINE
8
Calque 1
10
439.614100
20
1354.013000
11
439.584100
21
1354.197000
0
LINE
8
Calque 1
10
439.584100
20
1354.197000
11
439.584050
21
1354.200700
0
LINE
8
Calque 1
10
437.176960
20
1347.972200
11
437.158860
21
1347.962200
0
LINE
8
Calque 1
10
437.158860
20
1347.962200
11
437.176960
21
1347.972200
0
LINE
8
Calque 1
10
437.176960
20
1347.972200
11
437.176960
21
1347.972200
0
LINE
8
Calque 1
10
431.050720
20
1352.839600
11
430.696730
21
1352.781600
0
LINE
8
Calque 1
10
430.696730
20
1352.781600
11
428.482400
21
1352.269000
0
LINE
8
Calque 1
10
428.482400
20
1352.269000
11
428.487000
21
1352.270000
0
LINE
8
Calque 1
10
428.487000
20
1352.270000
11
428.505600
21
1352.051400
0
LINE
8
Calque 1
10
428.505600
20
1352.051400
11
428.575900
21
1351.838500
0
LINE
8
Calque 1
10
428.575900
20
1351.838500
11
428.611600
21
1351.671000
0
LINE
8
Calque 1
10
428.611600
20
1351.671000
11
428.702000
21
1351.045200
0
LINE
8
Calque 1
10
428.702000
20
1351.045200
11
429.213600
21
1348.177700
0
LINE
8
Calque 1
10
429.213600
20
1348.177700
11
429.391360
21
1347.564300
0
LINE
8
Calque 1
10
429.391360
20
1347.564300
11
430.285370
21
1344.186700
0
LINE
8
Calque 1
10
430.285370
20
1344.186700
11
431.325100
21
1341.606000
0
LINE
8
Calque 1
10
431.325100
20
1341.606000
11
432.438720
21
1339.950800
0
LINE
8
Calque 1
10
432.438720
20
1339.950800
11
433.442280
21
1338.664100
0
LINE
8
Calque 1
10
433.442280
20
1338.664100
11
434.329347
21
1337.892312
0
LINE
8
Calque 1
10
434.329347
20
1337.892312
11
435.239590
21
1337.354600
0
LINE
8
Calque 1
10
435.239590
20
1337.354600
11
436.196120
21
1337.177900
0
LINE
8
Calque 1
10
436.196120
20
1337.177900
11
437.558950
21
1336.942275
0
LINE
8
Calque 1
10
437.558950
20
1336.942275
11
438.529830
21
1336.876600
0
LINE
8
Calque 1
10
438.529830
20
1336.876600
11
439.336419
21
1336.997512
0
LINE
8
Calque 1
10
439.336419
20
1336.997512
11
439.940590
21
1337.356700
0
LINE
8
Calque 1
10
439.940590
20
1337.356700
11
440.780330
21
1338.722500
0
LINE
8
Calque 1
10
440.780330
20
1338.722500
11
441.255530
21
1339.854225
0
LINE
8
Calque 1
10
441.255530
20
1339.854225
11
441.467630
21
1340.865500
0
LINE
8
Calque 1
10
441.467630
20
1340.865500
11
441.369430
21
1342.723300
0
LINE
8
Calque 1
10
441.369430
20
1342.723300
11
441.270230
21
1343.825000
0
LINE
8
Calque 1
10
441.270230
20
1343.825000
11
441.260000
21
1343.830000
0
LINE
8
Calque 1
10
441.260000
20
1343.830000
11
441.089980
21
1343.776000
0
LINE
8
Calque 1
10
441.089980
20
1343.776000
11
440.960270
21
1343.742000
0
LINE
8
Calque 1
10
440.960270
20
1343.742000
11
440.803180
21
1343.708000
0
LINE
8
Calque 1
10
440.803180
20
1343.708000
11
440.326200
21
1343.613000
0
LINE
8
Calque 1
10
440.326200
20
1343.613000
11
438.479290
21
1343.351000
0
LINE
8
Calque 1
10
438.479290
20
1343.351000
11
437.897930
21
1343.235200
0
LINE
8
Calque 1
10
437.897930
20
1343.235200
11
437.408040
21
1343.179200
0
LINE
8
Calque 1
10
437.408040
20
1343.179200
11
436.380710
21
1342.862400
0
LINE
8
Calque 1
10
436.380710
20
1342.862400
11
436.061350
21
1342.736300
0
LINE
8
Calque 1
10
436.061350
20
1342.736300
11
435.460350
21
1342.642300
0
LINE
8
Calque 1
10
435.460350
20
1342.642300
11
434.867110
21
1342.699300
0
LINE
8
Calque 1
10
434.867110
20
1342.699300
11
434.017550
21
1343.074000
0
LINE
8
Calque 1
10
434.017550
20
1343.074000
11
433.361210
21
1343.695125
0
LINE
8
Calque 1
10
433.361210
20
1343.695125
11
433.116830
21
1344.215000
0
LINE
8
Calque 1
10
433.116830
20
1344.215000
11
433.032630
21
1344.366900
0
LINE
8
Calque 1
10
433.032630
20
1344.366900
11
432.374790
21
1345.816400
0
LINE
8
Calque 1
10
432.374790
20
1345.816400
11
431.731940
21
1347.909300
0
LINE
8
Calque 1
10
431.731940
20
1347.909300
11
431.300669
21
1350.406362
0
LINE
8
Calque 1
10
431.300669
20
1350.406362
11
431.061180
21
1352.747800
0
LINE
8
Calque 1
10
431.061180
20
1352.747800
11
431.051180
21
1352.848100
0
LINE
8
Calque 1
10
431.051180
20
1352.848100
11
431.050720
21
1352.839600
0
LINE
8
Calque 1
10
193.971000
20
2289.140000
11
192.885928
21
2288.880858
0
LINE
8
Calque 1
10
192.885928
20
2288.880858
11
192.035200
21
2288.159190
0
LINE
8
Calque 1
10
192.035200
20
2288.159190
11
190.450800
21
2285.984640
0
LINE
8
Calque 1
10
190.450800
20
2285.984640
11
188.863300
21
2283.730520
0
LINE
8
Calque 1
10
188.863300
20
2283.730520
11
188.372795
21
2283.414844
0
LINE
8
Calque 1
10
188.372795
20
2283.414844
11
188.186340
21
2283.210130
0
LINE
8
Calque 1
10
188.186340
20
2283.210130
11
187.766720
21
2282.567800
0
LINE
8
Calque 1
10
187.766720
20
2282.567800
11
187.734720
21
2282.463930
0
LINE
8
Calque 1
10
187.734720
20
2282.463930
11
187.335712
21
2281.882647
0
LINE
8
Calque 1
10
187.335712
20
2281.882647
11
186.808680
21
2280.644920
0
LINE
8
Calque 1
10
186.808680
20
2280.644920
11
186.808000
21
2280.650000
0
LINE
8
Calque 1
10
186.808000
20
2280.650000
11
186.754800
21
2280.296530
0
LINE
8
Calque 1
10
186.754800
20
2280.296530
11
186.472640
21
2279.850040
0
LINE
8
Calque 1
10
186.472640
20
2279.850040
11
185.946542
21
2278.874260
0
LINE
8
Calque 1
10
185.946542
20
2278.874260
11
185.976273
21
2278.820522
0
LINE
8
Calque 1
10
185.976273
20
2278.820522
11
186.168270
21
2279.090920
0
LINE
8
Calque 1
10
186.168270
20
2279.090920
11
185.936760
21
2278.698180
0
LINE
8
Calque 1
10
185.936760
20
2278.698180
11
185.937000
21
2278.690000
0
LINE
8
Calque 1
10
185.937000
20
2278.690000
11
185.756130
21
2278.432130
0
LINE
8
Calque 1
10
185.756130
20
2278.432130
11
185.728230
21
2278.334430
0
LINE
8
Calque 1
10
185.728230
20
2278.334430
11
185.538580
21
2278.108090
0
LINE
8
Calque 1
10
185.538580
20
2278.108090
11
184.949990
21
2277.485390
0
LINE
8
Calque 1
10
184.949990
20
2277.485390
11
184.544840
21
2276.740210
0
LINE
8
Calque 1
10
184.544840
20
2276.740210
11
183.958830
21
2275.864820
0
LINE
8
Calque 1
10
183.958830
20
2275.864820
11
183.151650
21
2274.201870
0
LINE
8
Calque 1
10
183.151650
20
2274.201870
11
182.743400
21
2273.315100
0
LINE
8
Calque 1
10
182.743400
20
2273.315100
11
182.004430
21
2272.265550
0
LINE
8
Calque 1
10
182.004430
20
2272.265550
11
181.407975
21
2271.248244
0
LINE
8
Calque 1
10
181.407975
20
2271.248244
11
181.315070
21
2270.918860
0
LINE
8
Calque 1
10
181.315070
20
2270.918860
11
181.336803
21
2271.012239
0
LINE
8
Calque 1
10
181.336803
20
2271.012239
11
181.204600
21
2270.886489
0
LINE
8
Calque 1
10
181.204600
20
2270.886489
11
180.575580
21
2270.001090
0
LINE
8
Calque 1
10
180.575580
20
2270.001090
11
180.335800
21
2269.604220
0
LINE
8
Calque 1
10
180.335800
20
2269.604220
11
179.671240
21
2268.845090
0
LINE
8
Calque 1
10
179.671240
20
2268.845090
11
179.041820
21
2267.798519
0
LINE
8
Calque 1
10
179.041820
20
2267.798519
11
178.760700
21
2267.147520
0
LINE
8
Calque 1
10
178.760700
20
2267.147520
11
178.789192
21
2267.226690
0
LINE
8
Calque 1
10
178.789192
20
2267.226690
11
178.734388
21
2267.163784
0
LINE
8
Calque 1
10
178.734388
20
2267.163784
11
178.406200
21
2266.593030
0
LINE
8
Calque 1
10
178.406200
20
2266.593030
11
177.896150
21
2265.509380
0
LINE
8
Calque 1
10
177.896150
20
2265.509380
11
177.654310
21
2264.779190
0
LINE
8
Calque 1
10
177.654310
20
2264.779190
11
177.533900
21
2264.525970
0
LINE
8
Calque 1
10
177.533900
20
2264.525970
11
177.534000
21
2264.520000
0
LINE
8
Calque 1
10
177.534000
20
2264.520000
11
177.452400
21
2264.298830
0
LINE
8
Calque 1
10
177.452400
20
2264.298830
11
176.997130
21
2263.606360
0
LINE
8
Calque 1
10
176.997130
20
2263.606360
11
176.570290
21
2262.789360
0
LINE
8
Calque 1
10
176.570290
20
2262.789360
11
176.507190
21
2262.695860
0
LINE
8
Calque 1
10
176.507190
20
2262.695860
11
176.114882
21
2261.945778
0
LINE
8
Calque 1
10
176.114882
20
2261.945778
11
176.001800
21
2261.517640
0
LINE
8
Calque 1
10
176.001800
20
2261.517640
11
175.747550
21
2260.912510
0
LINE
8
Calque 1
10
175.747550
20
2260.912510
11
175.748000
21
2260.910000
0
LINE
8
Calque 1
10
175.748000
20
2260.910000
11
175.497370
21
2260.039250
0
LINE
8
Calque 1
10
175.497370
20
2260.039250
11
175.420370
21
2259.882150
0
LINE
8
Calque 1
10
175.420370
20
2259.882150
11
175.184210
21
2259.383990
0
LINE
8
Calque 1
10
175.184210
20
2259.383990
11
175.087110
21
2259.089950
0
LINE
8
Calque 1
10
175.087110
20
2259.089950
11
174.862830
21
2258.708580
0
LINE
8
Calque 1
10
174.862830
20
2258.708580
11
174.548532
21
2258.044147
0
LINE
8
Calque 1
10
174.548532
20
2258.044147
11
174.647860
21
2258.158230
0
LINE
8
Calque 1
10
174.647860
20
2258.158230
11
174.099050
21
2257.253370
0
LINE
8
Calque 1
10
174.099050
20
2257.253370
11
173.041750
21
2255.203370
0
LINE
8
Calque 1
10
173.041750
20
2255.203370
11
171.829940
21
2253.192640
0
LINE
8
Calque 1
10
171.829940
20
2253.192640
11
170.434160
21
2250.779870
0
LINE
8
Calque 1
10
170.434160
20
2250.779870
11
169.429050
21
2249.264710
0
LINE
8
Calque 1
10
169.429050
20
2249.264710
11
169.341150
21
2249.168610
0
LINE
8
Calque 1
10
169.341150
20
2249.168610
11
168.966500
21
2248.763470
0
LINE
8
Calque 1
10
168.966500
20
2248.763470
11
168.269900
21
2247.760950
0
LINE
8
Calque 1
10
168.269900
20
2247.760950
11
167.703010
21
2246.697960
0
LINE
8
Calque 1
10
167.703010
20
2246.697960
11
166.954555
21
2245.709119
0
LINE
8
Calque 1
10
166.954555
20
2245.709119
11
165.984250
21
2244.172020
0
LINE
8
Calque 1
10
165.984250
20
2244.172020
11
165.827160
21
2243.799950
0
LINE
8
Calque 1
10
165.827160
20
2243.799950
11
165.354320
21
2243.088370
0
LINE
8
Calque 1
10
165.354320
20
2243.088370
11
164.937290
21
2242.081710
0
LINE
8
Calque 1
10
164.937290
20
2242.081710
11
164.834450
21
2241.951480
0
LINE
8
Calque 1
10
164.834450
20
2241.951480
11
164.201420
21
2241.050250
0
LINE
8
Calque 1
10
164.201420
20
2241.050250
11
163.498272
21
2239.566662
0
LINE
8
Calque 1
10
163.498272
20
2239.566662
11
163.055750
21
2238.517580
0
LINE
8
Calque 1
10
163.055750
20
2238.517580
11
161.667720
21
2235.708970
0
LINE
8
Calque 1
10
161.667720
20
2235.708970
11
161.229510
21
2234.599480
0
LINE
8
Calque 1
10
161.229510
20
2234.599480
11
160.547890
21
2233.354080
0
LINE
8
Calque 1
10
160.547890
20
2233.354080
11
159.506610
21
2231.375390
0
LINE
8
Calque 1
10
159.506610
20
2231.375390
11
158.427305
21
2229.970496
0
LINE
8
Calque 1
10
158.427305
20
2229.970496
11
157.151200
21
2228.205040
0
LINE
8
Calque 1
10
157.151200
20
2228.205040
11
156.428882
21
2226.871757
0
LINE
8
Calque 1
10
156.428882
20
2226.871757
11
156.034990
21
2226.051160
0
LINE
8
Calque 1
10
156.034990
20
2226.051160
11
155.785910
21
2225.665140
0
LINE
8
Calque 1
10
155.785910
20
2225.665140
11
155.736310
21
2225.605240
0
LINE
8
Calque 1
10
155.736310
20
2225.605240
11
155.760110
21
2225.625940
0
LINE
8
Calque 1
10
155.760110
20
2225.625940
11
155.686210
21
2225.511210
0
LINE
8
Calque 1
10
155.686210
20
2225.511210
11
155.697110
21
2225.557710
0
LINE
8
Calque 1
10
155.697110
20
2225.557710
11
155.553960
21
2225.384600
0
LINE
8
Calque 1
10
155.553960
20
2225.384600
11
155.435110
21
2225.195460
0
LINE
8
Calque 1
10
155.435110
20
2225.195460
11
155.116260
21
2224.609970
0
LINE
8
Calque 1
10
155.116260
20
2224.609970
11
154.534900
21
2223.482390
0
LINE
8
Calque 1
10
154.534900
20
2223.482390
11
153.475020
21
2222.216830
0
LINE
8
Calque 1
10
153.475020
20
2222.216830
11
153.017680
21
2221.351250
0
LINE
8
Calque 1
10
153.017680
20
2221.351250
11
152.908984
21
2221.120911
0
LINE
8
Calque 1
10
152.908984
20
2221.120911
11
152.940680
21
2221.161600
0
LINE
8
Calque 1
10
152.940680
20
2221.161600
11
152.263200
21
2220.144610
0
LINE
8
Calque 1
10
152.263200
20
2220.144610
11
151.115460
21
2218.634620
0
LINE
8
Calque 1
10
151.115460
20
2218.634620
11
150.173250
21
2217.649709
0
LINE
8
Calque 1
10
150.173250
20
2217.649709
11
149.057190
21
2216.294200
0
LINE
8
Calque 1
10
149.057190
20
2216.294200
11
148.793640
21
2215.876130
0
LINE
8
Calque 1
10
148.793640
20
2215.876130
11
148.519760
21
2215.567620
0
LINE
8
Calque 1
10
148.519760
20
2215.567620
11
148.105830
21
2214.893760
0
LINE
8
Calque 1
10
148.105830
20
2214.893760
11
147.504723
21
2213.541348
0
LINE
8
Calque 1
10
147.504723
20
2213.541348
11
147.266090
21
2212.729550
0
LINE
8
Calque 1
10
147.266090
20
2212.729550
11
147.322620
21
2212.957039
0
LINE
8
Calque 1
10
147.322620
20
2212.957039
11
147.054730
21
2212.341460
0
LINE
8
Calque 1
10
147.054730
20
2212.341460
11
146.082700
21
2209.174220
0
LINE
8
Calque 1
10
146.082700
20
2209.174220
11
144.948920
21
2206.492730
0
LINE
8
Calque 1
10
144.948920
20
2206.492730
11
144.736520
21
2205.688640
0
LINE
8
Calque 1
10
144.736520
20
2205.688640
11
143.603780
21
2203.493940
0
LINE
8
Calque 1
10
143.603780
20
2203.493940
11
142.750080
21
2201.579330
0
LINE
8
Calque 1
10
142.750080
20
2201.579330
11
142.713380
21
2201.498730
0
LINE
8
Calque 1
10
142.713380
20
2201.498730
11
142.700480
21
2201.486830
0
LINE
8
Calque 1
10
142.700480
20
2201.486830
11
142.165120
21
2200.716850
0
LINE
8
Calque 1
10
142.165120
20
2200.716850
11
141.634385
21
2199.675525
0
LINE
8
Calque 1
10
141.634385
20
2199.675525
11
141.534150
21
2199.344330
0
LINE
8
Calque 1
10
141.534150
20
2199.344330
11
141.003950
21
2198.412080
0
LINE
8
Calque 1
10
141.003950
20
2198.412080
11
140.562907
21
2197.510209
0
LINE
8
Calque 1
10
140.562907
20
2197.510209
11
140.152840
21
2196.387920
0
LINE
8
Calque 1
10
140.152840
20
2196.387920
11
140.082540
21
2196.132120
0
LINE
8
Calque 1
10
140.082540
20
2196.132120
11
139.938360
21
2195.860820
0
LINE
8
Calque 1
10
139.938360
20
2195.860820
11
139.484740
21
2194.769169
0
LINE
8
Calque 1
10
139.484740
20
2194.769169
11
139.314620
21
2194.212860
0
LINE
8
Calque 1
10
139.314620
20
2194.212860
11
138.704840
21
2192.903370
0
LINE
8
Calque 1
10
138.704840
20
2192.903370
11
137.659430
21
2189.971770
0
LINE
8
Calque 1
10
137.659430
20
2189.971770
11
135.177930
21
2184.967430
0
LINE
8
Calque 1
10
135.177930
20
2184.967430
11
135.178000
21
2184.970000
0
LINE
8
Calque 1
10
135.178000
20
2184.970000
11
134.303441
21
2184.174551
0
LINE
8
Calque 1
10
134.303441
20
2184.174551
11
133.821008
21
2183.403929
0
LINE
8
Calque 1
10
133.821008
20
2183.403929
11
133.396190
21
2182.002220
0
LINE
8
Calque 1
10
133.396190
20
2182.002220
11
132.909400
21
2180.323260
0
LINE
8
Calque 1
10
132.909400
20
2180.323260
11
132.466530
21
2179.530020
0
LINE
8
Calque 1
10
132.466530
20
2179.530020
11
131.576150
21
2178.194700
0
LINE
8
Calque 1
10
131.576150
20
2178.194700
11
131.244900
21
2177.859840
0
LINE
8
Calque 1
10
131.244900
20
2177.859840
11
131.157100
21
2177.744090
0
LINE
8
Calque 1
10
131.157100
20
2177.744090
11
130.525100
21
2176.795820
0
LINE
8
Calque 1
10
130.525100
20
2176.795820
11
130.192820
21
2176.244950
0
LINE
8
Calque 1
10
130.192820
20
2176.244950
11
130.004200
21
2176.015510
0
LINE
8
Calque 1
10
130.004200
20
2176.015510
11
128.249790
21
2173.881270
0
LINE
8
Calque 1
10
128.249790
20
2173.881270
11
127.411395
21
2173.024890
0
LINE
8
Calque 1
10
127.411395
20
2173.024890
11
126.458160
21
2171.866410
0
LINE
8
Calque 1
10
126.458160
20
2171.866410
11
124.305840
21
2168.838170
0
LINE
8
Calque 1
10
124.305840
20
2168.838170
11
123.958526
21
2168.245326
0
LINE
8
Calque 1
10
123.958526
20
2168.245326
11
124.071750
21
2168.353440
0
LINE
8
Calque 1
10
124.071750
20
2168.353440
11
123.759620
21
2168.011350
0
LINE
8
Calque 1
10
123.759620
20
2168.011350
11
123.592710
21
2167.791720
0
LINE
8
Calque 1
10
123.592710
20
2167.791720
11
123.267660
21
2167.309060
0
LINE
8
Calque 1
10
123.267660
20
2167.309060
11
122.200030
21
2165.568080
0
LINE
8
Calque 1
10
122.200030
20
2165.568080
11
120.661620
21
2163.287090
0
LINE
8
Calque 1
10
120.661620
20
2163.287090
11
120.356210
21
2162.671620
0
LINE
8
Calque 1
10
120.356210
20
2162.671620
11
119.211580
21
2160.951830
0
LINE
8
Calque 1
10
119.211580
20
2160.951830
11
118.271960
21
2159.920061
0
LINE
8
Calque 1
10
118.271960
20
2159.920061
11
117.120750
21
2158.531300
0
LINE
8
Calque 1
10
117.120750
20
2158.531300
11
116.726663
21
2157.924459
0
LINE
8
Calque 1
10
116.726663
20
2157.924459
11
116.673750
21
2157.790260
0
LINE
8
Calque 1
10
116.673750
20
2157.790260
11
114.724510
21
2155.506170
0
LINE
8
Calque 1
10
114.724510
20
2155.506170
11
114.252710
21
2154.800780
0
LINE
8
Calque 1
10
114.252710
20
2154.800780
11
113.957120
21
2154.386860
0
LINE
8
Calque 1
10
113.957120
20
2154.386860
11
112.836260
21
2153.085130
0
LINE
8
Calque 1
10
112.836260
20
2153.085130
11
112.409410
21
2152.498080
0
LINE
8
Calque 1
10
112.409410
20
2152.498080
11
112.005300
21
2151.536900
0
LINE
8
Calque 1
10
112.005300
20
2151.536900
11
111.993403
21
2151.469368
0
LINE
8
Calque 1
10
111.993403
20
2151.469368
11
112.019021
21
2151.561295
0
LINE
8
Calque 1
10
112.019021
20
2151.561295
11
112.106070
21
2151.849030
0
LINE
8
Calque 1
10
112.106070
20
2151.849030
11
112.129532
21
2151.904320
0
LINE
8
Calque 1
10
112.129532
20
2151.904320
11
112.043570
21
2151.756030
0
LINE
8
Calque 1
10
112.043570
20
2151.756030
11
112.032359
21
2151.754519
0
LINE
8
Calque 1
10
112.032359
20
2151.754519
11
111.849780
21
2151.513150
0
LINE
8
Calque 1
10
111.849780
20
2151.513150
11
111.421390
21
2150.975710
0
LINE
8
Calque 1
10
111.421390
20
2150.975710
11
110.925290
21
2150.311670
0
LINE
8
Calque 1
10
110.925290
20
2150.311670
11
110.839990
21
2150.191270
0
LINE
8
Calque 1
10
110.839990
20
2150.191270
11
110.720610
21
2149.994900
0
LINE
8
Calque 1
10
110.720610
20
2149.994900
11
110.561970
21
2149.629540
0
LINE
8
Calque 1
10
110.561970
20
2149.629540
11
110.411590
21
2149.478650
0
LINE
8
Calque 1
10
110.411590
20
2149.478650
11
110.226590
21
2149.232670
0
LINE
8
Calque 1
10
110.226590
20
2149.232670
11
109.795610
21
2148.516950
0
LINE
8
Calque 1
10
109.795610
20
2148.516950
11
106.241820
21
2142.033110
0
LINE
8
Calque 1
10
106.241820
20
2142.033110
11
105.059980
21
2139.288060
0
LINE
8
Calque 1
10
105.059980
20
2139.288060
11
105.074801
21
2139.346148
0
LINE
8
Calque 1
10
105.074801
20
2139.346148
11
104.970752
21
2139.240214
0
LINE
8
Calque 1
10
104.970752
20
2139.240214
11
104.500840
21
2138.481390
0
LINE
8
Calque 1
10
104.500840
20
2138.481390
11
103.856677
21
2136.991524
0
LINE
8
Calque 1
10
103.856677
20
2136.991524
11
103.467830
21
2135.954410
0
LINE
8
Calque 1
10
103.467830
20
2135.954410
11
102.960880
21
2134.957570
0
LINE
8
Calque 1
10
102.960880
20
2134.957570
11
102.747460
21
2134.373110
0
LINE
8
Calque 1
10
102.747460
20
2134.373110
11
102.633770
21
2133.903890
0
LINE
8
Calque 1
10
102.633770
20
2133.903890
11
102.576970
21
2133.797950
0
LINE
8
Calque 1
10
102.576970
20
2133.797950
11
97.069810
21
2123.865220
0
LINE
8
Calque 1
10
97.069810
20
2123.865220
11
96.634180
21
2123.201180
0
LINE
8
Calque 1
10
96.634180
20
2123.201180
11
95.249770
21
2120.584290
0
LINE
8
Calque 1
10
95.249770
20
2120.584290
11
94.314940
21
2119.121330
0
LINE
8
Calque 1
10
94.314940
20
2119.121330
11
94.003784
21
2118.517275
0
LINE
8
Calque 1
10
94.003784
20
2118.517275
11
93.973360
21
2118.405610
0
LINE
8
Calque 1
10
93.973360
20
2118.405610
11
91.813800
21
2115.667790
0
LINE
8
Calque 1
10
91.813800
20
2115.667790
11
90.656760
21
2114.184160
0
LINE
8
Calque 1
10
90.656760
20
2114.184160
11
89.913604
21
2113.446169
0
LINE
8
Calque 1
10
89.913604
20
2113.446169
11
88.898730
21
2112.225620
0
LINE
8
Calque 1
10
88.898730
20
2112.225620
11
88.376280
21
2111.316640
0
LINE
8
Calque 1
10
88.376280
20
2111.316640
11
88.062090
21
2110.968850
0
LINE
8
Calque 1
10
88.062090
20
2110.968850
11
87.796990
21
2110.479480
0
LINE
8
Calque 1
10
87.796990
20
2110.479480
11
87.672450
21
2110.264500
0
LINE
8
Calque 1
10
87.672450
20
2110.264500
11
87.548940
21
2110.056250
0
LINE
8
Calque 1
10
87.548940
20
2110.056250
11
87.300890
21
2109.588580
0
LINE
8
Calque 1
10
87.300890
20
2109.588580
11
87.012500
21
2108.971520
0
LINE
8
Calque 1
10
87.012500
20
2108.971520
11
87.165500
21
2109.205650
0
LINE
8
Calque 1
10
87.165500
20
2109.205650
11
86.031720
21
2107.204230
0
LINE
8
Calque 1
10
86.031720
20
2107.204230
11
85.622974
21
2106.094365
0
LINE
8
Calque 1
10
85.622974
20
2106.094365
11
85.586788
21
2105.788290
0
LINE
8
Calque 1
10
85.586788
20
2105.788290
11
83.619988
21
2102.140970
0
LINE
8
Calque 1
10
83.619988
20
2102.140970
11
83.088550
21
2101.087287
0
LINE
8
Calque 1
10
83.088550
20
2101.087287
11
83.061401
21
2100.909840
0
LINE
8
Calque 1
10
83.061401
20
2100.909840
11
83.145082
21
2100.988070
0
LINE
8
Calque 1
10
83.145082
20
2100.988070
11
82.063702
21
2099.374289
0
LINE
8
Calque 1
10
82.063702
20
2099.374289
11
80.846512
21
2097.282870
0
LINE
8
Calque 1
10
80.846512
20
2097.282870
11
79.718412
21
2094.384340
0
LINE
8
Calque 1
10
79.718412
20
2094.384340
11
79.057471
21
2092.827840
0
LINE
8
Calque 1
10
79.057471
20
2092.827840
11
78.792371
21
2092.174140
0
LINE
8
Calque 1
10
78.792371
20
2092.174140
11
78.729321
21
2091.944690
0
LINE
8
Calque 1
10
78.729321
20
2091.944690
11
78.657491
21
2091.652720
0
LINE
8
Calque 1
10
78.657491
20
2091.652720
11
77.896814
21
2089.728810
0
LINE
8
Calque 1
10
77.896814
20
2089.728810
11
77.832224
21
2089.641510
0
LINE
8
Calque 1
10
77.832224
20
2089.641510
11
77.404860
21
2088.804870
0
LINE
8
Calque 1
10
77.404860
20
2088.804870
11
77.290138
21
2088.406450
0
LINE
8
Calque 1
10
77.290138
20
2088.406450
11
76.773374
21
2087.484020
0
LINE
8
Calque 1
10
76.773374
20
2087.484020
11
76.472624
21
2086.660012
0
LINE
8
Calque 1
10
76.472624
20
2086.660012
11
76.646766
21
2087.001880
0
LINE
8
Calque 1
10
76.646766
20
2087.001880
11
76.193047
21
2085.995220
0
LINE
8
Calque 1
10
76.193047
20
2085.995220
11
75.774468
21
2085.479490
0
LINE
8
Calque 1
10
75.774468
20
2085.479490
11
75.581198
21
2085.122930
0
LINE
8
Calque 1
10
75.581198
20
2085.122930
11
75.105775
21
2084.599440
0
LINE
8
Calque 1
10
75.105775
20
2084.599440
11
74.729571
21
2084.012400
0
LINE
8
Calque 1
10
74.729571
20
2084.012400
11
73.185481
21
2082.372190
0
LINE
8
Calque 1
10
73.185481
20
2082.372190
11
73.333017
21
2082.549336
0
LINE
8
Calque 1
10
73.333017
20
2082.549336
11
73.290034
21
2082.519459
0
LINE
8
Calque 1
10
73.290034
20
2082.519459
11
72.919347
21
2082.194940
0
LINE
8
Calque 1
10
72.919347
20
2082.194940
11
72.441340
21
2081.801680
0
LINE
8
Calque 1
10
72.441340
20
2081.801680
11
72.121037
21
2081.530275
0
LINE
8
Calque 1
10
72.121037
20
2081.530275
11
71.667227
21
2080.787270
0
LINE
8
Calque 1
10
71.667227
20
2080.787270
11
70.892598
21
2078.802900
0
LINE
8
Calque 1
10
70.892598
20
2078.802900
11
69.896793
21
2078.709900
0
LINE
8
Calque 1
10
69.896793
20
2078.709900
11
69.703006
21
2078.740900
0
LINE
8
Calque 1
10
69.703006
20
2078.740900
11
68.599196
21
2079.057160
0
LINE
8
Calque 1
10
68.599196
20
2079.057160
11
67.743952
21
2079.171880
0
LINE
8
Calque 1
10
67.743952
20
2079.171880
11
64.604092
21
2079.762540
0
LINE
8
Calque 1
10
64.604092
20
2079.762540
11
62.978353
21
2079.817015
0
LINE
8
Calque 1
10
62.978353
20
2079.817015
11
62.022852
21
2079.774440
0
LINE
8
Calque 1
10
62.022852
20
2079.774440
11
60.088602
21
2080.007500
0
LINE
8
Calque 1
10
60.088602
20
2080.007500
11
58.059272
21
2080.097900
0
LINE
8
Calque 1
10
58.059272
20
2080.097900
11
56.368422
21
2080.309770
0
LINE
8
Calque 1
10
56.368422
20
2080.309770
11
53.630299
21
2080.356782
0
LINE
8
Calque 1
10
53.630299
20
2080.356782
11
51.234372
21
2080.364570
0
LINE
8
Calque 1
10
51.234372
20
2080.364570
11
49.526982
21
2080.622950
0
LINE
8
Calque 1
10
49.526982
20
2080.622950
11
49.522400
21
2080.620000
0
LINE
8
Calque 1
10
49.522400
20
2080.620000
11
48.931221
21
2080.630000
0
LINE
8
Calque 1
10
48.931221
20
2080.630000
11
48.359163
21
2080.691000
0
LINE
8
Calque 1
10
48.359163
20
2080.691000
11
47.573195
21
2080.816485
0
LINE
8
Calque 1
10
47.573195
20
2080.816485
11
46.571163
21
2080.873420
0
LINE
8
Calque 1
10
46.571163
20
2080.873420
11
45.120222
21
2080.742880
0
LINE
8
Calque 1
10
45.120222
20
2080.742880
11
44.000263
21
2080.553540
0
LINE
8
Calque 1
10
44.000263
20
2080.553540
11
41.685163
21
2080.446050
0
LINE
8
Calque 1
10
41.685163
20
2080.446050
11
39.575213
21
2080.499250
0
LINE
8
Calque 1
10
39.575213
20
2080.499250
11
37.184663
21
2080.489250
0
LINE
8
Calque 1
10
37.184663
20
2080.489250
11
37.307573
21
2080.490514
0
LINE
8
Calque 1
10
37.307573
20
2080.490514
11
37.235532
21
2080.523360
0
LINE
8
Calque 1
10
37.235532
20
2080.523360
11
36.499434
21
2080.624130
0
LINE
8
Calque 1
10
36.499434
20
2080.624130
11
34.250994
21
2080.602930
0
LINE
8
Calque 1
10
34.250994
20
2080.602930
11
32.455842
21
2080.407210
0
LINE
8
Calque 1
10
32.455842
20
2080.407210
11
31.190714
21
2080.227240
0
LINE
8
Calque 1
10
31.190714
20
2080.227240
11
28.808434
21
2080.117170
0
LINE
8
Calque 1
10
28.808434
20
2080.117170
11
24.889294
21
2079.632450
0
LINE
8
Calque 1
10
24.889294
20
2079.632450
11
21.362889
21
2079.478637
0
LINE
8
Calque 1
10
21.362889
20
2079.478637
11
17.547104
21
2079.372000
0
LINE
8
Calque 1
10
17.547104
20
2079.372000
11
15.124118
21
2079.211345
0
LINE
8
Calque 1
10
15.124118
20
2079.211345
11
12.936534
21
2079.160640
0
LINE
8
Calque 1
10
12.936534
20
2079.160640
11
12.911724
21
2079.160640
0
LINE
8
Calque 1
10
12.911724
20
2079.160640
11
12.544822
21
2079.170640
0
LINE
8
Calque 1
10
12.544822
20
2079.170640
11
12.402711
21
2079.191840
0
LINE
8
Calque 1
10
12.402711
20
2079.191840
11
11.667873
21
2079.191840
0
LINE
8
Calque 1
10
11.667873
20
2079.191840
11
10.997629
21
2079.083320
0
LINE
8
Calque 1
10
10.997629
20
2079.083320
11
10.420920
21
2078.967040
0
LINE
8
Calque 1
10
10.420920
20
2078.967040
11
10.101043
21
2078.884840
0
LINE
8
Calque 1
10
10.101043
20
2078.884840
11
9.939812
21
2078.828040
0
LINE
8
Calque 1
10
9.939812
20
2078.828040
11
9.761012
21
2078.750040
0
LINE
8
Calque 1
10
9.761012
20
2078.750040
11
9.341399
21
2078.489590
0
LINE
8
Calque 1
10
9.341399
20
2078.489590
11
9.091802
21
2078.234830
0
LINE
8
Calque 1
10
9.091802
20
2078.234830
11
8.952276
21
2078.093230
0
LINE
8
Calque 1
10
8.952276
20
2078.093230
11
8.885096
21
2078.024530
0
LINE
8
Calque 1
10
8.885096
20
2078.024530
11
8.850476
21
2077.920670
0
LINE
8
Calque 1
10
8.850476
20
2077.920670
11
8.617415
21
2077.528440
0
LINE
8
Calque 1
10
8.617415
20
2077.528440
11
8.388057
21
2076.951980
0
LINE
8
Calque 1
10
8.388057
20
2076.951980
11
8.413294
21
2076.894370
0
LINE
8
Calque 1
10
8.413294
20
2076.894370
11
8.554887
21
2077.235440
0
LINE
8
Calque 1
10
8.554887
20
2077.235440
11
8.623097
21
2077.466950
0
LINE
8
Calque 1
10
8.623097
20
2077.466950
11
8.795696
21
2077.759430
0
LINE
8
Calque 1
10
8.795696
20
2077.759430
11
8.489255
21
2076.848380
0
LINE
8
Calque 1
10
8.489255
20
2076.848380
11
8.497055
21
2076.956380
0
LINE
8
Calque 1
10
8.497055
20
2076.956380
11
8.366831
21
2075.732170
0
LINE
8
Calque 1
10
8.366831
20
2075.732170
11
8.407651
21
2075.615900
0
LINE
8
Calque 1
10
8.407651
20
2075.615900
11
8.407651
21
2074.422170
0
LINE
8
Calque 1
10
8.407651
20
2074.422170
11
8.333751
21
2072.481200
0
LINE
8
Calque 1
10
8.333751
20
2072.481200
11
8.560094
21
2069.347550
0
LINE
8
Calque 1
10
8.560094
20
2069.347550
11
8.655174
21
2067.596230
0
LINE
8
Calque 1
10
8.655174
20
2067.596230
11
8.851574
21
2065.788135
0
LINE
8
Calque 1
10
8.851574
20
2065.788135
11
8.917174
21
2064.452240
0
LINE
8
Calque 1
10
8.917174
20
2064.452240
11
8.848223
21
2064.314888
0
LINE
8
Calque 1
10
8.848223
20
2064.314888
11
8.706334
21
2063.420260
0
LINE
8
Calque 1
10
8.706334
20
2063.420260
11
8.574042
21
2062.350040
0
LINE
8
Calque 1
10
8.574042
20
2062.350040
11
8.248481
21
2060.793030
0
LINE
8
Calque 1
10
8.248481
20
2060.793030
11
8.071747
21
2057.529150
0
LINE
8
Calque 1
10
8.071747
20
2057.529150
11
7.807164
21
2055.599030
0
LINE
8
Calque 1
10
7.807164
20
2055.599030
11
7.734796
21
2054.895715
0
LINE
8
Calque 1
10
7.734796
20
2054.895715
11
7.818534
21
2053.566600
0
LINE
8
Calque 1
10
7.818534
20
2053.566600
11
7.996817
21
2052.495340
0
LINE
8
Calque 1
10
7.996817
20
2052.495340
11
7.852640
21
2050.571430
0
LINE
8
Calque 1
10
7.852640
20
2050.571430
11
7.905350
21
2049.143090
0
LINE
8
Calque 1
10
7.905350
20
2049.143090
11
7.633015
21
2047.786070
0
LINE
8
Calque 1
10
7.633015
20
2047.786070
11
7.588068
21
2047.098713
0
LINE
8
Calque 1
10
7.588068
20
2047.098713
11
7.616995
21
2047.058980
0
LINE
8
Calque 1
10
7.616995
20
2047.058980
11
7.433027
21
2045.975330
0
LINE
8
Calque 1
10
7.433027
20
2045.975330
11
7.322439
21
2044.169240
0
LINE
8
Calque 1
10
7.322439
20
2044.169240
11
7.182339
21
2043.986082
0
LINE
8
Calque 1
10
7.182339
20
2043.986082
11
6.875438
21
2042.810150
0
LINE
8
Calque 1
10
6.875438
20
2042.810150
11
6.795671
21
2041.590523
0
LINE
8
Calque 1
10
6.795671
20
2041.590523
11
6.909107
21
2040.619978
0
LINE
8
Calque 1
10
6.909107
20
2040.619978
11
7.200483
21
2039.471330
0
LINE
8
Calque 1
10
7.200483
20
2039.471330
11
7.251196
21
2036.754095
0
LINE
8
Calque 1
10
7.251196
20
2036.754095
11
7.132783
21
2032.391660
0
LINE
8
Calque 1
10
7.132783
20
2032.391660
11
6.936412
21
2028.382090
0
LINE
8
Calque 1
10
6.936412
20
2028.382090
11
6.845462
21
2026.046310
0
LINE
8
Calque 1
10
6.845462
20
2026.046310
11
6.765362
21
2025.475800
0
LINE
8
Calque 1
10
6.765362
20
2025.475800
11
6.745722
21
2025.427200
0
LINE
8
Calque 1
10
6.745722
20
2025.427200
11
6.842352
21
2023.968890
0
LINE
8
Calque 1
10
6.842352
20
2023.968890
11
7.089712
21
2022.869198
0
LINE
8
Calque 1
10
7.089712
20
2022.869198
11
7.154560
21
2022.809274
0
LINE
8
Calque 1
10
7.154560
20
2022.809274
11
7.191685
21
2023.037680
0
LINE
8
Calque 1
10
7.191685
20
2023.037680
11
7.161715
21
2019.071000
0
LINE
8
Calque 1
10
7.161715
20
2019.071000
11
7.210805
21
2014.083650
0
LINE
8
Calque 1
10
7.210805
20
2014.083650
11
7.564272
21
2009.820380
0
LINE
8
Calque 1
10
7.564272
20
2009.820380
11
7.534812
21
2009.659180
0
LINE
8
Calque 1
10
7.534812
20
2009.659180
11
7.534812
21
2009.473080
0
LINE
8
Calque 1
10
7.534812
20
2009.473080
11
7.608712
21
2008.655580
0
LINE
8
Calque 1
10
7.608712
20
2008.655580
11
7.704825
21
2007.999155
0
LINE
8
Calque 1
10
7.704825
20
2007.999155
11
7.739971
21
2008.145080
0
LINE
8
Calque 1
10
7.739971
20
2008.145080
11
7.625406
21
2007.335717
0
LINE
8
Calque 1
10
7.625406
20
2007.335717
11
7.548251
21
2005.840780
0
LINE
8
Calque 1
10
7.548251
20
2005.840780
11
7.631152
21
2004.919255
0
LINE
8
Calque 1
10
7.631152
20
2004.919255
11
7.672938
21
2004.778077
0
LINE
8
Calque 1
10
7.672938
20
2004.778077
11
7.690878
21
2004.855280
0
LINE
8
Calque 1
10
7.690878
20
2004.855280
11
7.549285
21
2003.448180
0
LINE
8
Calque 1
10
7.549285
20
2003.448180
11
7.351364
21
2000.978080
0
LINE
8
Calque 1
10
7.351364
20
2000.978080
11
7.302784
21
2000.619880
0
LINE
8
Calque 1
10
7.302784
20
2000.619880
11
7.193747
21
2000.286580
0
LINE
8
Calque 1
10
7.193747
20
2000.286580
11
6.955433
21
1998.695991
0
LINE
8
Calque 1
10
6.955433
20
1998.695991
11
6.943633
21
1997.859850
0
LINE
8
Calque 1
10
6.943633
20
1997.859850
11
6.856813
21
1997.360150
0
LINE
8
Calque 1
10
6.856813
20
1997.360150
11
6.756044
21
1996.451150
0
LINE
8
Calque 1
10
6.756044
20
1996.451150
11
6.779229
21
1994.798712
0
LINE
8
Calque 1
10
6.779229
20
1994.798712
11
6.849064
21
1993.578950
0
LINE
8
Calque 1
10
6.849064
20
1993.578950
11
6.804505
21
1992.155237
0
LINE
8
Calque 1
10
6.804505
20
1992.155237
11
6.861984
21
1990.365750
0
LINE
8
Calque 1
10
6.861984
20
1990.365750
11
7.215968
21
1987.902850
0
LINE
8
Calque 1
10
7.215968
20
1987.902850
11
7.210268
21
1986.363350
0
LINE
8
Calque 1
10
7.210268
20
1986.363350
11
7.442295
21
1982.215350
0
LINE
8
Calque 1
10
7.442295
20
1982.215350
11
7.430415
21
1980.131250
0
LINE
8
Calque 1
10
7.430415
20
1980.131250
11
7.531684
21
1979.072612
0
LINE
8
Calque 1
10
7.531684
20
1979.072612
11
7.579734
21
1978.947539
0
LINE
8
Calque 1
10
7.579734
20
1978.947539
11
7.619551
21
1979.066150
0
LINE
8
Calque 1
10
7.619551
20
1979.066150
11
7.595781
21
1978.652250
0
LINE
8
Calque 1
10
7.595781
20
1978.652250
11
7.573561
21
1975.225050
0
LINE
8
Calque 1
10
7.573561
20
1975.225050
11
7.981289
21
1968.702950
0
LINE
8
Calque 1
10
7.981289
20
1968.702950
11
7.958549
21
1966.529450
0
LINE
8
Calque 1
10
7.958549
20
1966.529450
11
7.971282
21
1966.303962
0
LINE
8
Calque 1
10
7.971282
20
1966.303962
11
7.975089
21
1966.315550
0
LINE
8
Calque 1
10
7.975089
20
1966.315550
11
7.994209
21
1966.140350
0
LINE
8
Calque 1
10
7.994209
20
1966.140350
11
8.048989
21
1965.645250
0
LINE
8
Calque 1
10
8.048989
20
1965.645250
11
8.132189
21
1964.882550
0
LINE
8
Calque 1
10
8.132189
20
1964.882550
11
8.378685
21
1961.912150
0
LINE
8
Calque 1
10
8.378685
20
1961.912150
11
8.459798
21
1959.820087
0
LINE
8
Calque 1
10
8.459798
20
1959.820087
11
8.512010
21
1957.338250
0
LINE
8
Calque 1
10
8.512010
20
1957.338250
11
8.726468
21
1953.820150
0
LINE
8
Calque 1
10
8.726468
20
1953.820150
11
8.577640
21
1950.477750
0
LINE
8
Calque 1
10
8.577640
20
1950.477750
11
8.502190
21
1950.102050
0
LINE
8
Calque 1
10
8.502190
20
1950.102050
11
8.412270
21
1948.931050
0
LINE
8
Calque 1
10
8.412270
20
1948.931050
11
8.647381
21
1947.001337
0
LINE
8
Calque 1
10
8.647381
20
1947.001337
11
8.906297
21
1945.784950
0
LINE
8
Calque 1
10
8.906297
20
1945.784950
11
8.887160
21
1945.877094
0
LINE
8
Calque 1
10
8.887160
20
1945.877094
11
8.874663
21
1945.778548
0
LINE
8
Calque 1
10
8.874663
20
1945.778548
11
8.868607
21
1945.277287
0
LINE
8
Calque 1
10
8.868607
20
1945.277287
11
8.886176
21
1944.816958
0
LINE
8
Calque 1
10
8.886176
20
1944.816958
11
8.925417
21
1944.933350
0
LINE
8
Calque 1
10
8.925417
20
1944.933350
11
8.832801
21
1944.614125
0
LINE
8
Calque 1
10
8.832801
20
1944.614125
11
8.775555
21
1943.455950
0
LINE
8
Calque 1
10
8.775555
20
1943.455950
11
9.003682
21
1941.746600
0
LINE
8
Calque 1
10
9.003682
20
1941.746600
11
9.181732
21
1940.801350
0
LINE
8
Calque 1
10
9.181732
20
1940.801350
11
8.977444
21
1939.584462
0
LINE
8
Calque 1
10
8.977444
20
1939.584462
11
8.516140
21
1937.715150
0
LINE
8
Calque 1
10
8.516140
20
1937.715150
11
8.424255
21
1937.509237
0
LINE
8
Calque 1
10
8.424255
20
1937.509237
11
8.272744
21
1936.585050
0
LINE
8
Calque 1
10
8.272744
20
1936.585050
11
8.303103
21
1935.759100
0
LINE
8
Calque 1
10
8.303103
20
1935.759100
11
8.418988
21
1935.265250
0
LINE
8
Calque 1
10
8.418988
20
1935.265250
11
8.493027
21
1934.947812
0
LINE
8
Calque 1
10
8.493027
20
1934.947812
11
8.504768
21
1934.929850
0
LINE
8
Calque 1
10
8.504768
20
1934.929850
11
8.606570
21
1933.695850
0
LINE
8
Calque 1
10
8.606570
20
1933.695850
11
8.516069
21
1932.725912
0
LINE
8
Calque 1
10
8.516069
20
1932.725912
11
8.519750
21
1930.972450
0
LINE
8
Calque 1
10
8.519750
20
1930.972450
11
8.654625
21
1928.727150
0
LINE
8
Calque 1
10
8.654625
20
1928.727150
11
8.467040
21
1927.577350
0
LINE
8
Calque 1
10
8.467040
20
1927.577350
11
8.412260
21
1924.348050
0
LINE
8
Calque 1
10
8.412260
20
1924.348050
11
8.171448
21
1922.097550
0
LINE
8
Calque 1
10
8.171448
20
1922.097550
11
8.028304
21
1919.003150
0
LINE
8
Calque 1
10
8.028304
20
1919.003150
11
7.910999
21
1914.310450
0
LINE
8
Calque 1
10
7.910999
20
1914.310450
11
7.906827
21
1913.484737
0
LINE
8
Calque 1
10
7.906827
20
1913.484737
11
7.934874
21
1913.411927
0
LINE
8
Calque 1
10
7.934874
20
1913.411927
11
7.959579
21
1913.565250
0
LINE
8
Calque 1
10
7.959579
20
1913.565250
11
7.936329
21
1913.374050
0
LINE
8
Calque 1
10
7.936329
20
1913.374050
11
7.615418
21
1912.382350
0
LINE
8
Calque 1
10
7.615418
20
1912.382350
11
7.469213
21
1910.963050
0
LINE
8
Calque 1
10
7.469213
20
1910.963050
11
7.474342
21
1909.989250
0
LINE
8
Calque 1
10
7.474342
20
1909.989250
11
7.563041
21
1908.435975
0
LINE
8
Calque 1
10
7.563041
20
1908.435975
11
7.694483
21
1907.390450
0
LINE
8
Calque 1
10
7.694483
20
1907.390450
11
7.702165
21
1905.944175
0
LINE
8
Calque 1
10
7.702165
20
1905.944175
11
7.872250
21
1903.982350
0
LINE
8
Calque 1
10
7.872250
20
1903.982350
11
8.250005
21
1902.381450
0
LINE
8
Calque 1
10
8.250005
20
1902.381450
11
8.219762
21
1902.450181
0
LINE
8
Calque 1
10
8.219762
20
1902.450181
11
8.218887
21
1902.343450
0
LINE
8
Calque 1
10
8.218887
20
1902.343450
11
8.350257
21
1901.608850
0
LINE
8
Calque 1
10
8.350257
20
1901.608850
11
8.370407
21
1901.532850
0
LINE
8
Calque 1
10
8.370407
20
1901.532850
11
8.365207
21
1900.666150
0
LINE
8
Calque 1
10
8.365207
20
1900.666150
11
8.426187
21
1900.073950
0
LINE
8
Calque 1
10
8.426187
20
1900.073950
11
8.278909
21
1899.062650
0
LINE
8
Calque 1
10
8.278909
20
1899.062650
11
8.233949
21
1897.827050
0
LINE
8
Calque 1
10
8.233949
20
1897.827050
11
8.169869
21
1897.553250
0
LINE
8
Calque 1
10
8.169869
20
1897.553250
11
8.101139
21
1897.175950
0
LINE
8
Calque 1
10
8.101139
20
1897.175950
11
8.070962
21
1895.601587
0
LINE
8
Calque 1
10
8.070962
20
1895.601587
11
8.194669
21
1895.002450
0
LINE
8
Calque 1
10
8.194669
20
1895.002450
11
8.209139
21
1893.297650
0
LINE
8
Calque 1
10
8.209139
20
1893.297650
11
8.752258
21
1890.092650
0
LINE
8
Calque 1
10
8.752258
20
1890.092650
11
8.963098
21
1889.302050
0
LINE
8
Calque 1
10
8.963098
20
1889.302050
11
9.025628
21
1887.962550
0
LINE
8
Calque 1
10
9.025628
20
1887.962550
11
9.195993
21
1885.397625
0
LINE
8
Calque 1
10
9.195993
20
1885.397625
11
9.137766
21
1882.837350
0
LINE
8
Calque 1
10
9.137766
20
1882.837350
11
9.165178
21
1881.443937
0
LINE
8
Calque 1
10
9.165178
20
1881.443937
11
9.254038
21
1880.612650
0
LINE
8
Calque 1
10
9.254038
20
1880.612650
11
9.277288
21
1878.811750
0
LINE
8
Calque 1
10
9.277288
20
1878.811750
11
9.029758
21
1875.813950
0
LINE
8
Calque 1
10
9.029758
20
1875.813950
11
8.728485
21
1873.084950
0
LINE
8
Calque 1
10
8.728485
20
1873.084950
11
8.343495
21
1871.436450
0
LINE
8
Calque 1
10
8.343495
20
1871.436450
11
8.035504
21
1870.849450
0
LINE
8
Calque 1
10
8.035504
20
1870.849450
11
7.803993
21
1870.082050
0
LINE
8
Calque 1
10
7.803993
20
1870.082050
11
7.603252
21
1868.879200
0
LINE
8
Calque 1
10
7.603252
20
1868.879200
11
7.604522
21
1868.325550
0
LINE
8
Calque 1
10
7.604522
20
1868.325550
11
7.455583
21
1867.504475
0
LINE
8
Calque 1
10
7.455583
20
1867.504475
11
7.305833
21
1866.146850
0
LINE
8
Calque 1
10
7.305833
20
1866.146850
11
7.309933
21
1862.869550
0
LINE
8
Calque 1
10
7.309933
20
1862.869550
11
7.459278
21
1860.559050
0
LINE
8
Calque 1
10
7.459278
20
1860.559050
11
7.185909
21
1857.220750
0
LINE
8
Calque 1
10
7.185909
20
1857.220750
11
7.192109
21
1854.915550
0
LINE
8
Calque 1
10
7.192109
20
1854.915550
11
7.024500
21
1852.021012
0
LINE
8
Calque 1
10
7.024500
20
1852.021012
11
7.044315
21
1849.023350
0
LINE
8
Calque 1
10
7.044315
20
1849.023350
11
7.229833
21
1846.290150
0
LINE
8
Calque 1
10
7.229833
20
1846.290150
11
7.610537
21
1844.508200
0
LINE
8
Calque 1
10
7.610537
20
1844.508200
11
7.951753
21
1843.257250
0
LINE
8
Calque 1
10
7.951753
20
1843.257250
11
8.225121
21
1840.400150
0
LINE
8
Calque 1
10
8.225121
20
1840.400150
11
8.412707
21
1838.400750
0
LINE
8
Calque 1
10
8.412707
20
1838.400750
11
8.320207
21
1836.869050
0
LINE
8
Calque 1
10
8.320207
20
1836.869050
11
8.085596
21
1834.255750
0
LINE
8
Calque 1
10
8.085596
20
1834.255750
11
7.367294
21
1831.053950
0
LINE
8
Calque 1
10
7.367294
20
1831.053950
11
7.277049
21
1830.440650
0
LINE
8
Calque 1
10
7.277049
20
1830.440650
11
7.320784
21
1830.509250
0
LINE
8
Calque 1
10
7.320784
20
1830.509250
11
7.327807
21
1830.700850
0
LINE
8
Calque 1
10
7.327807
20
1830.700850
11
7.112011
21
1829.979550
0
LINE
8
Calque 1
10
7.112011
20
1829.979550
11
6.929455
21
1828.733675
0
LINE
8
Calque 1
10
6.929455
20
1828.733675
11
6.920808
21
1827.886650
0
LINE
8
Calque 1
10
6.920808
20
1827.886650
11
7.029433
21
1822.491375
0
LINE
8
Calque 1
10
7.029433
20
1822.491375
11
7.233967
21
1817.298150
0
LINE
8
Calque 1
10
7.233967
20
1817.298150
11
7.305277
21
1815.023350
0
LINE
8
Calque 1
10
7.305277
20
1815.023350
11
7.251149
21
1813.851175
0
LINE
8
Calque 1
10
7.251149
20
1813.851175
11
7.263937
21
1812.278350
0
LINE
8
Calque 1
10
7.263937
20
1812.278350
11
7.594666
21
1809.678950
0
LINE
8
Calque 1
10
7.594666
20
1809.678950
11
7.912476
21
1808.387550
0
LINE
8
Calque 1
10
7.912476
20
1808.387550
11
8.147087
21
1805.563450
0
LINE
8
Calque 1
10
8.147087
20
1805.563450
11
8.133695
21
1805.738616
0
LINE
8
Calque 1
10
8.133695
20
1805.738616
11
8.105432
21
1805.687375
0
LINE
8
Calque 1
10
8.105432
20
1805.687375
11
8.075777
21
1804.903050
0
LINE
8
Calque 1
10
8.075777
20
1804.903050
11
8.275765
21
1803.012250
0
LINE
8
Calque 1
10
8.275765
20
1803.012250
11
8.246120
21
1803.091886
0
LINE
8
Calque 1
10
8.246120
20
1803.091886
11
8.204975
21
1802.931137
0
LINE
8
Calque 1
10
8.204975
20
1802.931137
11
8.172412
21
1801.890850
0
LINE
8
Calque 1
10
8.172412
20
1801.890850
11
8.208582
21
1801.362650
0
LINE
8
Calque 1
10
8.208582
20
1801.362650
11
8.089726
21
1800.942550
0
LINE
8
Calque 1
10
8.089726
20
1800.942550
11
7.884109
21
1800.662725
0
LINE
8
Calque 1
10
7.884109
20
1800.662725
11
7.485112
21
1799.348350
0
LINE
8
Calque 1
10
7.485112
20
1799.348350
11
7.357938
21
1797.448425
0
LINE
8
Calque 1
10
7.357938
20
1797.448425
11
7.402942
21
1796.164550
0
LINE
8
Calque 1
10
7.402942
20
1796.164550
11
7.044825
21
1793.466550
0
LINE
8
Calque 1
10
7.044825
20
1793.466550
11
7.115190
21
1790.435462
0
LINE
8
Calque 1
10
7.115190
20
1790.435462
11
7.281503
21
1787.929450
0
LINE
8
Calque 1
10
7.281503
20
1787.929450
11
7.161097
21
1784.909450
0
LINE
8
Calque 1
10
7.161097
20
1784.909450
11
7.362801
21
1782.278750
0
LINE
8
Calque 1
10
7.362801
20
1782.278750
11
7.595179
21
1780.204850
0
LINE
8
Calque 1
10
7.595179
20
1780.204850
11
7.592079
21
1779.715950
0
LINE
8
Calque 1
10
7.592079
20
1779.715950
11
7.520769
21
1778.702050
0
LINE
8
Calque 1
10
7.520769
20
1778.702050
11
7.529569
21
1778.018350
0
LINE
8
Calque 1
10
7.529569
20
1778.018350
11
7.648424
21
1777.473250
0
LINE
8
Calque 1
10
7.648424
20
1777.473250
11
7.669614
21
1776.848950
0
LINE
8
Calque 1
10
7.669614
20
1776.848950
11
7.975677
21
1775.142838
0
LINE
8
Calque 1
10
7.975677
20
1775.142838
11
8.314019
21
1774.067250
0
LINE
8
Calque 1
10
8.314019
20
1774.067250
11
8.630279
21
1772.449750
0
LINE
8
Calque 1
10
8.630279
20
1772.449750
11
8.771355
21
1771.879750
0
LINE
8
Calque 1
10
8.771355
20
1771.879750
11
8.809595
21
1770.727350
0
LINE
8
Calque 1
10
8.809595
20
1770.727350
11
8.458195
21
1769.631350
0
LINE
8
Calque 1
10
8.458195
20
1769.631350
11
8.566429
21
1768.632262
0
LINE
8
Calque 1
10
8.566429
20
1768.632262
11
8.888143
21
1767.899650
0
LINE
8
Calque 1
10
8.888143
20
1767.899650
11
9.405424
21
1767.156050
0
LINE
8
Calque 1
10
9.405424
20
1767.156050
11
10.504584
21
1765.322050
0
LINE
8
Calque 1
10
10.504584
20
1765.322050
11
11.026595
21
1764.345537
0
LINE
8
Calque 1
10
11.026595
20
1764.345537
11
11.907084
21
1762.834350
0
LINE
8
Calque 1
10
11.907084
20
1762.834350
11
12.907544
21
1761.599750
0
LINE
8
Calque 1
10
12.907544
20
1761.599750
11
13.000044
21
1761.357350
0
LINE
8
Calque 1
10
13.000044
20
1761.357350
11
13.265144
21
1760.803450
0
LINE
8
Calque 1
10
13.265144
20
1760.803450
11
13.930220
21
1759.630850
0
LINE
8
Calque 1
10
13.930220
20
1759.630850
11
14.138993
21
1759.122950
0
LINE
8
Calque 1
10
14.138993
20
1759.122950
11
14.162696
21
1758.599737
0
LINE
8
Calque 1
10
14.162696
20
1758.599737
11
14.418045
21
1757.724550
0
LINE
8
Calque 1
10
14.418045
20
1757.724550
11
15.333752
21
1755.995450
0
LINE
8
Calque 1
10
15.333752
20
1755.995450
11
16.539459
21
1753.870425
0
LINE
8
Calque 1
10
16.539459
20
1753.870425
11
17.749622
21
1751.507350
0
LINE
8
Calque 1
10
17.749622
20
1751.507350
11
18.903153
21
1749.602000
0
LINE
8
Calque 1
10
18.903153
20
1749.602000
11
19.905042
21
1748.080650
0
LINE
8
Calque 1
10
19.905042
20
1748.080650
11
20.347299
21
1747.216675
0
LINE
8
Calque 1
10
20.347299
20
1747.216675
11
21.167492
21
1745.946950
0
LINE
8
Calque 1
10
21.167492
20
1745.946950
11
21.767455
21
1745.301550
0
LINE
8
Calque 1
10
21.767455
20
1745.301550
11
21.988114
21
1745.009550
0
LINE
8
Calque 1
10
21.988114
20
1745.009550
11
22.773079
21
1744.050950
0
LINE
8
Calque 1
10
22.773079
20
1744.050950
11
23.672249
21
1743.209650
0
LINE
8
Calque 1
10
23.672249
20
1743.209650
11
25.429249
21
1740.798450
0
LINE
8
Calque 1
10
25.429249
20
1740.798450
11
26.519109
21
1739.260550
0
LINE
8
Calque 1
10
26.519109
20
1739.260550
11
26.461190
21
1739.317212
0
LINE
8
Calque 1
10
26.461190
20
1739.317212
11
26.690675
21
1738.819250
0
LINE
8
Calque 1
10
26.690675
20
1738.819250
11
26.690700
21
1738.820000
0
LINE
8
Calque 1
10
26.690700
20
1738.820000
11
27.390399
21
1737.640700
0
LINE
8
Calque 1
10
27.390399
20
1737.640700
11
27.524758
21
1737.082600
0
LINE
8
Calque 1
10
27.524758
20
1737.082600
11
27.524800
21
1737.080000
0
LINE
8
Calque 1
10
27.524800
20
1737.080000
11
28.151971
21
1735.488038
0
LINE
8
Calque 1
10
28.151971
20
1735.488038
11
28.828600
21
1734.288400
0
LINE
8
Calque 1
10
28.828600
20
1734.288400
11
29.377404
21
1733.450700
0
LINE
8
Calque 1
10
29.377404
20
1733.450700
11
29.568607
21
1733.090000
0
LINE
8
Calque 1
10
29.568607
20
1733.090000
11
29.582435
21
1732.988150
0
LINE
8
Calque 1
10
29.582435
20
1732.988150
11
29.865229
21
1732.356800
0
LINE
8
Calque 1
10
29.865229
20
1732.356800
11
31.151459
21
1730.273200
0
LINE
8
Calque 1
10
31.151459
20
1730.273200
11
31.422760
21
1729.605500
0
LINE
8
Calque 1
10
31.422760
20
1729.605500
11
31.422700
21
1729.610000
0
LINE
8
Calque 1
10
31.422700
20
1729.610000
11
31.422700
21
1729.610000
0
LINE
8
Calque 1
10
31.422700
20
1729.610000
11
31.771516
21
1729.148500
0
LINE
8
Calque 1
10
31.771516
20
1729.148500
11
31.988557
21
1728.595600
0
LINE
8
Calque 1
10
31.988557
20
1728.595600
11
31.865291
21
1728.880442
0
LINE
8
Calque 1
10
31.865291
20
1728.880442
11
31.829912
21
1728.844013
0
LINE
8
Calque 1
10
31.829912
20
1728.844013
11
32.180277
21
1727.877800
0
LINE
8
Calque 1
10
32.180277
20
1727.877800
11
32.647432
21
1727.174500
0
LINE
8
Calque 1
10
32.647432
20
1727.174500
11
33.408625
21
1725.439200
0
LINE
8
Calque 1
10
33.408625
20
1725.439200
11
33.408600
21
1725.440000
0
LINE
8
Calque 1
10
33.408600
20
1725.440000
11
33.395959
21
1725.402925
0
LINE
8
Calque 1
10
33.395959
20
1725.402925
11
33.470100
21
1724.913900
0
LINE
8
Calque 1
10
33.470100
20
1724.913900
11
33.562902
21
1724.161613
0
LINE
8
Calque 1
10
33.562902
20
1724.161613
11
34.029756
21
1723.032900
0
LINE
8
Calque 1
10
34.029756
20
1723.032900
11
34.791431
21
1721.998387
0
LINE
8
Calque 1
10
34.791431
20
1721.998387
11
35.205916
21
1721.566800
0
LINE
8
Calque 1
10
35.205916
20
1721.566800
11
35.749389
21
1720.509950
0
LINE
8
Calque 1
10
35.749389
20
1720.509950
11
36.573786
21
1718.798500
0
LINE
8
Calque 1
10
36.573786
20
1718.798500
11
37.269341
21
1717.818587
0
LINE
8
Calque 1
10
37.269341
20
1717.818587
11
37.879136
21
1717.232200
0
LINE
8
Calque 1
10
37.879136
20
1717.232200
11
38.229122
21
1716.870563
0
LINE
8
Calque 1
10
38.229122
20
1716.870563
11
38.186094
21
1716.989300
0
LINE
8
Calque 1
10
38.186094
20
1716.989300
11
39.325044
21
1714.710400
0
LINE
8
Calque 1
10
39.325044
20
1714.710400
11
39.367934
21
1713.972400
0
LINE
8
Calque 1
10
39.367934
20
1713.972400
11
39.590725
21
1713.093236
0
LINE
8
Calque 1
10
39.590725
20
1713.093236
11
40.103300
21
1712.380112
0
LINE
8
Calque 1
10
40.103300
20
1712.380112
11
40.837562
21
1711.898308
0
LINE
8
Calque 1
10
40.837562
20
1711.898308
11
41.725414
21
1711.713100
0
LINE
8
Calque 1
10
41.725414
20
1711.713100
11
43.614704
21
1711.633100
0
LINE
8
Calque 1
10
43.614704
20
1711.633100
11
45.776340
21
1711.792250
0
LINE
8
Calque 1
10
45.776340
20
1711.792250
11
47.603094
21
1711.985600
0
LINE
8
Calque 1
10
47.603094
20
1711.985600
11
50.386384
21
1712.066600
0
LINE
8
Calque 1
10
50.386384
20
1712.066600
11
54.013435
21
1712.239600
0
LINE
8
Calque 1
10
54.013435
20
1712.239600
11
57.627804
21
1712.196300
0
LINE
8
Calque 1
10
57.627804
20
1712.196300
11
57.627800
21
1712.190000
0
LINE
8
Calque 1
10
57.627800
20
1712.190000
11
59.316590
21
1712.166000
0
LINE
8
Calque 1
10
59.316590
20
1712.166000
11
59.701358
21
1711.976150
0
LINE
8
Calque 1
10
59.701358
20
1711.976150
11
61.034830
21
1711.594000
0
LINE
8
Calque 1
10
61.034830
20
1711.594000
11
62.540840
21
1711.425563
0
LINE
8
Calque 1
10
62.540840
20
1711.425563
11
63.566460
21
1711.414100
0
LINE
8
Calque 1
10
63.566460
20
1711.414100
11
65.782860
21
1711.536100
0
LINE
8
Calque 1
10
65.782860
20
1711.536100
11
66.567308
21
1711.677700
0
LINE
8
Calque 1
10
66.567308
20
1711.677700
11
66.613298
21
1711.667700
0
LINE
8
Calque 1
10
66.613298
20
1711.667700
11
67.971358
21
1711.407800
0
LINE
8
Calque 1
10
67.971358
20
1711.407800
11
69.585413
21
1711.275727
0
LINE
8
Calque 1
10
69.585413
20
1711.275727
11
71.039735
21
1711.280763
0
LINE
8
Calque 1
10
71.039735
20
1711.280763
11
73.462498
21
1711.372800
0
LINE
8
Calque 1
10
73.462498
20
1711.372800
11
73.829918
21
1710.920600
0
LINE
8
Calque 1
10
73.829918
20
1710.920600
11
75.015888
21
1708.933700
0
LINE
8
Calque 1
10
75.015888
20
1708.933700
11
76.174988
21
1706.974100
0
LINE
8
Calque 1
10
76.174988
20
1706.974100
11
76.201858
21
1706.900100
0
LINE
8
Calque 1
10
76.201858
20
1706.900100
11
76.201900
21
1706.900000
0
LINE
8
Calque 1
10
76.201900
20
1706.900000
11
76.740279
21
1705.718338
0
LINE
8
Calque 1
10
76.740279
20
1705.718338
11
77.193054
21
1704.906800
0
LINE
8
Calque 1
10
77.193054
20
1704.906800
11
77.044610
21
1705.132613
0
LINE
8
Calque 1
10
77.044610
20
1705.132613
11
77.009988
21
1705.068325
0
LINE
8
Calque 1
10
77.009988
20
1705.068325
11
77.444718
21
1704.023700
0
LINE
8
Calque 1
10
77.444718
20
1704.023700
11
77.444700
21
1704.020000
0
LINE
8
Calque 1
10
77.444700
20
1704.020000
11
77.964565
21
1703.189600
0
LINE
8
Calque 1
10
77.964565
20
1703.189600
11
78.524021
21
1701.759712
0
LINE
8
Calque 1
10
78.524021
20
1701.759712
11
79.512275
21
1699.707100
0
LINE
8
Calque 1
10
79.512275
20
1699.707100
11
80.073481
21
1698.865800
0
LINE
8
Calque 1
10
80.073481
20
1698.865800
11
80.449686
21
1698.026600
0
LINE
8
Calque 1
10
80.449686
20
1698.026600
11
80.449700
21
1698.030000
0
LINE
8
Calque 1
10
80.449700
20
1698.030000
11
81.377292
21
1696.563400
0
LINE
8
Calque 1
10
81.377292
20
1696.563400
11
82.436142
21
1694.425000
0
LINE
8
Calque 1
10
82.436142
20
1694.425000
11
82.871976
21
1693.740950
0
LINE
8
Calque 1
10
82.871976
20
1693.740950
11
82.950233
21
1693.660703
0
LINE
8
Calque 1
10
82.950233
20
1693.660703
11
82.922934
21
1693.746000
0
LINE
8
Calque 1
10
82.922934
20
1693.746000
11
82.832172
21
1693.892527
0
LINE
8
Calque 1
10
82.832172
20
1693.892527
11
82.829600
21
1693.815562
0
LINE
8
Calque 1
10
82.829600
20
1693.815562
11
83.144109
21
1693.008600
0
LINE
8
Calque 1
10
83.144109
20
1693.008600
11
84.237069
21
1690.914700
0
LINE
8
Calque 1
10
84.237069
20
1690.914700
11
85.788399
21
1687.771200
0
LINE
8
Calque 1
10
85.788399
20
1687.771200
11
87.481319
21
1684.260800
0
LINE
8
Calque 1
10
87.481319
20
1684.260800
11
87.888009
21
1683.659800
0
LINE
8
Calque 1
10
87.888009
20
1683.659800
11
88.349999
21
1683.067100
0
LINE
8
Calque 1
10
88.349999
20
1683.067100
11
89.591269
21
1681.518900
0
LINE
8
Calque 1
10
89.591269
20
1681.518900
11
90.808249
21
1680.003200
0
LINE
8
Calque 1
10
90.808249
20
1680.003200
11
91.212869
21
1679.486900
0
LINE
8
Calque 1
10
91.212869
20
1679.486900
11
91.286269
21
1679.377400
0
LINE
8
Calque 1
10
91.286269
20
1679.377400
11
91.300769
21
1679.350400
0
LINE
8
Calque 1
10
91.300769
20
1679.350400
11
91.528149
21
1678.911200
0
LINE
8
Calque 1
10
91.528149
20
1678.911200
11
91.802362
21
1678.366362
0
LINE
8
Calque 1
10
91.802362
20
1678.366362
11
91.880176
21
1678.213292
0
LINE
8
Calque 1
10
91.880176
20
1678.213292
11
91.849579
21
1678.286900
0
LINE
8
Calque 1
10
91.849579
20
1678.286900
11
91.842509
21
1678.252325
0
LINE
8
Calque 1
10
91.842509
20
1678.252325
11
92.048019
21
1677.746900
0
LINE
8
Calque 1
10
92.048019
20
1677.746900
11
92.978189
21
1675.983700
0
LINE
8
Calque 1
10
92.978189
20
1675.983700
11
94.589979
21
1672.650000
0
LINE
8
Calque 1
10
94.589979
20
1672.650000
11
94.909339
21
1671.819600
0
LINE
8
Calque 1
10
94.909339
20
1671.819600
11
95.414695
21
1670.222012
0
LINE
8
Calque 1
10
95.414695
20
1670.222012
11
96.081879
21
1668.359900
0
LINE
8
Calque 1
10
96.081879
20
1668.359900
11
96.660649
21
1667.158900
0
LINE
8
Calque 1
10
96.660649
20
1667.158900
11
97.373269
21
1665.633400
0
LINE
8
Calque 1
10
97.373269
20
1665.633400
11
99.192799
21
1662.203700
0
LINE
8
Calque 1
10
99.192799
20
1662.203700
11
100.125556
21
1660.358300
0
LINE
8
Calque 1
10
100.125556
20
1660.358300
11
103.054576
21
1655.099200
0
LINE
8
Calque 1
10
103.054576
20
1655.099200
11
103.395126
21
1654.451700
0
LINE
8
Calque 1
10
103.395126
20
1654.451700
11
103.371789
21
1654.524550
0
LINE
8
Calque 1
10
103.371789
20
1654.524550
11
103.362026
21
1654.537700
0
LINE
8
Calque 1
10
103.362026
20
1654.537700
11
104.154736
21
1652.972400
0
LINE
8
Calque 1
10
104.154736
20
1652.972400
11
104.639466
21
1652.192600
0
LINE
8
Calque 1
10
104.639466
20
1652.192600
11
104.639000
21
1652.190000
0
LINE
8
Calque 1
10
104.639000
20
1652.190000
11
105.029670
21
1651.292900
0
LINE
8
Calque 1
10
105.029670
20
1651.292900
11
105.692160
21
1650.161100
0
LINE
8
Calque 1
10
105.692160
20
1650.161100
11
105.693000
21
1650.160000
0
LINE
8
Calque 1
10
105.693000
20
1650.160000
11
106.107970
21
1649.375000
0
LINE
8
Calque 1
10
106.107970
20
1649.375000
11
107.643270
21
1646.993800
0
LINE
8
Calque 1
10
107.643270
20
1646.993800
11
109.330510
21
1644.425000
0
LINE
8
Calque 1
10
109.330510
20
1644.425000
11
110.520620
21
1642.946000
0
LINE
8
Calque 1
10
110.520620
20
1642.946000
11
114.035130
21
1638.783400
0
LINE
8
Calque 1
10
114.035130
20
1638.783400
11
116.083580
21
1636.283900
0
LINE
8
Calque 1
10
116.083580
20
1636.283900
11
116.621540
21
1635.425500
0
LINE
8
Calque 1
10
116.621540
20
1635.425500
11
117.556360
21
1634.033900
0
LINE
8
Calque 1
10
117.556360
20
1634.033900
11
117.556000
21
1634.040000
0
LINE
8
Calque 1
10
117.556000
20
1634.040000
11
118.062950
21
1633.228700
0
LINE
8
Calque 1
10
118.062950
20
1633.228700
11
118.516461
21
1632.677012
0
LINE
8
Calque 1
10
118.516461
20
1632.677012
11
118.442250
21
1632.826200
0
LINE
8
Calque 1
10
118.442250
20
1632.826200
11
118.296091
21
1632.994575
0
LINE
8
Calque 1
10
118.296091
20
1632.994575
11
118.560070
21
1632.602400
0
LINE
8
Calque 1
10
118.560070
20
1632.602400
11
119.033430
21
1631.994200
0
LINE
8
Calque 1
10
119.033430
20
1631.994200
11
119.733130
21
1630.902300
0
LINE
8
Calque 1
10
119.733130
20
1630.902300
11
120.530500
21
1629.812400
0
LINE
8
Calque 1
10
120.530500
20
1629.812400
11
121.115470
21
1629.158700
0
LINE
8
Calque 1
10
121.115470
20
1629.158700
11
121.222960
21
1629.015500
0
LINE
8
Calque 1
10
121.222960
20
1629.015500
11
121.497360
21
1628.608900
0
LINE
8
Calque 1
10
121.497360
20
1628.608900
11
122.108700
21
1627.890000
0
LINE
8
Calque 1
10
122.108700
20
1627.890000
11
122.174300
21
1627.759800
0
LINE
8
Calque 1
10
122.174300
20
1627.759800
11
122.179300
21
1627.749800
0
LINE
8
Calque 1
10
122.179300
20
1627.749800
11
122.837140
21
1626.946200
0
LINE
8
Calque 1
10
122.837140
20
1626.946200
11
122.879540
21
1626.868200
0
LINE
8
Calque 1
10
122.879540
20
1626.868200
11
122.883000
21
1626.860000
0
LINE
8
Calque 1
10
122.883000
20
1626.860000
11
123.413720
21
1626.179900
0
LINE
8
Calque 1
10
123.413720
20
1626.179900
11
123.558930
21
1625.982500
0
LINE
8
Calque 1
10
123.558930
20
1625.982500
11
123.562000
21
1625.990000
0
LINE
8
Calque 1
10
123.562000
20
1625.990000
11
123.612100
21
1625.900000
0
LINE
8
Calque 1
10
123.612100
20
1625.900000
11
124.220850
21
1625.062300
0
LINE
8
Calque 1
10
124.220850
20
1625.062300
11
124.520570
21
1624.567300
0
LINE
8
Calque 1
10
124.520570
20
1624.567300
11
124.785150
21
1624.269100
0
LINE
8
Calque 1
10
124.785150
20
1624.269100
11
125.380470
21
1623.095500
0
LINE
8
Calque 1
10
125.380470
20
1623.095500
11
125.702930
21
1622.532800
0
LINE
8
Calque 1
10
125.702930
20
1622.532800
11
126.216590
21
1620.914300
0
LINE
8
Calque 1
10
126.216590
20
1620.914300
11
126.746089
21
1618.910375
0
LINE
8
Calque 1
10
126.746089
20
1618.910375
11
127.650100
21
1616.716100
0
LINE
8
Calque 1
10
127.650100
20
1616.716100
11
127.992190
21
1616.226700
0
LINE
8
Calque 1
10
127.992190
20
1616.226700
11
129.447400
21
1614.779200
0
LINE
8
Calque 1
10
129.447400
20
1614.779200
11
130.832850
21
1613.693500
0
LINE
8
Calque 1
10
130.832850
20
1613.693500
11
131.745157
21
1613.149525
0
LINE
8
Calque 1
10
131.745157
20
1613.149525
11
132.410556
21
1612.980672
0
LINE
8
Calque 1
10
132.410556
20
1612.980672
11
133.326240
21
1612.991800
0
LINE
8
Calque 1
10
133.326240
20
1612.991800
11
134.684146
21
1613.046475
0
LINE
8
Calque 1
10
134.684146
20
1613.046475
11
136.535860
21
1613.250100
0
LINE
8
Calque 1
10
136.535860
20
1613.250100
11
137.303770
21
1613.353000
0
LINE
8
Calque 1
10
137.303770
20
1613.353000
11
137.966579
21
1613.128100
0
LINE
8
Calque 1
10
137.966579
20
1613.128100
11
139.139830
21
1612.945800
0
LINE
8
Calque 1
10
139.139830
20
1612.945800
11
140.574370
21
1612.811900
0
LINE
8
Calque 1
10
140.574370
20
1612.811900
11
141.560870
21
1610.284900
0
LINE
8
Calque 1
10
141.560870
20
1610.284900
11
142.027125
21
1609.524737
0
LINE
8
Calque 1
10
142.027125
20
1609.524737
11
142.368580
21
1609.232800
0
LINE
8
Calque 1
10
142.368580
20
1609.232800
11
142.903430
21
1608.792500
0
LINE
8
Calque 1
10
142.903430
20
1608.792500
11
143.334440
21
1608.421050
0
LINE
8
Calque 1
10
143.334440
20
1608.421050
11
143.402230
21
1608.370653
0
LINE
8
Calque 1
10
143.402230
20
1608.370653
11
143.272400
21
1608.530500
0
LINE
8
Calque 1
10
143.272400
20
1608.530500
11
145.077970
21
1606.612800
0
LINE
8
Calque 1
10
145.077970
20
1606.612800
11
145.531690
21
1605.909000
0
LINE
8
Calque 1
10
145.531690
20
1605.909000
11
146.094970
21
1605.288300
0
LINE
8
Calque 1
10
146.094970
20
1605.288300
11
146.326480
21
1604.861500
0
LINE
8
Calque 1
10
146.326480
20
1604.861500
11
146.828250
21
1604.242400
0
LINE
8
Calque 1
10
146.828250
20
1604.242400
11
147.388430
21
1602.999100
0
LINE
8
Calque 1
10
147.388430
20
1602.999100
11
147.220500
21
1603.310375
0
LINE
8
Calque 1
10
147.220500
20
1603.310375
11
147.525370
21
1602.461100
0
LINE
8
Calque 1
10
147.525370
20
1602.461100
11
148.013722
21
1601.522012
0
LINE
8
Calque 1
10
148.013722
20
1601.522012
11
148.107161
21
1601.438995
0
LINE
8
Calque 1
10
148.107161
20
1601.438995
11
148.069520
21
1601.596100
0
LINE
8
Calque 1
10
148.069520
20
1601.596100
11
148.011462
21
1601.703522
0
LINE
8
Calque 1
10
148.011462
20
1601.703522
11
148.015115
21
1601.622525
0
LINE
8
Calque 1
10
148.015115
20
1601.622525
11
148.266410
21
1600.909300
0
LINE
8
Calque 1
10
148.266410
20
1600.909300
11
148.724780
21
1600.007500
0
LINE
8
Calque 1
10
148.724780
20
1600.007500
11
148.825030
21
1599.872700
0
LINE
8
Calque 1
10
148.825030
20
1599.872700
11
149.764510
21
1597.497100
0
LINE
8
Calque 1
10
149.764510
20
1597.497100
11
149.833210
21
1597.177700
0
LINE
8
Calque 1
10
149.833210
20
1597.177700
11
149.897310
21
1596.946200
0
LINE
8
Calque 1
10
149.897310
20
1596.946200
11
150.193410
21
1596.219100
0
LINE
8
Calque 1
10
150.193410
20
1596.219100
11
150.974760
21
1594.376300
0
LINE
8
Calque 1
10
150.974760
20
1594.376300
11
152.275970
21
1591.030300
0
LINE
8
Calque 1
10
152.275970
20
1591.030300
11
153.669350
21
1588.640850
0
LINE
8
Calque 1
10
153.669350
20
1588.640850
11
154.940930
21
1586.738600
0
LINE
8
Calque 1
10
154.940930
20
1586.738600
11
154.879027
21
1586.770986
0
LINE
8
Calque 1
10
154.879027
20
1586.770986
11
154.922240
21
1586.545962
0
LINE
8
Calque 1
10
154.922240
20
1586.545962
11
155.493350
21
1585.397600
0
LINE
8
Calque 1
10
155.493350
20
1585.397600
11
156.730837
21
1583.270100
0
LINE
8
Calque 1
10
156.730837
20
1583.270100
11
157.814650
21
1581.091900
0
LINE
8
Calque 1
10
157.814650
20
1581.091900
11
157.886435
21
1580.669400
0
LINE
8
Calque 1
10
157.886435
20
1580.669400
11
158.331930
21
1579.442900
0
LINE
8
Calque 1
10
158.331930
20
1579.442900
11
159.647620
21
1577.123100
0
LINE
8
Calque 1
10
159.647620
20
1577.123100
11
159.506365
21
1577.324263
0
LINE
8
Calque 1
10
159.506365
20
1577.324263
11
159.806260
21
1576.674100
0
LINE
8
Calque 1
10
159.806260
20
1576.674100
11
159.807000
21
1576.670000
0
LINE
8
Calque 1
10
159.807000
20
1576.670000
11
160.090190
21
1576.135600
0
LINE
8
Calque 1
10
160.090190
20
1576.135600
11
160.222480
21
1575.911900
0
LINE
8
Calque 1
10
160.222480
20
1575.911900
11
160.355290
21
1575.687100
0
LINE
8
Calque 1
10
160.355290
20
1575.687100
11
160.672580
21
1575.096400
0
LINE
8
Calque 1
10
160.672580
20
1575.096400
11
161.061190
21
1574.666500
0
LINE
8
Calque 1
10
161.061190
20
1574.666500
11
161.646680
21
1573.633400
0
LINE
8
Calque 1
10
161.646680
20
1573.633400
11
162.788093
21
1572.265612
0
LINE
8
Calque 1
10
162.788093
20
1572.265612
11
163.667230
21
1571.388100
0
LINE
8
Calque 1
10
163.667230
20
1571.388100
11
165.041310
21
1569.627500
0
LINE
8
Calque 1
10
165.041310
20
1569.627500
11
166.468475
21
1567.854300
0
LINE
8
Calque 1
10
166.468475
20
1567.854300
11
167.579140
21
1566.406000
0
LINE
8
Calque 1
10
167.579140
20
1566.406000
11
167.579000
21
1566.410000
0
LINE
8
Calque 1
10
167.579000
20
1566.410000
11
167.989310
21
1565.555200
0
LINE
8
Calque 1
10
167.989310
20
1565.555200
11
169.080720
21
1563.845800
0
LINE
8
Calque 1
10
169.080720
20
1563.845800
11
170.695600
21
1560.794300
0
LINE
8
Calque 1
10
170.695600
20
1560.794300
11
171.203580
21
1560.021200
0
LINE
8
Calque 1
10
171.203580
20
1560.021200
11
177.637300
21
1548.415700
0
LINE
8
Calque 1
10
177.637300
20
1548.415700
11
177.743750
21
1548.217300
0
LINE
8
Calque 1
10
177.743750
20
1548.217300
11
177.867260
21
1547.671600
0
LINE
8
Calque 1
10
177.867260
20
1547.671600
11
178.106000
21
1547.018900
0
LINE
8
Calque 1
10
178.106000
20
1547.018900
11
178.689430
21
1545.874300
0
LINE
8
Calque 1
10
178.689430
20
1545.874300
11
179.158685
21
1544.632025
0
LINE
8
Calque 1
10
179.158685
20
1544.632025
11
179.887290
21
1542.939600
0
LINE
8
Calque 1
10
179.887290
20
1542.939600
11
180.396358
21
1542.124400
0
LINE
8
Calque 1
10
180.396358
20
1542.124400
11
180.527050
21
1542.020800
0
LINE
8
Calque 1
10
180.527050
20
1542.020800
11
181.922310
21
1538.787900
0
LINE
8
Calque 1
10
181.922310
20
1538.787900
11
183.949698
21
1534.958325
0
LINE
8
Calque 1
10
183.949698
20
1534.958325
11
186.060560
21
1531.239000
0
LINE
8
Calque 1
10
186.060560
20
1531.239000
11
186.548380
21
1530.427100
0
LINE
8
Calque 1
10
186.548380
20
1530.427100
11
186.738040
21
1530.175500
0
LINE
8
Calque 1
10
186.738040
20
1530.175500
11
186.947330
21
1529.964600
0
LINE
8
Calque 1
10
186.947330
20
1529.964600
11
186.962330
21
1529.940600
0
LINE
8
Calque 1
10
186.962330
20
1529.940600
11
186.972330
21
1529.906600
0
LINE
8
Calque 1
10
186.972330
20
1529.906600
11
187.146480
21
1529.505000
0
LINE
8
Calque 1
10
187.146480
20
1529.505000
11
187.266890
21
1529.307100
0
LINE
8
Calque 1
10
187.266890
20
1529.307100
11
187.357290
21
1529.179000
0
LINE
8
Calque 1
10
187.357290
20
1529.179000
11
187.934000
21
1528.408500
0
LINE
8
Calque 1
10
187.934000
20
1528.408500
11
188.426470
21
1527.791400
0
LINE
8
Calque 1
10
188.426470
20
1527.791400
11
188.644492
21
1527.504800
0
LINE
8
Calque 1
10
188.644492
20
1527.504800
11
188.681240
21
1527.466900
0
LINE
8
Calque 1
10
188.681240
20
1527.466900
11
188.792190
21
1527.276088
0
LINE
8
Calque 1
10
188.792190
20
1527.276088
11
188.781490
21
1527.305700
0
LINE
8
Calque 1
10
188.781490
20
1527.305700
11
188.699371
21
1527.578925
0
LINE
8
Calque 1
10
188.699371
20
1527.578925
11
188.674763
21
1527.665925
0
LINE
8
Calque 1
10
188.674763
20
1527.665925
11
188.687490
21
1527.594000
0
LINE
8
Calque 1
10
188.687490
20
1527.594000
11
189.103490
21
1526.607000
0
LINE
8
Calque 1
10
189.103490
20
1526.607000
11
189.582530
21
1525.948700
0
LINE
8
Calque 1
10
189.582530
20
1525.948700
11
190.888910
21
1524.432500
0
LINE
8
Calque 1
10
190.888910
20
1524.432500
11
191.248060
21
1523.930200
0
LINE
8
Calque 1
10
191.248060
20
1523.930200
11
191.784980
21
1523.125100
0
LINE
8
Calque 1
10
191.784980
20
1523.125100
11
194.073210
21
1520.442500
0
LINE
8
Calque 1
10
194.073210
20
1520.442500
11
194.592560
21
1519.580600
0
LINE
8
Calque 1
10
194.592560
20
1519.580600
11
195.908155
21
1517.996287
0
LINE
8
Calque 1
10
195.908155
20
1517.996287
11
197.018250
21
1516.774600
0
LINE
8
Calque 1
10
197.018250
20
1516.774600
11
198.388190
21
1514.719400
0
LINE
8
Calque 1
10
198.388190
20
1514.719400
11
198.750440
21
1513.991800
0
LINE
8
Calque 1
10
198.750440
20
1513.991800
11
200.534830
21
1511.347500
0
LINE
8
Calque 1
10
200.534830
20
1511.347500
11
201.783850
21
1509.310900
0
LINE
8
Calque 1
10
201.783850
20
1509.310900
11
202.156950
21
1508.755900
0
LINE
8
Calque 1
10
202.156950
20
1508.755900
11
202.324380
21
1508.536800
0
LINE
8
Calque 1
10
202.324380
20
1508.536800
11
202.723840
21
1508.093400
0
LINE
8
Calque 1
10
202.723840
20
1508.093400
11
202.614895
21
1508.232967
0
LINE
8
Calque 1
10
202.614895
20
1508.232967
11
202.616910
21
1508.181687
0
LINE
8
Calque 1
10
202.616910
20
1508.181687
11
202.994630
21
1507.527100
0
LINE
8
Calque 1
10
202.994630
20
1507.527100
11
202.994000
21
1507.520000
0
LINE
8
Calque 1
10
202.994000
20
1507.520000
11
205.496690
21
1503.998800
0
LINE
8
Calque 1
10
205.496690
20
1503.998800
11
206.575212
21
1502.690038
0
LINE
8
Calque 1
10
206.575212
20
1502.690038
11
207.550310
21
1501.693500
0
LINE
8
Calque 1
10
207.550310
20
1501.693500
11
209.618920
21
1499.178400
0
LINE
8
Calque 1
10
209.618920
20
1499.178400
11
209.853530
21
1498.893700
0
LINE
8
Calque 1
10
209.853530
20
1498.893700
11
210.252470
21
1498.232200
0
LINE
8
Calque 1
10
210.252470
20
1498.232200
11
210.979560
21
1497.139800
0
LINE
8
Calque 1
10
210.979560
20
1497.139800
11
211.070460
21
1497.020400
0
LINE
8
Calque 1
10
211.070460
20
1497.020400
11
211.399640
21
1496.686600
0
LINE
8
Calque 1
10
211.399640
20
1496.686600
11
211.874030
21
1495.798800
0
LINE
8
Calque 1
10
211.874030
20
1495.798800
11
212.244188
21
1495.203184
0
LINE
8
Calque 1
10
212.244188
20
1495.203184
11
212.759028
21
1494.747800
0
LINE
8
Calque 1
10
212.759028
20
1494.747800
11
213.381721
21
1494.456816
0
LINE
8
Calque 1
10
213.381721
20
1494.456816
11
214.075440
21
1494.354400
0
LINE
8
Calque 1
10
214.075440
20
1494.354400
11
593.267000
21
1494.360000
0
LINE
8
Calque 1
10
593.267000
20
1494.360000
11
593.267000
21
2289.140000
0
LINE
8
Calque 1
10
593.267000
20
2289.140000
11
193.971000
21
2289.140000
0
LINE
8
Calque 1
10
264.373000
20
2978.840000
11
264.373020
21
2978.839900
0
LINE
8
Calque 1
10
264.373020
20
2978.839900
11
264.373730
21
2978.839200
0
LINE
8
Calque 1
10
264.373730
20
2978.839200
11
264.373020
21
2978.839900
0
LINE
8
Calque 1
10
264.373020
20
2978.839900
11
264.373000
21
2978.840000
0
LINE
8
Calque 1
10
264.373700
20
2978.839200
11
265.084250
21
2976.680700
0
LINE
8
Calque 1
10
265.084250
20
2976.680700
11
265.825300
21
2974.268400
0
LINE
8
Calque 1
10
265.825300
20
2974.268400
11
266.072820
21
2973.385300
0
LINE
8
Calque 1
10
266.072820
20
2973.385300
11
266.854180
21
2971.427200
0
LINE
8
Calque 1
10
266.854180
20
2971.427200
11
267.985890
21
2967.856400
0
LINE
8
Calque 1
10
267.985890
20
2967.856400
11
269.243690
21
2965.248300
0
LINE
8
Calque 1
10
269.243690
20
2965.248300
11
269.245690
21
2965.248300
0
LINE
8
Calque 1
10
269.245690
20
2965.248300
11
270.171730
21
2963.320300
0
LINE
8
Calque 1
10
270.171730
20
2963.320300
11
271.040220
21
2962.232913
0
LINE
8
Calque 1
10
271.040220
20
2962.232913
11
271.957670
21
2961.532300
0
LINE
8
Calque 1
10
271.957670
20
2961.532300
11
272.074460
21
2961.470300
0
LINE
8
Calque 1
10
272.074460
20
2961.470300
11
271.959730
21
2961.532300
0
LINE
8
Calque 1
10
271.959730
20
2961.532300
11
272.299770
21
2961.401100
0
LINE
8
Calque 1
10
272.299770
20
2961.401100
11
272.718340
21
2961.264100
0
LINE
8
Calque 1
10
272.718340
20
2961.264100
11
272.718630
21
2961.263800
0
LINE
8
Calque 1
10
272.718630
20
2961.263800
11
272.954800
21
2961.193800
0
LINE
8
Calque 1
10
272.954800
20
2961.193800
11
273.747000
21
2961.305500
0
LINE
8
Calque 1
10
273.747000
20
2961.305500
11
273.747700
21
2961.304700
0
LINE
8
Calque 1
10
273.747700
20
2961.304700
11
274.010740
21
2961.344700
0
LINE
8
Calque 1
10
274.010740
20
2961.344700
11
274.171960
21
2961.421700
0
LINE
8
Calque 1
10
274.171960
20
2961.421700
11
274.560570
21
2961.583900
0
LINE
8
Calque 1
10
274.560570
20
2961.583900
11
275.139350
21
2962.334300
0
LINE
8
Calque 1
10
275.139350
20
2962.334300
11
275.478879
21
2962.972575
0
LINE
8
Calque 1
10
275.478879
20
2962.972575
11
275.596160
21
2963.212300
0
LINE
8
Calque 1
10
275.596160
20
2963.212300
11
275.609060
21
2964.646800
0
LINE
8
Calque 1
10
275.609060
20
2964.646800
11
275.608780
21
2964.647100
0
LINE
8
Calque 1
10
275.608780
20
2964.647100
11
275.491470
21
2965.706000
0
LINE
8
Calque 1
10
275.491470
20
2965.706000
11
274.762330
21
2967.465600
0
LINE
8
Calque 1
10
274.762330
20
2967.465600
11
274.411440
21
2968.385900
0
LINE
8
Calque 1
10
274.411440
20
2968.385900
11
273.738370
21
2969.637463
0
LINE
8
Calque 1
10
273.738370
20
2969.637463
11
272.856500
21
2970.909800
0
LINE
8
Calque 1
10
272.856500
20
2970.909800
11
272.291160
21
2971.649800
0
LINE
8
Calque 1
10
272.291160
20
2971.649800
11
272.290880
21
2971.650100
0
LINE
8
Calque 1
10
272.290880
20
2971.650100
11
270.740590
21
2973.003000
0
LINE
8
Calque 1
10
270.740590
20
2973.003000
11
269.750970
21
2974.045300
0
LINE
8
Calque 1
10
269.750970
20
2974.045300
11
269.412490
21
2974.339300
0
LINE
8
Calque 1
10
269.412490
20
2974.339300
11
268.532970
21
2975.248300
0
LINE
8
Calque 1
10
268.532970
20
2975.248300
11
268.049270
21
2975.624000
0
LINE
8
Calque 1
10
268.049270
20
2975.624000
11
268.048270
21
2975.624000
0
LINE
8
Calque 1
10
268.048270
20
2975.624000
11
267.666900
21
2975.986300
0
LINE
8
Calque 1
10
267.666900
20
2975.986300
11
267.460700
21
2976.158900
0
LINE
8
Calque 1
10
267.460700
20
2976.158900
11
266.272650
21
2977.364000
0
LINE
8
Calque 1
10
266.272650
20
2977.364000
11
265.315100
21
2978.051800
0
LINE
8
Calque 1
10
265.315100
20
2978.051800
11
264.756480
21
2978.547400
0
LINE
8
Calque 1
10
264.756480
20
2978.547400
11
264.749480
21
2978.568400
0
LINE
8
Calque 1
10
264.749480
20
2978.568400
11
264.372760
21
2978.840700
0
LINE
8
Calque 1
10
264.372760
20
2978.840700
11
264.373700
21
2978.839200
0
LINE
8
Calque 1
10
267.667560
20
2975.985100
11
267.827511
21
2975.861700
0
LINE
8
Calque 1
10
267.827511
20
2975.861700
11
267.742460
21
2975.950100
0
LINE
8
Calque 1
10
267.742460
20
2975.950100
11
267.627865
21
2976.043275
0
LINE
8
Calque 1
10
267.627865
20
2976.043275
11
267.667560
21
2975.985100
0
LINE
8
Calque 1
10
267.667560
20
2975.985100
11
267.667560
21
2975.985100
0
LINE
8
COUPE
10
242.000000
20
1481.500000
11
598.000000
21
1481.500000
0
LINE
8
COUPE
10
598.000000
20
1481.500000
11
598.000000
21
1064.070000
0
LINE
8
COUPE
10
598.000000
20
1064.070000
11
242.000000
21
1064.070000
0
LINE
8
COUPE
10
242.000000
20
1064.070000
11
242.000000
21
1481.500000
0
LINE
8
COUPE
10
1.999880
20
1481.500000
11
238.000000
21
1481.500000
0
LINE
8
COUPE
10
238.000000
20
1481.500000
11
238.000000
21
1060.070000
0
LINE
8
COUPE
10
238.000000
20
1060.070000
11
238.000000
21
672.563000
0
LINE
8
COUPE
10
238.000000
20
672.563000
11
1.999880
21
672.563000
0
LINE
8
COUPE
10
1.999880
20
672.563000
11
1.999880
21
1481.500000
0
LINE
8
COUPE
10
1.999880
20
2298.000000
11
452.000000
21
2298.000000
0
LINE
8
COUPE
10
452.000000
20
2298.000000
11
598.000000
21
2298.000000
0
LINE
8
COUPE
10
598.000000
20
2298.000000
11
598.000000
21
1485.500000
0
LINE
8
COUPE
10
598.000000
20
1485.500000
11
238.000000
21
1485.500000
0
LINE
8
COUPE
10
238.000000
20
1485.500000
11
1.999880
21
1485.500000
0
LINE
8
COUPE
10
1.999880
20
1485.500000
11
1.999880
21
2298.000000
0
LINE
8
COUPE
10
302.000000
20
2998.000000
11
448.000000
21
2998.000000
0
LINE
8
COUPE
10
448.000000
20
2998.000000
11
448.000000
21
2802.000000
0
LINE
8
COUPE
10
448.000000
20
2802.000000
11
302.000000
21
2802.000000
0
LINE
8
COUPE
10
302.000000
20
2802.000000
11
302.000000
21
2938.000000
0
LINE
8
COUPE
10
302.000000
20
2938.000000
11
302.000000
21
2998.000000
0
LINE
8
COUPE
10
242.000000
20
2998.000000
11
298.000000
21
2998.000000
0
LINE
8
COUPE
10
298.000000
20
2998.000000
11
298.000000
21
2942.000000
0
LINE
8
COUPE
10
298.000000
20
2942.000000
11
242.000000
21
2942.000000
0
LINE
8
COUPE
10
242.000000
20
2942.000000
11
242.000000
21
2998.000000
0
LINE
8
COUPE
10
1.999880
20
2998.000000
11
238.000000
21
2998.000000
0
LINE
8
COUPE
10
238.000000
20
2998.000000
11
238.000000
21
2938.000000
0
LINE
8
COUPE
10
238.000000
20
2938.000000
11
298.000000
21
2938.000000
0
LINE
8
COUPE
10
298.000000
20
2938.000000
11
298.000000
21
2798.000000
0
LINE
8
COUPE
10
298.000000
20
2798.000000
11
448.000000
21
2798.000000
0
LINE
8
COUPE
10
448.000000
20
2798.000000
11
448.000000
21
2302.000000
0
LINE
8
COUPE
10
448.000000
20
2302.000000
11
1.999880
21
2302.000000
0
LINE
8
COUPE
10
1.999880
20
2302.000000
11
1.999880
21
2998.000000
 0 
ENDSEC
 0 
EOF